  0
SECTION
  2
HEADER
  9
$ACADVER
  1
AC1009
  9
$INSBASE
 10
0
 20
0
 30
0
  9
$EXTMIN
 10
0
 20
0
  9
$EXTMAX
 10
1189
 20
841
  9
$LIMMIN
 10
0
 20
0
  9
$LIMMAX
 10
1189
 20
841
  9
$LTSCALE
 40
1
  0
ENDSEC
  0
SECTION
  2
TABLES
  0
TABLE
  2
LTYPE
 70
     9
  0
LTYPE
  2
CONTINUOUS
 70
    64
  3
実線
 72
    65
 73
     0
 40
0.0
  0
LTYPE
  2
DASHED1
 70
    64
  3
--  --  --  --  --  --  --  --  
 72
    65
 73
     2
 40
2.5
 49
1.25
 49
-1.25
  0
LTYPE
  2
DASHED2
 70
    64
  3
----    ----    ----    ----    
 72
    65
 73
     2
 40
5.0
 49
2.5
 49
-2.5
  0
LTYPE
  2
DASHED3
 70
    64
  3
------  ------  ------  ------  
 72
    65
 73
     2
 40
5.0
 49
3.75
 49
-1.25
  0
LTYPE
  2
CENTER1
 70
    64
  3
----- - ----- - ----- - ----- - 
 72
    65
 73
     4
 40
10.0
 49
6.25
 49
-1.25
 49
1.25
 49
-1.25
  0
LTYPE
  2
CENTER2
 70
    64
  3
----------  --  ----------  --  
 72
    65
 73
     4
 40
20.0
 49
12.5
 49
-2.5
 49
2.5
 49
-2.5
  0
LTYPE
  2
PHANTOM1
 70
    64
  3
--- - - --- - - --- - - --- - - 
 72
    65
 73
     6
 40
10.0
 49
3.25
 49
-1.25
 49
1.25
 49
-1.25
 49
1.25
 49
-1.25
  0
LTYPE
  2
PHANTOM2
 70
    64
  3
--------  -  -  --------  -  -  
 72
    65
 73
     6
 40
20.0
 49
10.0
 49
-2.5
 49
1.25
 49
-2.5
 49
1.25
 49
-2.5
  0
LTYPE
  2
DOT
 70
    64
  3
-   -   -   -   -   -   -   -   
 72
    65
 73
     2
 40
2.5
 49
0.625
 49
-1.875
  0
LTYPE
  2
DUMMY
 70
    64
  3
ダミー
 72
    65
 73
     0
 40
0.0
  0
LTYPE
  2
RAND1
 70
    64
  3
ランダム線1
 72
    65
 73
     4
 40
10.0
 49
1.0
 49
-2.0
 49
3.0
 49
-4.0
  0
LTYPE
  2
RAND2
 70
    64
  3
ランダム線2
 72
    65
 73
     4
 40
14.0
 49
2.0
 49
-3.0
 49
4.0
 49
-5.0
  0
LTYPE
  2
RAND3
 70
    64
  3
ランダム線3
 72
    65
 73
     4
 40
18.0
 49
3.0
 49
-4.0
 49
5.0
 49
-6.0
  0
LTYPE
  2
RAND4
 70
    64
  3
ランダム線4
 72
    65
 73
     4
 40
22.0
 49
4.0
 49
-5.0
 49
6.0
 49
-7.0
  0
LTYPE
  2
RAND5
 70
    64
  3
ランダム線5
 72
    65
 73
     4
 40
26.0
 49
5.0
 49
-6.0
 49
7.0
 49
-8.0
  0
LTYPE
  2
LONG1
 70
    64
  3
----------  --  ----------  --  
 72
    65
 73
     4
 40
40.0
 49
32.5
 49
-2.5
 49
2.5
 49
-2.5
  0
LTYPE
  2
LONG2
 70
    64
  3
--------  -  -  --------  -  -  
 72
    65
 73
     6
 40
40.0
 49
30.0
 49
-2.5
 49
1.25
 49
-2.5
 49
1.25
 49
-2.5
  0
LTYPE
  2
LONG3
 70
    64
  3
+++++++++++++++..+++++++++++++++
 72
    65
 73
     2
 40
40.0
 49
37.5
 49
-2.5
  0
LTYPE
  2
LONG4
 70
    64
  3
+++++++++++++++..+++++++++++++++
 72
    65
 73
     2
 40
80.0
 49
75.0
 49
-5.0
  0
LTYPE
  2
LONG5
 70
    64
  3
----------  --  ----------  --  
 72
    65
 73
     4
 40
60.0
 49
37.5
 49
-7.5
 49
7.5
 49
-7.5
  0
LTYPE
  2
dashed
 70
   64
  3
-------   -------------   ------
 72
   65
 73
    2
 40
7.5
 49
6
 49
-1.5
  0
LTYPE
  2
dashed_spaced
 70
   64
  3
----        --------        ----
 72
   65
 73
    2
 40
12
 49
6
 49
-6
  0
LTYPE
  2
long_dashed_dotted
 70
   64
  3
------------- --- --------------
 72
   65
 73
    4
 40
15.25
 49
12
 49
-1.5
 49
0.25
 49
-1.5
  0
LTYPE
  2
long_dashed_double-dotted
 70
   64
  3
----------- --- --- ------------
 72
   65
 73
    6
 40
17
 49
12
 49
-1.5
 49
0.25
 49
-1.5
 49
0.25
 49
-1.5
  0
LTYPE
  2
long_dashed_triplicate-dotted
 70
   64
  3
--------- --- --- --- ----------
 72
   65
 73
    8
 40
18.75
 49
12
 49
-1.5
 49
0.25
 49
-1.5
 49
0.25
 49
-1.5
 49
0.25
 49
-1.5
  0
LTYPE
  2
dotted
 70
   64
  3
   -       -       -       -    
 72
   65
 73
    2
 40
1.75
 49
0.25
 49
-1.5
  0
LTYPE
  2
chain
 70
   64
  3
-------------- -- --------------
 72
   65
 73
    4
 40
18.5
 49
12
 49
-1.5
 49
3.5
 49
-1.5
  0
LTYPE
  2
chain_double_dash
 70
   64
  3
------------ -- -- -------------
 72
   65
 73
    6
 40
23.5
 49
12
 49
-1.5
 49
3.5
 49
-1.5
 49
3.5
 49
-1.5
  0
LTYPE
  2
dashed_dotted
 70
   64
  3
-----------     -     ----------
 72
   65
 73
    4
 40
9.25
 49
6
 49
-1.5
 49
0.25
 49
-1.5
  0
LTYPE
  2
double-dashed_dotted
 70
   64
  3
------   -----------   -   -----
 72
   65
 73
    6
 40
16.75
 49
6
 49
-1.5
 49
6
 49
-1.5
 49
0.25
 49
-1.5
  0
LTYPE
  2
dashed_double-dotted
 70
   64
  3
---------    -    -    ---------
 72
   65
 73
    6
 40
11
 49
6
 49
-1.5
 49
0.25
 49
-1.5
 49
0.25
 49
-1.5
  0
LTYPE
  2
double-dashed_double-dotted
 70
   64
  3
-----   ---------   -   -   ----
 72
   65
 73
    8
 40
18.5
 49
6
 49
-1.5
 49
6
 49
-1.5
 49
0.25
 49
-1.5
 49
0.25
 49
-1.5
  0
LTYPE
  2
dashed_triplicate-dotted
 70
   64
  3
-------    -    -    -    ------
 72
   65
 73
    8
 40
12.75
 49
6
 49
-1.5
 49
0.25
 49
-1.5
 49
0.25
 49
-1.5
 49
0.25
 49
-1.5
  0
LTYPE
  2
double-dashed_triplicate-dotted
 70
   64
  3
-----  ---------  -  -  -  -----
 72
   65
 73
   10
 40
20.25
 49
6
 49
-1.5
 49
6
 49
-1.5
 49
0.25
 49
-1.5
 49
0.25
 49
-1.5
 49
0.25
 49
-1.5
  0
LTYPE
  2
undefined
 70
   64
  3
--------------------------------
 72
   65
 73
    0
 40
0
  0
ENDTAB
  0
TABLE
  2
STYLE
  5
3
100
AcDbSymbolTable
 70
     1
  0
STYLE
  5
10
100
AcDbSymbolTableRecord
100
AcDbTextStyleTableRecord
  2
STANDARD
 70
     0
 40
0.0
 41
1.0
 50
0.0
 71
     0
 42
0.2
  3
txt
  4
bigfont.shx
  0
STYLE
  5
26
100
AcDbSymbolTableRecord
100
AcDbTextStyleTableRecord
  2
TATEGAKI
 70
    68
 40
0.0
 41
1.0
 50
0.0
 71
     0
 42
1.0
  3
txt
  4
bigfont.shx
  0
ENDTAB
  0
TABLE
  2
LAYER
 70
    4
  0
LAYER
  2
_0-0_
 70
   64
 62
    7
  6
CONTINUOUS
  0
LAYER
  2
_0-1_
 70
   64
 62
    7
  6
CONTINUOUS
  0
LAYER
  2
_0-f_
 70
   64
 62
    7
  6
CONTINUOUS
  0
LAYER
  2
ADD_LINE
 70
   64
 62
    7
  6
CONTINUOUS
  0
ENDTAB
  0
ENDSEC
  0
SECTION
  2
BLOCKS
  0
ENDSEC
  0
SECTION
  2
ENTITIES
  0
TEXT
  8
_0-f_
 62
    7
 10
0.6827168988131688
 20
0.4530989771728855
 40
4.2999999999999998
 41
0.744186046511628
 50
0
  1
F44K
  0
LINE
  8
_0-0_
  6
CONTINUOUS
 62
    7
 10
41.180904605154979
 20
7.615486961149486
 11
41.180904605154979
 21
20.51548696114935
  0
LINE
  8
_0-0_
  6
CONTINUOUS
 62
    7
 10
40.680904605154979
 20
21.01548696114935
 11
38.898938593904973
 21
21.01548696114935
  0
LINE
  8
_0-0_
  6
CONTINUOUS
 62
    7
 10
38.675331796154865
 20
20.962700556649338
 11
37.857297807404962
 21
20.553683562274387
  0
LINE
  8
_0-0_
  6
CONTINUOUS
 62
    7
 10
37.580904605155069
 20
20.106469966774398
 11
37.580904605155069
 21
18.615486961149486
  0
LINE
  8
_0-0_
  6
CONTINUOUS
 62
    7
 10
37.080904605155069
 20
18.115486961149486
 11
32.888011386341645
 21
18.115486961149486
  0
LINE
  8
_0-0_
  6
CONTINUOUS
 62
    7
 10
32.534457995748312
 20
18.261933570556153
 11
31.327351214561645
 21
19.469040351742592
  0
LINE
  8
_0-0_
  6
CONTINUOUS
 62
    7
 10
31.180904605154979
 20
19.822593742335926
 11
31.180904605154979
 21
32.408380179962819
  0
LINE
  8
_0-0_
  6
CONTINUOUS
 62
    7
 10
31.327351214561645
 20
32.761933570556153
 11
32.534457995748312
 21
33.969040351742819
  0
LINE
  8
_0-0_
  6
CONTINUOUS
 62
    7
 10
32.888011386341645
 20
34.115486961149486
 11
37.080904605155069
 21
34.115486961149486
  0
LINE
  8
_0-0_
  6
CONTINUOUS
 62
    7
 10
37.580904605155069
 20
33.615486961149486
 11
37.580904605155069
 21
32.124503955524347
  0
LINE
  8
_0-0_
  6
CONTINUOUS
 62
    7
 10
37.857297807404962
 20
31.677290360024358
 11
38.675331796154865
 21
31.268273365649407
  0
LINE
  8
_0-0_
  6
CONTINUOUS
 62
    7
 10
38.898938593904973
 20
31.215486961149395
 11
40.680904605154979
 21
31.215486961149395
  0
LINE
  8
_0-0_
  6
CONTINUOUS
 62
    7
 10
41.180904605154979
 20
31.715486961149395
 11
41.180904605154979
 21
44.615486961149372
  0
LINE
  8
_0-0_
  6
CONTINUOUS
 62
    7
 10
39.080904605155069
 20
44.515486961149463
 11
31.280904605155342
 21
44.515486961149463
  0
LINE
  8
_0-0_
  6
CONTINUOUS
 62
    7
 10
30.780904605155342
 20
44.015486961149463
 11
30.780904605155342
 21
36.215486961149509
  0
LINE
  8
_0-0_
  6
CONTINUOUS
 62
    7
 10
31.280904605155342
 20
35.715486961149509
 11
39.080904605155069
 21
35.715486961149509
  0
LINE
  8
_0-0_
  6
CONTINUOUS
 62
    7
 10
39.580904605155069
 20
36.215486961149509
 11
39.580904605155069
 21
44.015486961149463
  0
LINE
  8
_0-0_
  6
CONTINUOUS
 62
    7
 10
39.680904605154979
 20
46.115486961149372
 11
26.780904605155342
 21
46.115486961149372
  0
LINE
  8
_0-0_
  6
CONTINUOUS
 62
    7
 10
26.280904605155342
 20
45.615486961149372
 11
26.280904605155342
 21
43.833520949899366
  0
LINE
  8
_0-0_
  6
CONTINUOUS
 62
    7
 10
26.333691009655126
 20
43.609914152149258
 11
26.742708004030305
 21
42.791880163399355
  0
LINE
  8
_0-0_
  6
CONTINUOUS
 62
    7
 10
27.189921599530066
 20
42.515486961149463
 11
28.680904605154979
 21
42.515486961149463
  0
LINE
  8
_0-0_
  6
CONTINUOUS
 62
    7
 10
29.180904605154979
 20
42.015486961149463
 11
29.180904605154979
 21
37.822593742336039
  0
LINE
  8
_0-0_
  6
CONTINUOUS
 62
    7
 10
29.034457995748312
 20
37.469040351742706
 11
27.8273512145621
 21
36.261933570556266
  0
LINE
  8
_0-0_
  6
CONTINUOUS
 62
    7
 10
27.473797823968766
 20
36.115486961149372
 11
14.888011386341645
 21
36.115486961149372
  0
LINE
  8
_0-0_
  6
CONTINUOUS
 62
    7
 10
14.534457995748312
 20
36.261933570556266
 11
13.327351214561645
 21
37.469040351742706
  0
LINE
  8
_0-0_
  6
CONTINUOUS
 62
    7
 10
13.180904605154979
 20
37.822593742336039
 11
13.180904605154979
 21
42.015486961149463
  0
LINE
  8
_0-0_
  6
CONTINUOUS
 62
    7
 10
13.680904605154979
 20
42.515486961149463
 11
15.171887610780345
 21
42.515486961149463
  0
LINE
  8
_0-0_
  6
CONTINUOUS
 62
    7
 10
15.619101206280106
 20
42.791880163399355
 11
16.028118200655285
 21
43.609914152149258
  0
LINE
  8
_0-0_
  6
CONTINUOUS
 62
    7
 10
16.080904605155069
 20
43.833520949899366
 11
16.080904605155069
 21
45.615486961149372
  0
LINE
  8
_0-0_
  6
CONTINUOUS
 62
    7
 10
15.580904605155069
 20
46.115486961149372
 11
2.6809046051549785
 21
46.115486961149372
  0
LINE
  8
_0-0_
  6
CONTINUOUS
 62
    7
 10
2.7809046051548876
 20
44.015486961149463
 11
2.7809046051548876
 21
36.215486961149509
  0
LINE
  8
_0-0_
  6
CONTINUOUS
 62
    7
 10
3.2809046051548876
 20
35.715486961149509
 11
11.080904605155069
 21
35.715486961149509
  0
LINE
  8
_0-0_
  6
CONTINUOUS
 62
    7
 10
11.580904605155069
 20
36.215486961149509
 11
11.580904605155069
 21
44.015486961149463
  0
LINE
  8
_0-0_
  6
CONTINUOUS
 62
    7
 10
11.080904605155069
 20
44.515486961149463
 11
3.2809046051548876
 21
44.515486961149463
  0
LINE
  8
_0-0_
  6
CONTINUOUS
 62
    7
 10
1.1809046051549785
 20
44.615486961149372
 11
1.1809046051549785
 21
31.715486961149395
  0
LINE
  8
_0-0_
  6
CONTINUOUS
 62
    7
 10
1.6809046051549785
 20
31.215486961149395
 11
3.4628706164049845
 21
31.215486961149395
  0
LINE
  8
_0-0_
  6
CONTINUOUS
 62
    7
 10
3.6864774141550924
 20
31.268273365649407
 11
4.5045114029049955
 21
31.677290360024358
  0
LINE
  8
_0-0_
  6
CONTINUOUS
 62
    7
 10
4.7809046051548876
 20
32.124503955524347
 11
4.7809046051548876
 21
33.615486961149486
  0
LINE
  8
_0-0_
  6
CONTINUOUS
 62
    7
 10
5.2809046051548876
 20
34.115486961149486
 11
9.4737978239683116
 21
34.115486961149486
  0
LINE
  8
_0-0_
  6
CONTINUOUS
 62
    7
 10
9.8273512145616451
 20
33.969040351742819
 11
11.034457995748312
 21
32.761933570556153
  0
LINE
  8
_0-0_
  6
CONTINUOUS
 62
    7
 10
11.180904605154979
 20
32.408380179962819
 11
11.180904605154979
 21
19.822593742335926
  0
LINE
  8
_0-0_
  6
CONTINUOUS
 62
    7
 10
11.034457995748312
 20
19.469040351742819
 11
9.8273512145616451
 21
18.261933570556153
  0
LINE
  8
_0-0_
  6
CONTINUOUS
 62
    7
 10
9.4737978239683116
 20
18.115486961149486
 11
5.2809046051548876
 21
18.115486961149486
  0
LINE
  8
_0-0_
  6
CONTINUOUS
 62
    7
 10
4.7809046051548876
 20
18.615486961149486
 11
4.7809046051548876
 21
20.106469966774398
  0
LINE
  8
_0-0_
  6
CONTINUOUS
 62
    7
 10
4.5045114029049955
 20
20.553683562274387
 11
3.6864774141550924
 21
20.962700556649338
  0
LINE
  8
_0-0_
  6
CONTINUOUS
 62
    7
 10
3.4628706164049845
 20
21.01548696114935
 11
1.6809046051549785
 21
21.01548696114935
  0
LINE
  8
_0-0_
  6
CONTINUOUS
 62
    7
 10
1.1809046051549785
 20
20.51548696114935
 11
1.1809046051549785
 21
7.615486961149486
  0
LINE
  8
_0-0_
  6
CONTINUOUS
 62
    7
 10
3.2809046051548876
 20
8.115486961149486
 11
14.54537069922219
 21
8.115486961149486
  0
LINE
  8
_0-0_
  6
CONTINUOUS
 62
    7
 10
14.898924089815523
 20
8.2619335705561525
 11
15.10603087100219
 21
8.4690403517428194
  0
LINE
  8
_0-0_
  6
CONTINUOUS
 62
    7
 10
15.459584261595523
 20
8.615486961149486
 11
16.66134272630336
 21
8.615486961149486
  0
LINE
  8
_0-0_
  6
CONTINUOUS
 62
    7
 10
17.144305639447907
 20
8.9860774385982722
 11
17.481605185999911
 21
10.2448964837007
  0
LINE
  8
_0-0_
  6
CONTINUOUS
 62
    7
 10
17.964568099144458
 20
10.615486961149486
 11
24.397241111165499
 21
10.615486961149486
  0
LINE
  8
_0-0_
  6
CONTINUOUS
 62
    7
 10
24.880204024310046
 20
10.2448964837007
 11
25.217503570862505
 21
8.9860774385982722
  0
LINE
  8
_0-0_
  6
CONTINUOUS
 62
    7
 10
25.700466484007052
 20
8.615486961149486
 11
26.902224948714888
 21
8.615486961149486
  0
LINE
  8
_0-0_
  6
CONTINUOUS
 62
    7
 10
27.255778339308222
 20
8.4690403517428194
 11
27.462885120494434
 21
8.2619335705561525
  0
LINE
  8
_0-0_
  6
CONTINUOUS
 62
    7
 10
27.816438511087767
 20
8.115486961149486
 11
39.080904605155069
 21
8.115486961149486
  0
LINE
  8
_0-0_
  6
CONTINUOUS
 62
    7
 10
39.580904605155069
 20
8.615486961149486
 11
39.580904605155069
 21
15.615486961149486
  0
LINE
  8
_0-0_
  6
CONTINUOUS
 62
    7
 10
39.080904605155069
 20
16.115486961149486
 11
3.2809046051548876
 21
16.115486961149486
  0
LINE
  8
_0-0_
  6
CONTINUOUS
 62
    7
 10
2.7809046051548876
 20
15.615486961149486
 11
2.7809046051548876
 21
8.615486961149486
  0
LINE
  8
_0-0_
  6
CONTINUOUS
 62
    7
 10
2.6809046051549785
 20
6.115486961149486
 11
15.373797823968403
 21
6.115486961149486
  0
LINE
  8
_0-0_
  6
CONTINUOUS
 62
    7
 10
15.727351214561736
 20
6.2619335705561525
 11
15.934457995748403
 21
6.4690403517428194
  0
LINE
  8
_0-0_
  6
CONTINUOUS
 62
    7
 10
16.288011386341736
 20
6.615486961149486
 11
26.073797823968675
 21
6.615486961149486
  0
LINE
  8
_0-0_
  6
CONTINUOUS
 62
    7
 10
26.427351214562009
 20
6.4690403517428194
 11
26.634457995748221
 21
6.2619335705561525
  0
LINE
  8
_0-0_
  6
CONTINUOUS
 62
    7
 10
26.988011386341554
 20
6.115486961149486
 11
39.680904605154979
 21
6.115486961149486
  0
LINE
  8
_0-0_
  6
CONTINUOUS
 62
    7
 10
21.430904605154979
 20
30.948499663041616
 11
22.584494443641347
 21
30.282474259257128
  0
LINE
  8
_0-0_
  6
CONTINUOUS
 62
    7
 10
22.834494443641347
 20
30.215486961149395
 11
23.88318600699688
 21
30.215486961149395
  0
LINE
  8
_0-0_
  6
CONTINUOUS
 62
    7
 10
24.877393054562731
 20
31.108005118169444
 11
25.132660380451512
 21
33.46922788263953
  0
LINE
  8
_0-0_
  6
CONTINUOUS
 62
    7
 10
25.62976390423421
 20
33.915486961149441
 11
29.080904605155069
 21
33.915486961149441
  0
LINE
  8
_0-0_
  6
CONTINUOUS
 62
    7
 10
29.580904605155069
 20
33.415486961149441
 11
29.580904605155069
 21
18.815486961149531
  0
LINE
  8
_0-0_
  6
CONTINUOUS
 62
    7
 10
29.080904605155069
 20
18.315486961149531
 11
25.62976390423421
 21
18.315486961149531
  0
LINE
  8
_0-0_
  6
CONTINUOUS
 62
    7
 10
25.132660380451512
 20
18.761746039659442
 11
24.877393054562731
 21
21.122968804129528
  0
LINE
  8
_0-0_
  6
CONTINUOUS
 62
    7
 10
23.88318600699688
 20
22.01548696114935
 11
22.834494443641347
 21
22.01548696114935
  0
LINE
  8
_0-0_
  6
CONTINUOUS
 62
    7
 10
22.584494443641347
 20
21.948499663041616
 11
21.430904605154979
 21
21.282474259257128
  0
LINE
  8
_0-0_
  6
CONTINUOUS
 62
    7
 10
20.930904605154979
 20
21.282474259257128
 11
19.777314766669065
 21
21.948499663041616
  0
LINE
  8
_0-0_
  6
CONTINUOUS
 62
    7
 10
19.527314766669065
 20
22.01548696114935
 11
18.478623203313532
 21
22.01548696114935
  0
LINE
  8
_0-0_
  6
CONTINUOUS
 62
    7
 10
17.484416155747681
 20
21.122968804129528
 11
17.2291488298589
 21
18.761746039659442
  0
LINE
  8
_0-0_
  6
CONTINUOUS
 62
    7
 10
16.732045306075747
 20
18.315486961149531
 11
13.280904605154888
 21
18.315486961149531
  0
LINE
  8
_0-0_
  6
CONTINUOUS
 62
    7
 10
12.780904605154888
 20
18.815486961149531
 11
12.780904605154888
 21
33.415486961149441
  0
LINE
  8
_0-0_
  6
CONTINUOUS
 62
    7
 10
13.280904605154888
 20
33.915486961149441
 11
16.732045306076202
 21
33.915486961149441
  0
LINE
  8
_0-0_
  6
CONTINUOUS
 62
    7
 10
17.2291488298589
 20
33.46922788263953
 11
17.484416155747681
 21
31.108005118169444
  0
LINE
  8
_0-0_
  6
CONTINUOUS
 62
    7
 10
18.478623203313532
 20
30.215486961149395
 11
19.527314766669065
 21
30.215486961149395
  0
LINE
  8
_0-0_
  6
CONTINUOUS
 62
    7
 10
19.777314766669065
 20
30.282474259257128
 11
20.930904605154979
 21
30.948499663041616
  0
ARC
  8
_0-0_
  6
CONTINUOUS
 62
    7
 10
15.373797823968403
 20
6.615486961149486
 40
0.5
 50
270
 51
315
  0
ARC
  8
_0-0_
  6
CONTINUOUS
 62
    7
 10
16.288011386341736
 20
6.115486961149486
 40
0.5
 50
90
 51
135.00000000000003
  0
ARC
  8
_0-0_
  6
CONTINUOUS
 62
    7
 10
26.988011386341554
 20
6.615486961149486
 40
0.5
 50
225
 51
270
  0
ARC
  8
_0-0_
  6
CONTINUOUS
 62
    7
 10
26.073797823968675
 20
6.115486961149486
 40
0.5
 50
44.999999999999964
 51
90
  0
ARC
  8
_0-0_
  6
CONTINUOUS
 62
    7
 10
39.680904605154979
 20
7.615486961149486
 40
1.5
 50
270
 51
0
  0
ARC
  8
_0-0_
  6
CONTINUOUS
 62
    7
 10
2.6809046051549785
 20
7.615486961149486
 40
1.5
 50
180
 51
270
  0
ARC
  8
_0-0_
  6
CONTINUOUS
 62
    7
 10
39.680904605154979
 20
44.615486961149372
 40
1.5
 50
0
 51
90
  0
ARC
  8
_0-0_
  6
CONTINUOUS
 62
    7
 10
2.6809046051549785
 20
44.615486961149372
 40
1.5
 50
90
 51
180
  0
ARC
  8
_0-0_
  6
CONTINUOUS
 62
    7
 10
15.459584261595523
 20
8.115486961149486
 40
0.5
 50
90
 51
135
  0
ARC
  8
_0-0_
  6
CONTINUOUS
 62
    7
 10
14.54537069922219
 20
8.615486961149486
 40
0.5
 50
270
 51
314.99999999999955
  0
ARC
  8
_0-0_
  6
CONTINUOUS
 62
    7
 10
17.964568099144458
 20
10.115486961149486
 40
0.5
 50
90
 51
165.00000000000023
  0
ARC
  8
_0-0_
  6
CONTINUOUS
 62
    7
 10
16.66134272630336
 20
9.115486961149486
 40
0.5
 50
270
 51
345.00000000000006
  0
ARC
  8
_0-0_
  6
CONTINUOUS
 62
    7
 10
3.2809046051548876
 20
8.615486961149486
 40
0.5
 50
180
 51
270
  0
ARC
  8
_0-0_
  6
CONTINUOUS
 62
    7
 10
3.2809046051548876
 20
15.615486961149486
 40
0.5
 50
90
 51
180
  0
ARC
  8
_0-0_
  6
CONTINUOUS
 62
    7
 10
26.902224948714888
 20
8.115486961149486
 40
0.5
 50
45
 51
90
  0
ARC
  8
_0-0_
  6
CONTINUOUS
 62
    7
 10
27.816438511087767
 20
8.615486961149486
 40
0.5
 50
225.00000000000043
 51
270
  0
ARC
  8
_0-0_
  6
CONTINUOUS
 62
    7
 10
24.397241111165499
 20
10.115486961149486
 40
0.5
 50
14.999999999999805
 51
90.000000000000014
  0
ARC
  8
_0-0_
  6
CONTINUOUS
 62
    7
 10
25.700466484007052
 20
9.115486961149486
 40
0.5
 50
194.99999999999997
 51
270
  0
ARC
  8
_0-0_
  6
CONTINUOUS
 62
    7
 10
39.080904605155069
 20
8.615486961149486
 40
0.5
 50
270
 51
0
  0
ARC
  8
_0-0_
  6
CONTINUOUS
 62
    7
 10
39.080904605155069
 20
15.615486961149486
 40
0.5
 50
0.0000000000000127
 51
90
  0
ARC
  8
_0-0_
  6
CONTINUOUS
 62
    7
 10
40.680904605154979
 20
20.51548696114935
 40
0.5
 50
0
 51
90
  0
ARC
  8
_0-0_
  6
CONTINUOUS
 62
    7
 10
38.898938593904973
 20
20.51548696114935
 40
0.5
 50
90
 51
116.56505117707799
  0
ARC
  8
_0-0_
  6
CONTINUOUS
 62
    7
 10
38.080904605155069
 20
20.106469966774398
 40
0.5
 50
116.56505117707805
 51
180.00000000000006
  0
ARC
  8
_0-0_
  6
CONTINUOUS
 62
    7
 10
37.080904605155069
 20
18.615486961149486
 40
0.5
 50
270
 51
0
  0
ARC
  8
_0-0_
  6
CONTINUOUS
 62
    7
 10
32.888011386341645
 20
18.615486961149486
 40
0.5
 50
224.99999999999994
 51
269.99999999999994
  0
ARC
  8
_0-0_
  6
CONTINUOUS
 62
    7
 10
31.680904605154979
 20
19.822593742335926
 40
0.5
 50
180
 51
225
  0
ARC
  8
_0-0_
  6
CONTINUOUS
 62
    7
 10
40.680904605154979
 20
31.715486961149395
 40
0.5
 50
270
 51
0
  0
ARC
  8
_0-0_
  6
CONTINUOUS
 62
    7
 10
38.898938593904973
 20
31.715486961149395
 40
0.5
 50
243.43494882292202
 51
270
  0
ARC
  8
_0-0_
  6
CONTINUOUS
 62
    7
 10
38.080904605155069
 20
32.124503955524347
 40
0.5
 50
179.99999999999994
 51
243.43494882292197
  0
ARC
  8
_0-0_
  6
CONTINUOUS
 62
    7
 10
37.080904605155069
 20
33.615486961149486
 40
0.5
 50
0
 51
90
  0
ARC
  8
_0-0_
  6
CONTINUOUS
 62
    7
 10
32.888011386341645
 20
33.615486961149486
 40
0.5
 50
90.000000000000057
 51
135.00000000000006
  0
ARC
  8
_0-0_
  6
CONTINUOUS
 62
    7
 10
31.680904605154979
 20
32.408380179962819
 40
0.5
 50
135
 51
180
  0
ARC
  8
_0-0_
  6
CONTINUOUS
 62
    7
 10
26.780904605155342
 20
45.615486961149372
 40
0.5
 50
90
 51
180
  0
ARC
  8
_0-0_
  6
CONTINUOUS
 62
    7
 10
26.780904605155342
 20
43.833520949899366
 40
0.5
 50
180
 51
206.565051177078
  0
ARC
  8
_0-0_
  6
CONTINUOUS
 62
    7
 10
27.189921599530066
 20
43.015486961149463
 40
0.5
 50
206.565051177078
 51
270.00000000000006
  0
ARC
  8
_0-0_
  6
CONTINUOUS
 62
    7
 10
28.680904605154979
 20
42.015486961149463
 40
0.5
 50
0
 51
90
  0
ARC
  8
_0-0_
  6
CONTINUOUS
 62
    7
 10
28.680904605154979
 20
37.822593742336039
 40
0.5
 50
314.99999999999994
 51
359.99999999999994
  0
ARC
  8
_0-0_
  6
CONTINUOUS
 62
    7
 10
27.473797823968766
 20
36.615486961149372
 40
0.5
 50
270
 51
315
  0
ARC
  8
_0-0_
  6
CONTINUOUS
 62
    7
 10
15.580904605155069
 20
45.615486961149372
 40
0.5
 50
0
 51
90
  0
ARC
  8
_0-0_
  6
CONTINUOUS
 62
    7
 10
15.580904605155069
 20
43.833520949899366
 40
0.5
 50
333.43494882292202
 51
0
  0
ARC
  8
_0-0_
  6
CONTINUOUS
 62
    7
 10
15.171887610780345
 20
43.015486961149463
 40
0.5
 50
269.99999999999994
 51
333.43494882292197
  0
ARC
  8
_0-0_
  6
CONTINUOUS
 62
    7
 10
13.680904605154979
 20
42.015486961149463
 40
0.5
 50
90
 51
180
  0
ARC
  8
_0-0_
  6
CONTINUOUS
 62
    7
 10
13.680904605154979
 20
37.822593742336039
 40
0.5
 50
180.00000000000006
 51
225.00000000000006
  0
ARC
  8
_0-0_
  6
CONTINUOUS
 62
    7
 10
14.888011386341645
 20
36.615486961149372
 40
0.5
 50
225
 51
270
  0
ARC
  8
_0-0_
  6
CONTINUOUS
 62
    7
 10
1.6809046051549785
 20
31.715486961149395
 40
0.5
 50
180
 51
270
  0
ARC
  8
_0-0_
  6
CONTINUOUS
 62
    7
 10
3.4628706164049845
 20
31.715486961149395
 40
0.5
 50
270
 51
296.56505117707798
  0
ARC
  8
_0-0_
  6
CONTINUOUS
 62
    7
 10
4.2809046051548876
 20
32.124503955524347
 40
0.5
 50
296.56505117707803
 51
0.0000000000000636
  0
ARC
  8
_0-0_
  6
CONTINUOUS
 62
    7
 10
5.2809046051548876
 20
33.615486961149486
 40
0.5
 50
90
 51
180
  0
ARC
  8
_0-0_
  6
CONTINUOUS
 62
    7
 10
9.4737978239683116
 20
33.615486961149486
 40
0.5
 50
44.99999999999995
 51
89.999999999999943
  0
ARC
  8
_0-0_
  6
CONTINUOUS
 62
    7
 10
10.680904605154979
 20
32.408380179962819
 40
0.5
 50
0
 51
45
  0
ARC
  8
_0-0_
  6
CONTINUOUS
 62
    7
 10
1.6809046051549785
 20
20.51548696114935
 40
0.5
 50
90
 51
180
  0
ARC
  8
_0-0_
  6
CONTINUOUS
 62
    7
 10
3.4628706164049845
 20
20.51548696114935
 40
0.5
 50
63.43494882292201
 51
90
  0
ARC
  8
_0-0_
  6
CONTINUOUS
 62
    7
 10
4.2809046051548876
 20
20.106469966774398
 40
0.5
 50
359.99999999999994
 51
63.434948822921967
  0
ARC
  8
_0-0_
  6
CONTINUOUS
 62
    7
 10
5.2809046051548876
 20
18.615486961149486
 40
0.5
 50
180
 51
270
  0
ARC
  8
_0-0_
  6
CONTINUOUS
 62
    7
 10
9.4737978239683116
 20
18.615486961149486
 40
0.5
 50
270.00000000000006
 51
315.00000000000006
  0
ARC
  8
_0-0_
  6
CONTINUOUS
 62
    7
 10
10.680904605154979
 20
19.822593742335926
 40
0.5
 50
315
 51
0
  0
ARC
  8
_0-0_
  6
CONTINUOUS
 62
    7
 10
39.080904605155069
 20
36.215486961149509
 40
0.5
 50
270
 51
0
  0
ARC
  8
_0-0_
  6
CONTINUOUS
 62
    7
 10
31.280904605155342
 20
36.215486961149509
 40
0.5
 50
180
 51
270
  0
ARC
  8
_0-0_
  6
CONTINUOUS
 62
    7
 10
31.280904605155342
 20
44.015486961149463
 40
0.5
 50
90
 51
180
  0
ARC
  8
_0-0_
  6
CONTINUOUS
 62
    7
 10
39.080904605155069
 20
44.015486961149463
 40
0.5
 50
0
 51
90
  0
ARC
  8
_0-0_
  6
CONTINUOUS
 62
    7
 10
11.080904605155069
 20
44.015486961149463
 40
0.5
 50
0
 51
90
  0
ARC
  8
_0-0_
  6
CONTINUOUS
 62
    7
 10
11.080904605155069
 20
36.215486961149509
 40
0.5
 50
270
 51
0
  0
ARC
  8
_0-0_
  6
CONTINUOUS
 62
    7
 10
3.2809046051548876
 20
36.215486961149509
 40
0.5
 50
180
 51
270
  0
ARC
  8
_0-0_
  6
CONTINUOUS
 62
    7
 10
3.2809046051548876
 20
44.015486961149463
 40
0.5
 50
90
 51
180
  0
ARC
  8
_0-0_
  6
CONTINUOUS
 62
    7
 10
25.62976390423421
 20
18.815486961149531
 40
0.5
 50
186.17017509502926
 51
270
  0
ARC
  8
_0-0_
  6
CONTINUOUS
 62
    7
 10
23.88318600699688
 20
21.01548696114935
 40
1
 50
6.1701750950297098
 51
90.000000000000028
  0
ARC
  8
_0-0_
  6
CONTINUOUS
 62
    7
 10
29.080904605155069
 20
18.815486961149531
 40
0.5
 50
270
 51
0
  0
ARC
  8
_0-0_
  6
CONTINUOUS
 62
    7
 10
22.834494443641347
 20
21.51548696114935
 40
0.5
 50
90
 51
120.00000000000004
  0
ARC
  8
_0-0_
  6
CONTINUOUS
 62
    7
 10
21.180904605154979
 20
21.715486961149395
 40
0.5
 50
270
 51
300.00000000000006
  0
ARC
  8
_0-0_
  6
CONTINUOUS
 62
    7
 10
16.732045306075747
 20
18.815486961149531
 40
0.5
 50
270
 51
353.82982490497074
  0
ARC
  8
_0-0_
  6
CONTINUOUS
 62
    7
 10
18.478623203313532
 20
21.01548696114935
 40
1
 50
90
 51
173.82982490497028
  0
ARC
  8
_0-0_
  6
CONTINUOUS
 62
    7
 10
13.280904605154888
 20
18.815486961149531
 40
0.5
 50
180
 51
270
  0
ARC
  8
_0-0_
  6
CONTINUOUS
 62
    7
 10
19.527314766669065
 20
21.51548696114935
 40
0.5
 50
59.999999999999957
 51
90
  0
ARC
  8
_0-0_
  6
CONTINUOUS
 62
    7
 10
21.180904605154979
 20
21.715486961149395
 40
0.5
 50
239.99999999999989
 51
270
  0
ARC
  8
_0-0_
  6
CONTINUOUS
 62
    7
 10
25.62976390423421
 20
33.415486961149441
 40
0.5
 50
90
 51
173.82982490497074
  0
ARC
  8
_0-0_
  6
CONTINUOUS
 62
    7
 10
23.88318600699688
 20
31.215486961149395
 40
1
 50
270
 51
353.82982490497028
  0
ARC
  8
_0-0_
  6
CONTINUOUS
 62
    7
 10
29.080904605155069
 20
33.415486961149441
 40
0.5
 50
0
 51
90
  0
ARC
  8
_0-0_
  6
CONTINUOUS
 62
    7
 10
22.834494443641347
 20
30.715486961149395
 40
0.5
 50
239.99999999999994
 51
270
  0
ARC
  8
_0-0_
  6
CONTINUOUS
 62
    7
 10
21.180904605154979
 20
30.51548696114935
 40
0.5
 50
59.999999999999908
 51
90
  0
ARC
  8
_0-0_
  6
CONTINUOUS
 62
    7
 10
16.732045306076202
 20
33.415486961149441
 40
0.5
 50
6.1701750950292515
 51
90
  0
ARC
  8
_0-0_
  6
CONTINUOUS
 62
    7
 10
18.478623203313532
 20
31.215486961149395
 40
1
 50
186.17017509502975
 51
270
  0
ARC
  8
_0-0_
  6
CONTINUOUS
 62
    7
 10
13.280904605154888
 20
33.415486961149441
 40
0.5
 50
90
 51
180
  0
ARC
  8
_0-0_
  6
CONTINUOUS
 62
    7
 10
19.527314766669065
 20
30.715486961149395
 40
0.5
 50
270
 51
300.00000000000006
  0
ARC
  8
_0-0_
  6
CONTINUOUS
 62
    7
 10
21.180904605154979
 20
30.51548696114935
 40
0.5
 50
90
 51
120.0000000000001
  0
LINE
  8
_0-1_
  6
CENTER2
 62
  152
 10
1.1809046051549785
 20
26.115486961149486
 11
41.180904605154979
 21
26.115486961149486
  0
LINE
  8
_0-1_
  6
CENTER2
 62
  152
 10
21.180904605154979
 20
6.115486961149486
 11
21.180904605154979
 21
46.115486961149372
  0
ENDSEC
  0
EOF
