  0
SECTION
  2
HEADER
  9
$ACADVER
  1
AC1009
  9
$INSBASE
 10
0
 20
0
 30
0
  9
$EXTMIN
 10
0
 20
0
  9
$EXTMAX
 10
1189
 20
841
  9
$LIMMIN
 10
0
 20
0
  9
$LIMMAX
 10
1189
 20
841
  9
$LTSCALE
 40
1
  0
ENDSEC
  0
SECTION
  2
TABLES
  0
TABLE
  2
LTYPE
 70
     9
  0
LTYPE
  2
CONTINUOUS
 70
    64
  3
実線
 72
    65
 73
     0
 40
0.0
  0
LTYPE
  2
DASHED1
 70
    64
  3
--  --  --  --  --  --  --  --  
 72
    65
 73
     2
 40
2.5
 49
1.25
 49
-1.25
  0
LTYPE
  2
DASHED2
 70
    64
  3
----    ----    ----    ----    
 72
    65
 73
     2
 40
5.0
 49
2.5
 49
-2.5
  0
LTYPE
  2
DASHED3
 70
    64
  3
------  ------  ------  ------  
 72
    65
 73
     2
 40
5.0
 49
3.75
 49
-1.25
  0
LTYPE
  2
CENTER1
 70
    64
  3
----- - ----- - ----- - ----- - 
 72
    65
 73
     4
 40
10.0
 49
6.25
 49
-1.25
 49
1.25
 49
-1.25
  0
LTYPE
  2
CENTER2
 70
    64
  3
----------  --  ----------  --  
 72
    65
 73
     4
 40
20.0
 49
12.5
 49
-2.5
 49
2.5
 49
-2.5
  0
LTYPE
  2
PHANTOM1
 70
    64
  3
--- - - --- - - --- - - --- - - 
 72
    65
 73
     6
 40
10.0
 49
3.25
 49
-1.25
 49
1.25
 49
-1.25
 49
1.25
 49
-1.25
  0
LTYPE
  2
PHANTOM2
 70
    64
  3
--------  -  -  --------  -  -  
 72
    65
 73
     6
 40
20.0
 49
10.0
 49
-2.5
 49
1.25
 49
-2.5
 49
1.25
 49
-2.5
  0
LTYPE
  2
DOT
 70
    64
  3
-   -   -   -   -   -   -   -   
 72
    65
 73
     2
 40
2.5
 49
0.625
 49
-1.875
  0
LTYPE
  2
DUMMY
 70
    64
  3
ダミー
 72
    65
 73
     0
 40
0.0
  0
LTYPE
  2
RAND1
 70
    64
  3
ランダム線1
 72
    65
 73
     4
 40
10.0
 49
1.0
 49
-2.0
 49
3.0
 49
-4.0
  0
LTYPE
  2
RAND2
 70
    64
  3
ランダム線2
 72
    65
 73
     4
 40
14.0
 49
2.0
 49
-3.0
 49
4.0
 49
-5.0
  0
LTYPE
  2
RAND3
 70
    64
  3
ランダム線3
 72
    65
 73
     4
 40
18.0
 49
3.0
 49
-4.0
 49
5.0
 49
-6.0
  0
LTYPE
  2
RAND4
 70
    64
  3
ランダム線4
 72
    65
 73
     4
 40
22.0
 49
4.0
 49
-5.0
 49
6.0
 49
-7.0
  0
LTYPE
  2
RAND5
 70
    64
  3
ランダム線5
 72
    65
 73
     4
 40
26.0
 49
5.0
 49
-6.0
 49
7.0
 49
-8.0
  0
LTYPE
  2
LONG1
 70
    64
  3
----------  --  ----------  --  
 72
    65
 73
     4
 40
40.0
 49
32.5
 49
-2.5
 49
2.5
 49
-2.5
  0
LTYPE
  2
LONG2
 70
    64
  3
--------  -  -  --------  -  -  
 72
    65
 73
     6
 40
40.0
 49
30.0
 49
-2.5
 49
1.25
 49
-2.5
 49
1.25
 49
-2.5
  0
LTYPE
  2
LONG3
 70
    64
  3
+++++++++++++++..+++++++++++++++
 72
    65
 73
     2
 40
40.0
 49
37.5
 49
-2.5
  0
LTYPE
  2
LONG4
 70
    64
  3
+++++++++++++++..+++++++++++++++
 72
    65
 73
     2
 40
80.0
 49
75.0
 49
-5.0
  0
LTYPE
  2
LONG5
 70
    64
  3
----------  --  ----------  --  
 72
    65
 73
     4
 40
60.0
 49
37.5
 49
-7.5
 49
7.5
 49
-7.5
  0
LTYPE
  2
dashed
 70
   64
  3
-------   -------------   ------
 72
   65
 73
    2
 40
7.5
 49
6
 49
-1.5
  0
LTYPE
  2
dashed_spaced
 70
   64
  3
----        --------        ----
 72
   65
 73
    2
 40
12
 49
6
 49
-6
  0
LTYPE
  2
long_dashed_dotted
 70
   64
  3
------------- --- --------------
 72
   65
 73
    4
 40
15.25
 49
12
 49
-1.5
 49
0.25
 49
-1.5
  0
LTYPE
  2
long_dashed_double-dotted
 70
   64
  3
----------- --- --- ------------
 72
   65
 73
    6
 40
17
 49
12
 49
-1.5
 49
0.25
 49
-1.5
 49
0.25
 49
-1.5
  0
LTYPE
  2
long_dashed_triplicate-dotted
 70
   64
  3
--------- --- --- --- ----------
 72
   65
 73
    8
 40
18.75
 49
12
 49
-1.5
 49
0.25
 49
-1.5
 49
0.25
 49
-1.5
 49
0.25
 49
-1.5
  0
LTYPE
  2
dotted
 70
   64
  3
   -       -       -       -    
 72
   65
 73
    2
 40
1.75
 49
0.25
 49
-1.5
  0
LTYPE
  2
chain
 70
   64
  3
-------------- -- --------------
 72
   65
 73
    4
 40
18.5
 49
12
 49
-1.5
 49
3.5
 49
-1.5
  0
LTYPE
  2
chain_double_dash
 70
   64
  3
------------ -- -- -------------
 72
   65
 73
    6
 40
23.5
 49
12
 49
-1.5
 49
3.5
 49
-1.5
 49
3.5
 49
-1.5
  0
LTYPE
  2
dashed_dotted
 70
   64
  3
-----------     -     ----------
 72
   65
 73
    4
 40
9.25
 49
6
 49
-1.5
 49
0.25
 49
-1.5
  0
LTYPE
  2
double-dashed_dotted
 70
   64
  3
------   -----------   -   -----
 72
   65
 73
    6
 40
16.75
 49
6
 49
-1.5
 49
6
 49
-1.5
 49
0.25
 49
-1.5
  0
LTYPE
  2
dashed_double-dotted
 70
   64
  3
---------    -    -    ---------
 72
   65
 73
    6
 40
11
 49
6
 49
-1.5
 49
0.25
 49
-1.5
 49
0.25
 49
-1.5
  0
LTYPE
  2
double-dashed_double-dotted
 70
   64
  3
-----   ---------   -   -   ----
 72
   65
 73
    8
 40
18.5
 49
6
 49
-1.5
 49
6
 49
-1.5
 49
0.25
 49
-1.5
 49
0.25
 49
-1.5
  0
LTYPE
  2
dashed_triplicate-dotted
 70
   64
  3
-------    -    -    -    ------
 72
   65
 73
    8
 40
12.75
 49
6
 49
-1.5
 49
0.25
 49
-1.5
 49
0.25
 49
-1.5
 49
0.25
 49
-1.5
  0
LTYPE
  2
double-dashed_triplicate-dotted
 70
   64
  3
-----  ---------  -  -  -  -----
 72
   65
 73
   10
 40
20.25
 49
6
 49
-1.5
 49
6
 49
-1.5
 49
0.25
 49
-1.5
 49
0.25
 49
-1.5
 49
0.25
 49
-1.5
  0
LTYPE
  2
undefined
 70
   64
  3
--------------------------------
 72
   65
 73
    0
 40
0
  0
ENDTAB
  0
TABLE
  2
STYLE
  5
3
100
AcDbSymbolTable
 70
     1
  0
STYLE
  5
10
100
AcDbSymbolTableRecord
100
AcDbTextStyleTableRecord
  2
STANDARD
 70
     0
 40
0.0
 41
1.0
 50
0.0
 71
     0
 42
0.2
  3
txt
  4
bigfont.shx
  0
STYLE
  5
26
100
AcDbSymbolTableRecord
100
AcDbTextStyleTableRecord
  2
TATEGAKI
 70
    68
 40
0.0
 41
1.0
 50
0.0
 71
     0
 42
1.0
  3
txt
  4
bigfont.shx
  0
ENDTAB
  0
TABLE
  2
LAYER
 70
    4
  0
LAYER
  2
_0-0_
 70
   64
 62
    7
  6
CONTINUOUS
  0
LAYER
  2
_0-1_
 70
   64
 62
    7
  6
CONTINUOUS
  0
LAYER
  2
_0-f_
 70
   64
 62
    7
  6
CONTINUOUS
  0
LAYER
  2
ADD_LINE
 70
   64
 62
    7
  6
CONTINUOUS
  0
ENDTAB
  0
ENDSEC
  0
SECTION
  2
BLOCKS
  0
ENDSEC
  0
SECTION
  2
ENTITIES
  0
TEXT
  8
_0-f_
 62
    7
 10
1.2446530392229533
 20
1.0825233329392177
 40
4.2999999999999998
 41
0.744186046511628
 50
0
  1
F44J
  0
LINE
  8
_0-0_
  6
CONTINUOUS
 62
    7
 10
41.981649025289244
 20
8.0139061360456481
 11
41.981649025289244
 21
45.013906136045534
  0
LINE
  8
_0-0_
  6
CONTINUOUS
 62
    7
 10
39.981649025289244
 20
44.413906136045625
 11
39.981649025289244
 21
33.149440041978323
  0
LINE
  8
_0-0_
  6
CONTINUOUS
 62
    7
 10
39.835202415882577
 20
32.79588665138499
 11
39.62809563469591
 21
32.58877987019855
  0
LINE
  8
_0-0_
  6
CONTINUOUS
 62
    7
 10
39.481649025289244
 20
32.235226479605217
 11
39.481649025289244
 21
30.933468014897244
  0
LINE
  8
_0-0_
  6
CONTINUOUS
 62
    7
 10
39.111058547840457
 20
30.450505101752697
 11
37.85223950273803
 21
30.113205555200693
  0
LINE
  8
_0-0_
  6
CONTINUOUS
 62
    7
 10
37.481649025289244
 20
29.630242642056146
 11
37.481649025289244
 21
23.397569630034923
  0
LINE
  8
_0-0_
  6
CONTINUOUS
 62
    7
 10
37.85223950273803
 20
22.914606716890376
 11
39.111058547840457
 21
22.577307170338372
  0
LINE
  8
_0-0_
  6
CONTINUOUS
 62
    7
 10
39.481649025289244
 20
22.094344257193825
 11
39.481649025289244
 21
20.792585792485852
  0
LINE
  8
_0-0_
  6
CONTINUOUS
 62
    7
 10
39.62809563469591
 20
20.439032401892518
 11
39.835202415882577
 21
20.231925620706079
  0
LINE
  8
_0-0_
  6
CONTINUOUS
 62
    7
 10
39.981649025289244
 20
19.878372230112745
 11
39.981649025289244
 21
18.613906136045443
  0
LINE
  8
_0-0_
  6
CONTINUOUS
 62
    7
 10
39.481649025289244
 20
18.113906136045443
 11
32.481649025289244
 21
18.113906136045443
  0
LINE
  8
_0-0_
  6
CONTINUOUS
 62
    7
 10
31.981649025289244
 20
18.613906136045443
 11
31.981649025289244
 21
44.413906136045625
  0
LINE
  8
_0-0_
  6
CONTINUOUS
 62
    7
 10
32.481649025289244
 20
44.913906136045625
 11
39.481649025289244
 21
44.913906136045625
  0
LINE
  8
_0-0_
  6
CONTINUOUS
 62
    7
 10
40.481649025289244
 20
46.513906136045534
 11
27.581649025289153
 21
46.513906136045534
  0
LINE
  8
_0-0_
  6
CONTINUOUS
 62
    7
 10
27.081649025289153
 20
46.013906136045534
 11
27.081649025289153
 21
44.231940124795528
  0
LINE
  8
_0-0_
  6
CONTINUOUS
 62
    7
 10
27.134435429789391
 20
44.00833332704542
 11
27.543452424164116
 21
43.190299338295517
  0
LINE
  8
_0-0_
  6
CONTINUOUS
 62
    7
 10
27.990666019664332
 20
42.913906136045625
 11
29.481649025289244
 21
42.913906136045625
  0
LINE
  8
_0-0_
  6
CONTINUOUS
 62
    7
 10
29.981649025289244
 20
42.413906136045625
 11
29.981649025289244
 21
38.221012917232201
  0
LINE
  8
_0-0_
  6
CONTINUOUS
 62
    7
 10
29.835202415882577
 20
37.867459526638868
 11
28.62809563469591
 21
36.660352745452201
  0
LINE
  8
_0-0_
  6
CONTINUOUS
 62
    7
 10
28.274542244102577
 20
36.513906136045534
 11
15.688755806475911
 21
36.513906136045534
  0
LINE
  8
_0-0_
  6
CONTINUOUS
 62
    7
 10
15.335202415882577
 20
36.660352745452201
 11
14.12809563469591
 21
37.867459526638868
  0
LINE
  8
_0-0_
  6
CONTINUOUS
 62
    7
 10
13.981649025289244
 20
38.221012917232201
 11
13.981649025289244
 21
42.413906136045625
  0
LINE
  8
_0-0_
  6
CONTINUOUS
 62
    7
 10
14.481649025289244
 20
42.913906136045625
 11
15.972632030914156
 21
42.913906136045625
  0
LINE
  8
_0-0_
  6
CONTINUOUS
 62
    7
 10
16.419845626414372
 20
43.190299338295517
 11
16.828862620789096
 21
44.00833332704542
  0
LINE
  8
_0-0_
  6
CONTINUOUS
 62
    7
 10
16.881649025289335
 20
44.231940124795528
 11
16.881649025289335
 21
46.013906136045534
  0
LINE
  8
_0-0_
  6
CONTINUOUS
 62
    7
 10
16.381649025289335
 20
46.513906136045534
 11
3.4816490252892436
 21
46.513906136045534
  0
LINE
  8
_0-0_
  6
CONTINUOUS
 62
    7
 10
1.9816490252892436
 20
45.013906136045534
 11
1.9816490252892436
 21
32.113906136045443
  0
LINE
  8
_0-0_
  6
CONTINUOUS
 62
    7
 10
2.4816490252892436
 20
31.613906136045443
 11
4.2636150365392496
 21
31.613906136045443
  0
LINE
  8
_0-0_
  6
CONTINUOUS
 62
    7
 10
4.4872218342893575
 20
31.666692540545682
 11
5.3052558230392606
 21
32.075709534920634
  0
LINE
  8
_0-0_
  6
CONTINUOUS
 62
    7
 10
5.5816490252891526
 20
32.522923130420395
 11
5.5816490252891526
 21
34.013906136045534
  0
LINE
  8
_0-0_
  6
CONTINUOUS
 62
    7
 10
6.0816490252891526
 20
34.513906136045534
 11
10.274542244102577
 21
34.513906136045534
  0
LINE
  8
_0-0_
  6
CONTINUOUS
 62
    7
 10
10.62809563469591
 20
34.367459526638868
 11
11.835202415882577
 21
33.160352745452201
  0
LINE
  8
_0-0_
  6
CONTINUOUS
 62
    7
 10
11.981649025289244
 20
32.806799354859095
 11
11.981649025289244
 21
20.221012917232201
  0
LINE
  8
_0-0_
  6
CONTINUOUS
 62
    7
 10
11.835202415882577
 20
19.867459526638868
 11
10.62809563469591
 21
18.660352745452201
  0
LINE
  8
_0-0_
  6
CONTINUOUS
 62
    7
 10
10.274542244102577
 20
18.513906136045534
 11
6.0816490252891526
 21
18.513906136045534
  0
LINE
  8
_0-0_
  6
CONTINUOUS
 62
    7
 10
5.5816490252891526
 20
19.013906136045534
 11
5.5816490252891526
 21
20.504889141670674
  0
LINE
  8
_0-0_
  6
CONTINUOUS
 62
    7
 10
5.3052558230392606
 20
20.952102737170662
 11
4.4872218342893575
 21
21.361119731545614
  0
LINE
  8
_0-0_
  6
CONTINUOUS
 62
    7
 10
4.2636150365392496
 20
21.413906136045625
 11
2.4816490252892436
 21
21.413906136045625
  0
LINE
  8
_0-0_
  6
CONTINUOUS
 62
    7
 10
1.9816490252892436
 20
20.913906136045625
 11
1.9816490252892436
 21
8.0139061360456481
  0
LINE
  8
_0-0_
  6
CONTINUOUS
 62
    7
 10
4.0816490252891526
 20
8.5139061360456481
 11
15.346115119356455
 21
8.5139061360456481
  0
LINE
  8
_0-0_
  6
CONTINUOUS
 62
    7
 10
15.699668509949788
 20
8.6603527454523146
 11
15.906775291136455
 21
8.8674595266387541
  0
LINE
  8
_0-0_
  6
CONTINUOUS
 62
    7
 10
16.260328681729789
 20
9.0139061360456481
 11
17.562087146437534
 21
9.0139061360456481
  0
LINE
  8
_0-0_
  6
CONTINUOUS
 62
    7
 10
18.045050059582081
 20
9.3844966134942069
 11
18.382349606134085
 21
10.643315658596862
  0
LINE
  8
_0-0_
  6
CONTINUOUS
 62
    7
 10
18.865312519278632
 20
11.013906136045648
 11
25.097985531299855
 21
11.013906136045648
  0
LINE
  8
_0-0_
  6
CONTINUOUS
 62
    7
 10
25.580948444444402
 20
10.643315658596862
 11
25.918247990996406
 21
9.3844966134942069
  0
LINE
  8
_0-0_
  6
CONTINUOUS
 62
    7
 10
26.401210904140953
 20
9.0139061360456481
 11
27.702969368849153
 21
9.0139061360456481
  0
LINE
  8
_0-0_
  6
CONTINUOUS
 62
    7
 10
28.056522759442032
 20
8.8674595266387541
 11
28.263629540628699
 21
8.6603527454523146
  0
LINE
  8
_0-0_
  6
CONTINUOUS
 62
    7
 10
28.617182931222032
 20
8.5139061360456481
 11
39.881649025289335
 21
8.5139061360456481
  0
LINE
  8
_0-0_
  6
CONTINUOUS
 62
    7
 10
40.381649025289335
 20
9.0139061360456481
 11
40.381649025289335
 21
16.013906136045648
  0
LINE
  8
_0-0_
  6
CONTINUOUS
 62
    7
 10
39.881649025289335
 20
16.513906136045648
 11
4.0816490252891526
 21
16.513906136045648
  0
LINE
  8
_0-0_
  6
CONTINUOUS
 62
    7
 10
3.5816490252891526
 20
16.013906136045648
 11
3.5816490252891526
 21
9.0139061360456481
  0
LINE
  8
_0-0_
  6
CONTINUOUS
 62
    7
 10
3.4816490252892436
 20
6.5139061360456481
 11
16.174542244102668
 21
6.5139061360456481
  0
LINE
  8
_0-0_
  6
CONTINUOUS
 62
    7
 10
16.528095634696001
 20
6.6603527454523146
 11
16.735202415882668
 21
6.8674595266387541
  0
LINE
  8
_0-0_
  6
CONTINUOUS
 62
    7
 10
17.088755806476001
 20
7.0139061360456481
 11
26.874542244102486
 21
7.0139061360456481
  0
LINE
  8
_0-0_
  6
CONTINUOUS
 62
    7
 10
27.228095634695819
 20
6.8674595266387541
 11
27.435202415882486
 21
6.6603527454523146
  0
LINE
  8
_0-0_
  6
CONTINUOUS
 62
    7
 10
27.78875580647582
 20
6.5139061360456481
 11
40.481649025289244
 21
6.5139061360456481
  0
LINE
  8
_0-0_
  6
CONTINUOUS
 62
    7
 10
22.231649025289244
 20
31.346918837937665
 11
23.385238863775612
 21
30.680893434153404
  0
LINE
  8
_0-0_
  6
CONTINUOUS
 62
    7
 10
23.635238863775612
 20
30.613906136045443
 11
24.683930427131145
 21
30.613906136045443
  0
LINE
  8
_0-0_
  6
CONTINUOUS
 62
    7
 10
25.678137474696996
 20
31.506424293065493
 11
25.933404800585322
 21
33.867647057535578
  0
LINE
  8
_0-0_
  6
CONTINUOUS
 62
    7
 10
26.430508324368475
 20
34.313906136045489
 11
29.881649025289335
 21
34.313906136045489
  0
LINE
  8
_0-0_
  6
CONTINUOUS
 62
    7
 10
30.381649025289335
 20
33.813906136045489
 11
30.381649025289335
 21
19.21390613604558
  0
LINE
  8
_0-0_
  6
CONTINUOUS
 62
    7
 10
29.881649025289335
 20
18.71390613604558
 11
26.430508324368475
 21
18.71390613604558
  0
LINE
  8
_0-0_
  6
CONTINUOUS
 62
    7
 10
25.933404800585322
 20
19.160165214555491
 11
25.678137474696996
 21
21.521387979025576
  0
LINE
  8
_0-0_
  6
CONTINUOUS
 62
    7
 10
24.683930427131145
 20
22.413906136045625
 11
23.635238863775612
 21
22.413906136045625
  0
LINE
  8
_0-0_
  6
CONTINUOUS
 62
    7
 10
23.385238863775612
 20
22.346918837937665
 11
22.231649025289244
 21
21.680893434153404
  0
LINE
  8
_0-0_
  6
CONTINUOUS
 62
    7
 10
21.731649025289244
 20
21.680893434153404
 11
20.578059186802875
 21
22.346918837937665
  0
LINE
  8
_0-0_
  6
CONTINUOUS
 62
    7
 10
20.328059186802875
 20
22.413906136045625
 11
19.279367623447797
 21
22.413906136045625
  0
LINE
  8
_0-0_
  6
CONTINUOUS
 62
    7
 10
18.285160575881491
 20
21.521387979025576
 11
18.029893249993165
 21
19.160165214555491
  0
LINE
  8
_0-0_
  6
CONTINUOUS
 62
    7
 10
17.532789726210012
 20
18.71390613604558
 11
14.081649025289153
 21
18.71390613604558
  0
LINE
  8
_0-0_
  6
CONTINUOUS
 62
    7
 10
13.581649025289153
 20
19.21390613604558
 11
13.581649025289153
 21
33.813906136045489
  0
LINE
  8
_0-0_
  6
CONTINUOUS
 62
    7
 10
14.081649025289153
 20
34.313906136045489
 11
17.532789726210012
 21
34.313906136045489
  0
LINE
  8
_0-0_
  6
CONTINUOUS
 62
    7
 10
18.029893249993165
 20
33.867647057535578
 11
18.285160575881491
 21
31.506424293065493
  0
LINE
  8
_0-0_
  6
CONTINUOUS
 62
    7
 10
19.279367623447797
 20
30.613906136045443
 11
20.328059186802875
 21
30.613906136045443
  0
LINE
  8
_0-0_
  6
CONTINUOUS
 62
    7
 10
20.578059186802875
 20
30.680893434153404
 11
21.731649025289244
 21
31.346918837937665
  0
ARC
  8
_0-0_
  6
CONTINUOUS
 62
    7
 10
40.481649025289244
 20
8.0139061360456481
 40
1.5
 50
270
 51
0
  0
ARC
  8
_0-0_
  6
CONTINUOUS
 62
    7
 10
3.4816490252892436
 20
8.0139061360456481
 40
1.5
 50
180
 51
270
  0
ARC
  8
_0-0_
  6
CONTINUOUS
 62
    7
 10
3.4816490252892436
 20
45.013906136045534
 40
1.5
 50
90
 51
180
  0
ARC
  8
_0-0_
  6
CONTINUOUS
 62
    7
 10
40.481649025289244
 20
45.013906136045534
 40
1.5
 50
0
 51
90
  0
ARC
  8
_0-0_
  6
CONTINUOUS
 62
    7
 10
17.088755806476001
 20
6.5139061360456481
 40
0.5
 50
90
 51
135
  0
ARC
  8
_0-0_
  6
CONTINUOUS
 62
    7
 10
16.174542244102668
 20
7.0139061360456481
 40
0.5
 50
270
 51
315
  0
ARC
  8
_0-0_
  6
CONTINUOUS
 62
    7
 10
26.874542244102486
 20
6.5139061360456481
 40
0.5
 50
45
 51
90
  0
ARC
  8
_0-0_
  6
CONTINUOUS
 62
    7
 10
27.78875580647582
 20
7.0139061360456481
 40
0.5
 50
225
 51
270
  0
ARC
  8
_0-0_
  6
CONTINUOUS
 62
    7
 10
16.260328681729789
 20
8.5139061360456481
 40
0.5
 50
90
 51
135
  0
ARC
  8
_0-0_
  6
CONTINUOUS
 62
    7
 10
15.346115119356455
 20
9.0139061360456481
 40
0.5
 50
270
 51
315
  0
ARC
  8
_0-0_
  6
CONTINUOUS
 62
    7
 10
18.865312519278632
 20
10.513906136045648
 40
0.5
 50
90
 51
165.00000000000003
  0
ARC
  8
_0-0_
  6
CONTINUOUS
 62
    7
 10
17.562087146437534
 20
9.5139061360456481
 40
0.5
 50
270
 51
345
  0
ARC
  8
_0-0_
  6
CONTINUOUS
 62
    7
 10
4.0816490252891526
 20
9.0139061360456481
 40
0.5
 50
180
 51
270
  0
ARC
  8
_0-0_
  6
CONTINUOUS
 62
    7
 10
4.0816490252891526
 20
16.013906136045648
 40
0.5
 50
90
 51
180
  0
ARC
  8
_0-0_
  6
CONTINUOUS
 62
    7
 10
27.702969368849153
 20
8.5139061360456481
 40
0.5
 50
45
 51
90
  0
ARC
  8
_0-0_
  6
CONTINUOUS
 62
    7
 10
28.617182931222032
 20
9.0139061360456481
 40
0.5
 50
225
 51
270
  0
ARC
  8
_0-0_
  6
CONTINUOUS
 62
    7
 10
25.097985531299855
 20
10.513906136045648
 40
0.5
 50
15.000000000000034
 51
90.000000000000014
  0
ARC
  8
_0-0_
  6
CONTINUOUS
 62
    7
 10
26.401210904140953
 20
9.5139061360456481
 40
0.5
 50
194.99999999999997
 51
270
  0
ARC
  8
_0-0_
  6
CONTINUOUS
 62
    7
 10
39.881649025289335
 20
9.0139061360456481
 40
0.5
 50
270
 51
0
  0
ARC
  8
_0-0_
  6
CONTINUOUS
 62
    7
 10
39.881649025289335
 20
16.013906136045648
 40
0.5
 50
0
 51
90
  0
ARC
  8
_0-0_
  6
CONTINUOUS
 62
    7
 10
39.981649025289244
 20
20.792585792485852
 40
0.5
 50
180
 51
225
  0
ARC
  8
_0-0_
  6
CONTINUOUS
 62
    7
 10
39.481649025289244
 20
19.878372230112745
 40
0.5
 50
0
 51
45
  0
ARC
  8
_0-0_
  6
CONTINUOUS
 62
    7
 10
37.981649025289244
 20
23.397569630034923
 40
0.5
 50
180
 51
254.99999999999997
  0
ARC
  8
_0-0_
  6
CONTINUOUS
 62
    7
 10
38.981649025289244
 20
22.094344257193825
 40
0.5
 50
0
 51
75
  0
ARC
  8
_0-0_
  6
CONTINUOUS
 62
    7
 10
39.981649025289244
 20
32.235226479605217
 40
0.5
 50
135
 51
180
  0
ARC
  8
_0-0_
  6
CONTINUOUS
 62
    7
 10
39.481649025289244
 20
33.149440041978323
 40
0.5
 50
315
 51
0
  0
ARC
  8
_0-0_
  6
CONTINUOUS
 62
    7
 10
37.981649025289244
 20
29.630242642056146
 40
0.5
 50
105.00000000000009
 51
179.99999999999997
  0
ARC
  8
_0-0_
  6
CONTINUOUS
 62
    7
 10
38.981649025289244
 20
30.933468014897244
 40
0.5
 50
285
 51
0
  0
ARC
  8
_0-0_
  6
CONTINUOUS
 62
    7
 10
39.481649025289244
 20
44.413906136045625
 40
0.5
 50
0
 51
90
  0
ARC
  8
_0-0_
  6
CONTINUOUS
 62
    7
 10
32.481649025289244
 20
44.413906136045625
 40
0.5
 50
90
 51
180
  0
ARC
  8
_0-0_
  6
CONTINUOUS
 62
    7
 10
39.481649025289244
 20
18.613906136045443
 40
0.5
 50
270
 51
0
  0
ARC
  8
_0-0_
  6
CONTINUOUS
 62
    7
 10
32.481649025289244
 20
18.613906136045443
 40
0.5
 50
180
 51
270
  0
ARC
  8
_0-0_
  6
CONTINUOUS
 62
    7
 10
16.381649025289335
 20
46.013906136045534
 40
0.5
 50
0
 51
90
  0
ARC
  8
_0-0_
  6
CONTINUOUS
 62
    7
 10
16.381649025289335
 20
44.231940124795528
 40
0.5
 50
333.43494882292197
 51
359.99999999999994
  0
ARC
  8
_0-0_
  6
CONTINUOUS
 62
    7
 10
15.972632030914156
 20
43.413906136045625
 40
0.5
 50
270
 51
333.43494882292202
  0
ARC
  8
_0-0_
  6
CONTINUOUS
 62
    7
 10
15.688755806475911
 20
37.013906136045534
 40
0.5
 50
224.99999999999994
 51
269.99999999999994
  0
ARC
  8
_0-0_
  6
CONTINUOUS
 62
    7
 10
14.481649025289244
 20
38.221012917232201
 40
0.5
 50
180
 51
225
  0
ARC
  8
_0-0_
  6
CONTINUOUS
 62
    7
 10
14.481649025289244
 20
42.413906136045625
 40
0.5
 50
90
 51
180
  0
ARC
  8
_0-0_
  6
CONTINUOUS
 62
    7
 10
27.581649025289153
 20
46.013906136045534
 40
0.5
 50
90
 51
180
  0
ARC
  8
_0-0_
  6
CONTINUOUS
 62
    7
 10
27.581649025289153
 20
44.231940124795528
 40
0.5
 50
180
 51
206.565051177078
  0
ARC
  8
_0-0_
  6
CONTINUOUS
 62
    7
 10
27.990666019664332
 20
43.413906136045625
 40
0.5
 50
206.565051177078
 51
270
  0
ARC
  8
_0-0_
  6
CONTINUOUS
 62
    7
 10
28.274542244102577
 20
37.013906136045534
 40
0.5
 50
270.00000000000006
 51
315.00000000000006
  0
ARC
  8
_0-0_
  6
CONTINUOUS
 62
    7
 10
29.481649025289244
 20
38.221012917232201
 40
0.5
 50
315
 51
0
  0
ARC
  8
_0-0_
  6
CONTINUOUS
 62
    7
 10
29.481649025289244
 20
42.413906136045625
 40
0.5
 50
0
 51
90
  0
ARC
  8
_0-0_
  6
CONTINUOUS
 62
    7
 10
2.4816490252892436
 20
20.913906136045625
 40
0.5
 50
90
 51
180
  0
ARC
  8
_0-0_
  6
CONTINUOUS
 62
    7
 10
4.2636150365392496
 20
20.913906136045625
 40
0.5
 50
63.43494882292201
 51
89.999999999999986
  0
ARC
  8
_0-0_
  6
CONTINUOUS
 62
    7
 10
5.0816490252891526
 20
20.504889141670674
 40
0.5
 50
0
 51
63.434948822922017
  0
ARC
  8
_0-0_
  6
CONTINUOUS
 62
    7
 10
11.481649025289244
 20
20.221012917232201
 40
0.5
 50
314.99999999999994
 51
359.99999999999994
  0
ARC
  8
_0-0_
  6
CONTINUOUS
 62
    7
 10
10.274542244102577
 20
19.013906136045534
 40
0.5
 50
270
 51
315
  0
ARC
  8
_0-0_
  6
CONTINUOUS
 62
    7
 10
6.0816490252891526
 20
19.013906136045534
 40
0.5
 50
180
 51
270
  0
ARC
  8
_0-0_
  6
CONTINUOUS
 62
    7
 10
2.4816490252892436
 20
32.113906136045443
 40
0.5
 50
180
 51
270
  0
ARC
  8
_0-0_
  6
CONTINUOUS
 62
    7
 10
4.2636150365392496
 20
32.113906136045443
 40
0.5
 50
270
 51
296.56505117707798
  0
ARC
  8
_0-0_
  6
CONTINUOUS
 62
    7
 10
5.0816490252891526
 20
32.522923130420395
 40
0.5
 50
296.56505117707798
 51
0.0000000000000127
  0
ARC
  8
_0-0_
  6
CONTINUOUS
 62
    7
 10
11.481649025289244
 20
32.806799354859095
 40
0.5
 50
0.0000000000000508
 51
45.00000000000005
  0
ARC
  8
_0-0_
  6
CONTINUOUS
 62
    7
 10
10.274542244102577
 20
34.013906136045534
 40
0.5
 50
45
 51
90
  0
ARC
  8
_0-0_
  6
CONTINUOUS
 62
    7
 10
6.0816490252891526
 20
34.013906136045534
 40
0.5
 50
90
 51
180
  0
ARC
  8
_0-0_
  6
CONTINUOUS
 62
    7
 10
14.081649025289153
 20
33.813906136045489
 40
0.5
 50
90
 51
180
  0
ARC
  8
_0-0_
  6
CONTINUOUS
 62
    7
 10
17.532789726210012
 20
33.813906136045489
 40
0.5
 50
6.1701750950296592
 51
90
  0
ARC
  8
_0-0_
  6
CONTINUOUS
 62
    7
 10
19.279367623447797
 20
31.613906136045443
 40
1
 50
186.17017509502969
 51
270
  0
ARC
  8
_0-0_
  6
CONTINUOUS
 62
    7
 10
24.683930427131145
 20
31.613906136045443
 40
1
 50
270
 51
353.82982490497034
  0
ARC
  8
_0-0_
  6
CONTINUOUS
 62
    7
 10
23.635238863775612
 20
31.113906136045443
 40
0.5
 50
240.00000000000014
 51
270
  0
ARC
  8
_0-0_
  6
CONTINUOUS
 62
    7
 10
21.981649025289244
 20
30.913906136045625
 40
0.5
 50
60.000000000000036
 51
119.99999999999997
  0
ARC
  8
_0-0_
  6
CONTINUOUS
 62
    7
 10
20.328059186802875
 20
31.113906136045443
 40
0.5
 50
270
 51
299.99999999999983
  0
ARC
  8
_0-0_
  6
CONTINUOUS
 62
    7
 10
26.430508324368475
 20
33.813906136045489
 40
0.5
 50
90
 51
173.82982490497034
  0
ARC
  8
_0-0_
  6
CONTINUOUS
 62
    7
 10
29.881649025289335
 20
33.813906136045489
 40
0.5
 50
0
 51
90
  0
ARC
  8
_0-0_
  6
CONTINUOUS
 62
    7
 10
17.532789726210012
 20
19.21390613604558
 40
0.5
 50
270
 51
353.82982490497034
  0
ARC
  8
_0-0_
  6
CONTINUOUS
 62
    7
 10
14.081649025289153
 20
19.21390613604558
 40
0.5
 50
180
 51
270
  0
ARC
  8
_0-0_
  6
CONTINUOUS
 62
    7
 10
19.279367623447797
 20
21.413906136045625
 40
1
 50
90
 51
173.82982490497034
  0
ARC
  8
_0-0_
  6
CONTINUOUS
 62
    7
 10
26.430508324368475
 20
19.21390613604558
 40
0.5
 50
186.17017509502966
 51
270
  0
ARC
  8
_0-0_
  6
CONTINUOUS
 62
    7
 10
29.881649025289335
 20
19.21390613604558
 40
0.5
 50
270
 51
0
  0
ARC
  8
_0-0_
  6
CONTINUOUS
 62
    7
 10
24.683930427131145
 20
21.413906136045625
 40
1
 50
6.1701750950296832
 51
90
  0
ARC
  8
_0-0_
  6
CONTINUOUS
 62
    7
 10
21.981649025289244
 20
22.113906136045443
 40
0.5
 50
240.00000000000003
 51
299.99999999999994
  0
ARC
  8
_0-0_
  6
CONTINUOUS
 62
    7
 10
23.635238863775612
 20
21.913906136045625
 40
0.5
 50
90
 51
119.99999999999982
  0
ARC
  8
_0-0_
  6
CONTINUOUS
 62
    7
 10
20.328059186802875
 20
21.913906136045625
 40
0.5
 50
60.000000000000135
 51
90
  0
LINE
  8
_0-0_
  6
CONTINUOUS
 62
    7
 10
3.5816490252891526
 20
44.413906136045512
 11
3.5816490252891526
 21
36.613906136045557
  0
LINE
  8
_0-0_
  6
CONTINUOUS
 62
    7
 10
4.0816490252891526
 20
36.113906136045557
 11
11.881649025289335
 21
36.113906136045557
  0
LINE
  8
_0-0_
  6
CONTINUOUS
 62
    7
 10
12.381649025289335
 20
36.613906136045557
 11
12.381649025289335
 21
44.413906136045512
  0
LINE
  8
_0-0_
  6
CONTINUOUS
 62
    7
 10
11.881649025289335
 20
44.913906136045512
 11
4.0816490252891526
 21
44.913906136045512
  0
ARC
  8
_0-0_
  6
CONTINUOUS
 62
    7
 10
11.881649025289335
 20
44.413906136045512
 40
0.5
 50
0
 51
90
  0
ARC
  8
_0-0_
  6
CONTINUOUS
 62
    7
 10
11.881649025289335
 20
36.613906136045557
 40
0.5
 50
270
 51
0
  0
ARC
  8
_0-0_
  6
CONTINUOUS
 62
    7
 10
4.0816490252891526
 20
36.613906136045557
 40
0.5
 50
180
 51
270
  0
ARC
  8
_0-0_
  6
CONTINUOUS
 62
    7
 10
4.0816490252891526
 20
44.413906136045512
 40
0.5
 50
90
 51
180
  0
LINE
  8
_0-1_
  6
CENTER2
 62
  152
 10
1.9816490252892436
 20
26.513906136045534
 11
41.981649025289244
 21
26.513906136045534
  0
LINE
  8
_0-1_
  6
CENTER2
 62
  152
 10
21.981649025289244
 20
6.5139061360456481
 11
21.981649025289244
 21
46.513906136045534
  0
ENDSEC
  0
EOF
