  0
SECTION
  2
HEADER
  9
$ACADVER
  1
AC1009
  9
$INSBASE
 10
0
 20
0
 30
0
  9
$EXTMIN
 10
0
 20
0
  9
$EXTMAX
 10
1189
 20
841
  9
$LIMMIN
 10
0
 20
0
  9
$LIMMAX
 10
1189
 20
841
  9
$LTSCALE
 40
1
  0
ENDSEC
  0
SECTION
  2
TABLES
  0
TABLE
  2
LTYPE
 70
     9
  0
LTYPE
  2
CONTINUOUS
 70
    64
  3
実線
 72
    65
 73
     0
 40
0.0
  0
LTYPE
  2
DASHED1
 70
    64
  3
--  --  --  --  --  --  --  --  
 72
    65
 73
     2
 40
2.5
 49
1.25
 49
-1.25
  0
LTYPE
  2
DASHED2
 70
    64
  3
----    ----    ----    ----    
 72
    65
 73
     2
 40
5.0
 49
2.5
 49
-2.5
  0
LTYPE
  2
DASHED3
 70
    64
  3
------  ------  ------  ------  
 72
    65
 73
     2
 40
5.0
 49
3.75
 49
-1.25
  0
LTYPE
  2
CENTER1
 70
    64
  3
----- - ----- - ----- - ----- - 
 72
    65
 73
     4
 40
10.0
 49
6.25
 49
-1.25
 49
1.25
 49
-1.25
  0
LTYPE
  2
CENTER2
 70
    64
  3
----------  --  ----------  --  
 72
    65
 73
     4
 40
20.0
 49
12.5
 49
-2.5
 49
2.5
 49
-2.5
  0
LTYPE
  2
PHANTOM1
 70
    64
  3
--- - - --- - - --- - - --- - - 
 72
    65
 73
     6
 40
10.0
 49
3.25
 49
-1.25
 49
1.25
 49
-1.25
 49
1.25
 49
-1.25
  0
LTYPE
  2
PHANTOM2
 70
    64
  3
--------  -  -  --------  -  -  
 72
    65
 73
     6
 40
20.0
 49
10.0
 49
-2.5
 49
1.25
 49
-2.5
 49
1.25
 49
-2.5
  0
LTYPE
  2
DOT
 70
    64
  3
-   -   -   -   -   -   -   -   
 72
    65
 73
     2
 40
2.5
 49
0.625
 49
-1.875
  0
LTYPE
  2
DUMMY
 70
    64
  3
ダミー
 72
    65
 73
     0
 40
0.0
  0
LTYPE
  2
RAND1
 70
    64
  3
ランダム線1
 72
    65
 73
     4
 40
10.0
 49
1.0
 49
-2.0
 49
3.0
 49
-4.0
  0
LTYPE
  2
RAND2
 70
    64
  3
ランダム線2
 72
    65
 73
     4
 40
14.0
 49
2.0
 49
-3.0
 49
4.0
 49
-5.0
  0
LTYPE
  2
RAND3
 70
    64
  3
ランダム線3
 72
    65
 73
     4
 40
18.0
 49
3.0
 49
-4.0
 49
5.0
 49
-6.0
  0
LTYPE
  2
RAND4
 70
    64
  3
ランダム線4
 72
    65
 73
     4
 40
22.0
 49
4.0
 49
-5.0
 49
6.0
 49
-7.0
  0
LTYPE
  2
RAND5
 70
    64
  3
ランダム線5
 72
    65
 73
     4
 40
26.0
 49
5.0
 49
-6.0
 49
7.0
 49
-8.0
  0
LTYPE
  2
LONG1
 70
    64
  3
----------  --  ----------  --  
 72
    65
 73
     4
 40
40.0
 49
32.5
 49
-2.5
 49
2.5
 49
-2.5
  0
LTYPE
  2
LONG2
 70
    64
  3
--------  -  -  --------  -  -  
 72
    65
 73
     6
 40
40.0
 49
30.0
 49
-2.5
 49
1.25
 49
-2.5
 49
1.25
 49
-2.5
  0
LTYPE
  2
LONG3
 70
    64
  3
+++++++++++++++..+++++++++++++++
 72
    65
 73
     2
 40
40.0
 49
37.5
 49
-2.5
  0
LTYPE
  2
LONG4
 70
    64
  3
+++++++++++++++..+++++++++++++++
 72
    65
 73
     2
 40
80.0
 49
75.0
 49
-5.0
  0
LTYPE
  2
LONG5
 70
    64
  3
----------  --  ----------  --  
 72
    65
 73
     4
 40
60.0
 49
37.5
 49
-7.5
 49
7.5
 49
-7.5
  0
LTYPE
  2
dashed
 70
   64
  3
-------   -------------   ------
 72
   65
 73
    2
 40
7.5
 49
6
 49
-1.5
  0
LTYPE
  2
dashed_spaced
 70
   64
  3
----        --------        ----
 72
   65
 73
    2
 40
12
 49
6
 49
-6
  0
LTYPE
  2
long_dashed_dotted
 70
   64
  3
------------- --- --------------
 72
   65
 73
    4
 40
15.25
 49
12
 49
-1.5
 49
0.25
 49
-1.5
  0
LTYPE
  2
long_dashed_double-dotted
 70
   64
  3
----------- --- --- ------------
 72
   65
 73
    6
 40
17
 49
12
 49
-1.5
 49
0.25
 49
-1.5
 49
0.25
 49
-1.5
  0
LTYPE
  2
long_dashed_triplicate-dotted
 70
   64
  3
--------- --- --- --- ----------
 72
   65
 73
    8
 40
18.75
 49
12
 49
-1.5
 49
0.25
 49
-1.5
 49
0.25
 49
-1.5
 49
0.25
 49
-1.5
  0
LTYPE
  2
dotted
 70
   64
  3
   -       -       -       -    
 72
   65
 73
    2
 40
1.75
 49
0.25
 49
-1.5
  0
LTYPE
  2
chain
 70
   64
  3
-------------- -- --------------
 72
   65
 73
    4
 40
18.5
 49
12
 49
-1.5
 49
3.5
 49
-1.5
  0
LTYPE
  2
chain_double_dash
 70
   64
  3
------------ -- -- -------------
 72
   65
 73
    6
 40
23.5
 49
12
 49
-1.5
 49
3.5
 49
-1.5
 49
3.5
 49
-1.5
  0
LTYPE
  2
dashed_dotted
 70
   64
  3
-----------     -     ----------
 72
   65
 73
    4
 40
9.25
 49
6
 49
-1.5
 49
0.25
 49
-1.5
  0
LTYPE
  2
double-dashed_dotted
 70
   64
  3
------   -----------   -   -----
 72
   65
 73
    6
 40
16.75
 49
6
 49
-1.5
 49
6
 49
-1.5
 49
0.25
 49
-1.5
  0
LTYPE
  2
dashed_double-dotted
 70
   64
  3
---------    -    -    ---------
 72
   65
 73
    6
 40
11
 49
6
 49
-1.5
 49
0.25
 49
-1.5
 49
0.25
 49
-1.5
  0
LTYPE
  2
double-dashed_double-dotted
 70
   64
  3
-----   ---------   -   -   ----
 72
   65
 73
    8
 40
18.5
 49
6
 49
-1.5
 49
6
 49
-1.5
 49
0.25
 49
-1.5
 49
0.25
 49
-1.5
  0
LTYPE
  2
dashed_triplicate-dotted
 70
   64
  3
-------    -    -    -    ------
 72
   65
 73
    8
 40
12.75
 49
6
 49
-1.5
 49
0.25
 49
-1.5
 49
0.25
 49
-1.5
 49
0.25
 49
-1.5
  0
LTYPE
  2
double-dashed_triplicate-dotted
 70
   64
  3
-----  ---------  -  -  -  -----
 72
   65
 73
   10
 40
20.25
 49
6
 49
-1.5
 49
6
 49
-1.5
 49
0.25
 49
-1.5
 49
0.25
 49
-1.5
 49
0.25
 49
-1.5
  0
LTYPE
  2
undefined
 70
   64
  3
--------------------------------
 72
   65
 73
    0
 40
0
  0
ENDTAB
  0
TABLE
  2
STYLE
  5
3
100
AcDbSymbolTable
 70
     1
  0
STYLE
  5
10
100
AcDbSymbolTableRecord
100
AcDbTextStyleTableRecord
  2
STANDARD
 70
     0
 40
0.0
 41
1.0
 50
0.0
 71
     0
 42
0.2
  3
txt
  4
bigfont.shx
  0
STYLE
  5
26
100
AcDbSymbolTableRecord
100
AcDbTextStyleTableRecord
  2
TATEGAKI
 70
    68
 40
0.0
 41
1.0
 50
0.0
 71
     0
 42
1.0
  3
txt
  4
bigfont.shx
  0
ENDTAB
  0
TABLE
  2
LAYER
 70
    4
  0
LAYER
  2
_0-0_
 70
   64
 62
    7
  6
CONTINUOUS
  0
LAYER
  2
_0-1_
 70
   64
 62
    7
  6
CONTINUOUS
  0
LAYER
  2
_0-f_
 70
   64
 62
    7
  6
CONTINUOUS
  0
LAYER
  2
ADD_LINE
 70
   64
 62
    7
  6
CONTINUOUS
  0
ENDTAB
  0
ENDSEC
  0
SECTION
  2
BLOCKS
  0
ENDSEC
  0
SECTION
  2
ENTITIES
  0
TEXT
  8
_0-f_
 62
    7
 10
0.7841436211803056
 20
1.0920443793979757
 40
4.2999999999999998
 41
0.744186046511628
 50
0
  1
F44G
  0
LINE
  8
_0-0_
  6
CONTINUOUS
 62
    7
 10
2.5756080268029109
 20
45.996351815715002
 11
15.475608026803002
 21
45.996351815715002
  0
LINE
  8
_0-0_
  6
CONTINUOUS
 62
    7
 10
15.975608026803002
 20
45.496351815715002
 11
15.975608026803002
 21
43.714385804464996
  0
LINE
  8
_0-0_
  6
CONTINUOUS
 62
    7
 10
15.92282162230299
 20
43.490779006714888
 11
15.513804627928039
 21
42.672745017964985
  0
LINE
  8
_0-0_
  6
CONTINUOUS
 62
    7
 10
15.06659103242805
 20
42.396351815715093
 11
13.575608026802911
 21
42.396351815715093
  0
LINE
  8
_0-0_
  6
CONTINUOUS
 62
    7
 10
13.075608026802911
 20
41.896351815715093
 11
13.075608026802911
 21
37.703458596901669
  0
LINE
  8
_0-0_
  6
CONTINUOUS
 62
    7
 10
13.222054636209577
 20
37.349905206308335
 11
14.429161417396244
 21
36.142798425121669
  0
LINE
  8
_0-0_
  6
CONTINUOUS
 62
    7
 10
14.782714807989578
 20
35.996351815715002
 11
20.061394464429895
 21
35.996351815715002
  0
LINE
  8
_0-0_
  6
CONTINUOUS
 62
    7
 10
20.414947855023229
 20
35.849905206308335
 11
20.722054636209577
 21
35.542798425121759
  0
LINE
  8
_0-0_
  6
CONTINUOUS
 62
    7
 10
21.429161417396244
 20
35.542798425121759
 11
21.73626819858282
 21
35.849905206308335
  0
LINE
  8
_0-0_
  6
CONTINUOUS
 62
    7
 10
22.089821589176154
 20
35.996351815715002
 11
27.368501245616471
 21
35.996351815715002
  0
LINE
  8
_0-0_
  6
CONTINUOUS
 62
    7
 10
27.722054636209577
 20
36.142798425121669
 11
28.219542009625002
 21
36.640285798537093
  0
LINE
  8
_0-0_
  6
CONTINUOUS
 62
    7
 10
28.219542009625002
 20
36.640285798537093
 11
28.431674043981047
 21
36.640285798537093
  0
LINE
  8
_0-0_
  6
CONTINUOUS
 62
    7
 10
28.431674043981047
 20
36.640285798537093
 11
28.431674043981047
 21
36.852417832892911
  0
LINE
  8
_0-0_
  6
CONTINUOUS
 62
    7
 10
28.431674043981047
 20
36.852417832892911
 11
28.929161417396244
 21
37.349905206308335
  0
LINE
  8
_0-0_
  6
CONTINUOUS
 62
    7
 10
29.075608026802911
 20
37.703458596901669
 11
29.075608026802911
 21
41.896351815715093
  0
LINE
  8
_0-0_
  6
CONTINUOUS
 62
    7
 10
28.575608026802911
 20
42.396351815715093
 11
27.084625021177999
 21
42.396351815715093
  0
LINE
  8
_0-0_
  6
CONTINUOUS
 62
    7
 10
26.63741142567801
 20
42.672745017964985
 11
26.228394431303059
 21
43.490779006714888
  0
LINE
  8
_0-0_
  6
CONTINUOUS
 62
    7
 10
26.175608026803047
 20
43.714385804464996
 11
26.175608026803047
 21
45.496351815715002
  0
LINE
  8
_0-0_
  6
CONTINUOUS
 62
    7
 10
26.675608026803047
 20
45.996351815715002
 11
39.575608026802911
 21
45.996351815715002
  0
LINE
  8
_0-0_
  6
CONTINUOUS
 62
    7
 10
41.075608026802911
 20
44.496351815715002
 11
41.075608026802911
 21
42.296351815715184
  0
LINE
  8
_0-0_
  6
CONTINUOUS
 62
    7
 10
40.575608026802911
 20
41.796351815715184
 11
40.560640190424692
 21
41.796351815715184
  0
LINE
  8
_0-0_
  6
CONTINUOUS
 62
    7
 10
31.575608026802911
 20
39.52019281108403
 11
31.575608026802911
 21
12.472510820346429
  0
LINE
  8
_0-0_
  6
CONTINUOUS
 62
    7
 10
29.075608026802911
 20
14.28924503452879
 11
29.075608026802911
 21
10.096351815715366
  0
LINE
  8
_0-0_
  6
CONTINUOUS
 62
    7
 10
28.575608026802911
 20
9.5963518157153658
 11
27.084625021177999
 21
9.5963518157153658
  0
LINE
  8
_0-0_
  6
CONTINUOUS
 62
    7
 10
26.63741142567801
 20
9.319958613465019
 11
26.228394431303059
 21
8.5019246247151159
  0
LINE
  8
_0-0_
  6
CONTINUOUS
 62
    7
 10
26.175608026803047
 20
8.2783178269654627
 11
26.175608026803047
 21
6.496351815715002
  0
LINE
  8
_0-0_
  6
CONTINUOUS
 62
    7
 10
26.675608026803047
 20
5.996351815715002
 11
39.575608026802911
 21
5.996351815715002
  0
LINE
  8
_0-0_
  6
CONTINUOUS
 62
    7
 10
41.075608026802911
 20
7.496351815715002
 11
41.075608026802911
 21
9.6963518157152748
  0
LINE
  8
_0-0_
  6
CONTINUOUS
 62
    7
 10
40.575608026802911
 20
10.196351815715275
 11
40.560640190424692
 21
10.196351815715275
  0
LINE
  8
_0-0_
  6
CONTINUOUS
 62
    7
 10
28.929161417396244
 20
14.642798425121669
 11
27.722054636209577
 21
15.849905206308335
  0
LINE
  8
_0-0_
  6
CONTINUOUS
 62
    7
 10
27.368501245616471
 20
15.996351815715002
 11
22.089821589176154
 21
15.996351815715002
  0
LINE
  8
_0-0_
  6
CONTINUOUS
 62
    7
 10
21.73626819858282
 20
16.142798425121669
 11
21.429161417396244
 21
16.449905206308244
  0
LINE
  8
_0-0_
  6
CONTINUOUS
 62
    7
 10
20.722054636209577
 20
16.449905206308244
 11
20.414947855023229
 21
16.142798425121669
  0
LINE
  8
_0-0_
  6
CONTINUOUS
 62
    7
 10
20.061394464429895
 20
15.996351815715002
 11
14.782714807989578
 21
15.996351815715002
  0
LINE
  8
_0-0_
  6
CONTINUOUS
 62
    7
 10
14.429161417396244
 20
15.849905206308335
 11
13.931674043981047
 21
15.352417832892911
  0
LINE
  8
_0-0_
  6
CONTINUOUS
 62
    7
 10
13.931674043981047
 20
15.352417832892911
 11
13.719542009625002
 21
15.352417832892911
  0
LINE
  8
_0-0_
  6
CONTINUOUS
 62
    7
 10
13.719542009625002
 20
15.352417832892911
 11
13.719542009625002
 21
15.140285798537093
  0
LINE
  8
_0-0_
  6
CONTINUOUS
 62
    7
 10
13.719542009625002
 20
15.140285798537093
 11
13.222054636209577
 21
14.642798425121669
  0
LINE
  8
_0-0_
  6
CONTINUOUS
 62
    7
 10
13.075608026802911
 20
14.28924503452879
 11
13.075608026802911
 21
10.096351815715366
  0
LINE
  8
_0-0_
  6
CONTINUOUS
 62
    7
 10
13.575608026802911
 20
9.5963518157153658
 11
15.06659103242805
 21
9.5963518157153658
  0
LINE
  8
_0-0_
  6
CONTINUOUS
 62
    7
 10
15.513804627928039
 20
9.319958613465019
 11
15.92282162230299
 21
8.5019246247151159
  0
LINE
  8
_0-0_
  6
CONTINUOUS
 62
    7
 10
15.975608026803002
 20
8.2783178269654627
 11
15.975608026803002
 21
6.496351815715002
  0
LINE
  8
_0-0_
  6
CONTINUOUS
 62
    7
 10
15.475608026803002
 20
5.996351815715002
 11
2.5756080268029109
 21
5.996351815715002
  0
LINE
  8
_0-0_
  6
CONTINUOUS
 62
    7
 10
1.0756080268029109
 20
7.496351815715002
 11
1.0756080268029109
 21
20.396351815715093
  0
LINE
  8
_0-0_
  6
CONTINUOUS
 62
    7
 10
1.5756080268029109
 20
20.896351815715093
 11
3.3575740380531442
 21
20.896351815715093
  0
LINE
  8
_0-0_
  6
CONTINUOUS
 62
    7
 10
3.5811808358030248
 20
20.843565411215309
 11
4.3992148245529279
 21
20.43454841684013
  0
LINE
  8
_0-0_
  6
CONTINUOUS
 62
    7
 10
4.6756080268030473
 20
19.987334821340369
 11
4.6756080268030473
 21
18.496351815715002
  0
LINE
  8
_0-0_
  6
CONTINUOUS
 62
    7
 10
5.1756080268030473
 20
17.996351815715002
 11
9.3685012456164714
 21
17.996351815715002
  0
LINE
  8
_0-0_
  6
CONTINUOUS
 62
    7
 10
9.7220546362095774
 20
18.142798425121669
 11
10.929161417396244
 21
19.349905206308335
  0
LINE
  8
_0-0_
  6
CONTINUOUS
 62
    7
 10
11.075608026802911
 20
19.703458596901669
 11
11.075608026802911
 21
32.28924503452879
  0
LINE
  8
_0-0_
  6
CONTINUOUS
 62
    7
 10
10.929161417396244
 20
32.642798425121669
 11
9.7220546362095774
 21
33.849905206308335
  0
LINE
  8
_0-0_
  6
CONTINUOUS
 62
    7
 10
9.3685012456164714
 20
33.996351815715002
 11
5.1756080268030473
 21
33.996351815715002
  0
LINE
  8
_0-0_
  6
CONTINUOUS
 62
    7
 10
4.6756080268030473
 20
33.496351815715002
 11
4.6756080268030473
 21
32.00536881009009
  0
LINE
  8
_0-0_
  6
CONTINUOUS
 62
    7
 10
4.3992148245529279
 20
31.558155214590329
 11
3.5811808358030248
 21
31.14913822021515
  0
LINE
  8
_0-0_
  6
CONTINUOUS
 62
    7
 10
3.3575740380531442
 20
31.096351815715366
 11
1.5756080268029109
 21
31.096351815715366
  0
LINE
  8
_0-0_
  6
CONTINUOUS
 62
    7
 10
1.0756080268029109
 20
31.596351815715366
 11
1.0756080268029109
 21
44.496351815715002
  0
LINE
  8
_0-0_
  6
CONTINUOUS
 62
    7
 10
28.975608026803002
 20
18.996351815715002
 11
28.975608026803002
 21
32.996351815715002
  0
LINE
  8
_0-0_
  6
CONTINUOUS
 62
    7
 10
28.475608026803002
 20
33.496351815715002
 11
27.327274076642425
 21
33.496351815715002
  0
LINE
  8
_0-0_
  6
CONTINUOUS
 62
    7
 10
26.894261374750386
 20
33.246351815715002
 11
25.075608026802911
 21
30.096351815715366
  0
LINE
  8
_0-0_
  6
CONTINUOUS
 62
    7
 10
24.786932892208142
 20
30.096351815715366
 11
17.36428316139768
 21
30.096351815715366
  0
LINE
  8
_0-0_
  6
CONTINUOUS
 62
    7
 10
17.075608026802911
 20
30.096351815715366
 11
15.256954678855664
 21
33.246351815715002
  0
LINE
  8
_0-0_
  6
CONTINUOUS
 62
    7
 10
14.823941976963397
 20
33.496351815715002
 11
13.675608026803047
 21
33.496351815715002
  0
LINE
  8
_0-0_
  6
CONTINUOUS
 62
    7
 10
13.175608026803047
 20
32.996351815715002
 11
13.175608026803047
 21
18.996351815715002
  0
LINE
  8
_0-0_
  6
CONTINUOUS
 62
    7
 10
13.675608026803047
 20
18.496351815715002
 11
14.823941976963397
 21
18.496351815715002
  0
LINE
  8
_0-0_
  6
CONTINUOUS
 62
    7
 10
15.256954678855664
 20
18.746351815715002
 11
16.93127045950564
 21
21.646351815715093
  0
LINE
  8
_0-0_
  6
CONTINUOUS
 62
    7
 10
17.36428316139768
 20
21.896351815715093
 11
24.786932892208142
 21
21.896351815715093
  0
LINE
  8
_0-0_
  6
CONTINUOUS
 62
    7
 10
25.219945594100409
 20
21.646351815715093
 11
26.894261374750386
 21
18.746351815715002
  0
LINE
  8
_0-0_
  6
CONTINUOUS
 62
    7
 10
27.327274076642425
 20
18.496351815715002
 11
28.475608026803002
 21
18.496351815715002
  0
ARC
  8
_0-0_
  6
CONTINUOUS
 62
    7
 10
32.075608026802911
 20
12.472510820346429
 40
0.5
 50
180
 51
196.66457137381929
  0
ARC
  8
_0-0_
  6
CONTINUOUS
 62
    7
 10
36.865608026802875
 20
13.906351815715311
 40
5.5
 50
196.66457137381914
 51
266.97754821680843
  0
ARC
  8
_0-0_
  6
CONTINUOUS
 62
    7
 10
40.560640190424692
 20
9.6963518157152748
 40
0.5
 50
90
 51
135.43912568388967
  0
ARC
  8
_0-0_
  6
CONTINUOUS
 62
    7
 10
36.285608026802947
 20
13.906351815715311
 40
5.5
 50
273.02245178319157
 51
315.43912568388976
  0
ARC
  8
_0-0_
  6
CONTINUOUS
 62
    7
 10
40.575608026802911
 20
9.6963518157152748
 40
0.5
 50
0
 51
90
  0
ARC
  8
_0-0_
  6
CONTINUOUS
 62
    7
 10
32.075608026802911
 20
39.52019281108403
 40
0.5
 50
163.33542862618074
 51
180
  0
ARC
  8
_0-0_
  6
CONTINUOUS
 62
    7
 10
36.865608026802875
 20
38.086351815715147
 40
5.5
 50
93.02245178319157
 51
163.33542862618086
  0
ARC
  8
_0-0_
  6
CONTINUOUS
 62
    7
 10
40.560640190424692
 20
42.296351815715184
 40
0.5
 50
224.56087431611033
 51
270
  0
ARC
  8
_0-0_
  6
CONTINUOUS
 62
    7
 10
36.285608026802947
 20
38.086351815715147
 40
5.5
 50
44.560874316110237
 51
86.977548216808444
  0
ARC
  8
_0-0_
  6
CONTINUOUS
 62
    7
 10
10.575608026802911
 20
19.703458596901669
 40
0.5
 50
315.00000000000011
 51
0
  0
ARC
  8
_0-0_
  6
CONTINUOUS
 62
    7
 10
9.3685012456164714
 20
18.496351815715002
 40
0.5
 50
270.00000000000006
 51
315.00000000000006
  0
ARC
  8
_0-0_
  6
CONTINUOUS
 62
    7
 10
5.1756080268030473
 20
18.496351815715002
 40
0.5
 50
180
 51
270
  0
ARC
  8
_0-0_
  6
CONTINUOUS
 62
    7
 10
4.1756080268030473
 20
19.987334821340369
 40
0.5
 50
0
 51
63.434948822921854
  0
ARC
  8
_0-0_
  6
CONTINUOUS
 62
    7
 10
3.3575740380531442
 20
20.396351815715093
 40
0.5
 50
63.434948822921932
 51
90
  0
ARC
  8
_0-0_
  6
CONTINUOUS
 62
    7
 10
1.5756080268029109
 20
20.396351815715093
 40
0.5
 50
90
 51
180
  0
ARC
  8
_0-0_
  6
CONTINUOUS
 62
    7
 10
10.575608026802911
 20
32.28924503452879
 40
0.5
 50
0
 51
44.999999999999915
  0
ARC
  8
_0-0_
  6
CONTINUOUS
 62
    7
 10
9.3685012456164714
 20
33.496351815715002
 40
0.5
 50
44.99999999999995
 51
89.999999999999943
  0
ARC
  8
_0-0_
  6
CONTINUOUS
 62
    7
 10
5.1756080268030473
 20
33.496351815715002
 40
0.5
 50
90
 51
180
  0
ARC
  8
_0-0_
  6
CONTINUOUS
 62
    7
 10
4.1756080268030473
 20
32.00536881009009
 40
0.5
 50
296.56505117707815
 51
0
  0
ARC
  8
_0-0_
  6
CONTINUOUS
 62
    7
 10
3.3575740380531442
 20
31.596351815715366
 40
0.5
 50
270
 51
296.56505117707809
  0
ARC
  8
_0-0_
  6
CONTINUOUS
 62
    7
 10
1.5756080268029109
 20
31.596351815715366
 40
0.5
 50
180
 51
270
  0
ARC
  8
_0-0_
  6
CONTINUOUS
 62
    7
 10
22.089821589176154
 20
16.496351815715002
 40
0.5
 50
225
 51
270
  0
ARC
  8
_0-0_
  6
CONTINUOUS
 62
    7
 10
20.061394464429895
 20
16.496351815715002
 40
0.5
 50
270
 51
315.00000000000045
  0
ARC
  8
_0-0_
  6
CONTINUOUS
 62
    7
 10
21.075608026802911
 20
16.096351815715366
 40
0.5
 50
44.999999999999666
 51
135
  0
ARC
  8
_0-0_
  6
CONTINUOUS
 62
    7
 10
27.368501245616471
 20
15.496351815715002
 40
0.5
 50
45.000000000000085
 51
90
  0
ARC
  8
_0-0_
  6
CONTINUOUS
 62
    7
 10
28.575608026802911
 20
14.28924503452879
 40
0.5
 50
0.0000000000000636
 51
45.000000000000064
  0
ARC
  8
_0-0_
  6
CONTINUOUS
 62
    7
 10
28.575608026802911
 20
10.096351815715366
 40
0.5
 50
270
 51
0
  0
ARC
  8
_0-0_
  6
CONTINUOUS
 62
    7
 10
27.084625021177999
 20
9.0963518157153658
 40
0.5
 50
89.999999999999972
 51
153.43494882292185
  0
ARC
  8
_0-0_
  6
CONTINUOUS
 62
    7
 10
26.675608026803047
 20
8.2783178269654627
 40
0.5
 50
153.434948822922
 51
180.00000000000003
  0
ARC
  8
_0-0_
  6
CONTINUOUS
 62
    7
 10
26.675608026803047
 20
6.496351815715002
 40
0.5
 50
180
 51
270
  0
ARC
  8
_0-0_
  6
CONTINUOUS
 62
    7
 10
14.782714807989578
 20
15.496351815715002
 40
0.5
 50
90
 51
134.99999999999991
  0
ARC
  8
_0-0_
  6
CONTINUOUS
 62
    7
 10
13.575608026802911
 20
14.28924503452879
 40
0.5
 50
134.99999999999994
 51
179.99999999999994
  0
ARC
  8
_0-0_
  6
CONTINUOUS
 62
    7
 10
13.575608026802911
 20
10.096351815715366
 40
0.5
 50
180
 51
270
  0
ARC
  8
_0-0_
  6
CONTINUOUS
 62
    7
 10
15.06659103242805
 20
9.0963518157153658
 40
0.5
 50
26.565051177078146
 51
90.000000000000028
  0
ARC
  8
_0-0_
  6
CONTINUOUS
 62
    7
 10
15.475608026803002
 20
8.2783178269654627
 40
0.5
 50
0
 51
26.565051177078061
  0
ARC
  8
_0-0_
  6
CONTINUOUS
 62
    7
 10
15.475608026803002
 20
6.496351815715002
 40
0.5
 50
270
 51
0
  0
ARC
  8
_0-0_
  6
CONTINUOUS
 62
    7
 10
20.061394464429895
 20
35.496351815715002
 40
0.5
 50
45
 51
90
  0
ARC
  8
_0-0_
  6
CONTINUOUS
 62
    7
 10
22.089821589176154
 20
35.496351815715002
 40
0.5
 50
90
 51
135.00000000000045
  0
ARC
  8
_0-0_
  6
CONTINUOUS
 62
    7
 10
21.075608026802911
 20
35.896351815715093
 40
0.5
 50
224.99999999999977
 51
315
  0
ARC
  8
_0-0_
  6
CONTINUOUS
 62
    7
 10
14.782714807989578
 20
36.496351815715002
 40
0.5
 50
225.00000000000006
 51
270
  0
ARC
  8
_0-0_
  6
CONTINUOUS
 62
    7
 10
13.575608026802911
 20
37.703458596901669
 40
0.5
 50
180.00000000000006
 51
225.00000000000006
  0
ARC
  8
_0-0_
  6
CONTINUOUS
 62
    7
 10
13.575608026802911
 20
41.896351815715093
 40
0.5
 50
90
 51
180
  0
ARC
  8
_0-0_
  6
CONTINUOUS
 62
    7
 10
15.06659103242805
 20
42.896351815715093
 40
0.5
 50
270
 51
333.43494882292185
  0
ARC
  8
_0-0_
  6
CONTINUOUS
 62
    7
 10
15.475608026803002
 20
43.714385804464996
 40
0.5
 50
333.43494882292191
 51
0
  0
ARC
  8
_0-0_
  6
CONTINUOUS
 62
    7
 10
15.475608026803002
 20
45.496351815715002
 40
0.5
 50
0
 51
90
  0
ARC
  8
_0-0_
  6
CONTINUOUS
 62
    7
 10
27.368501245616471
 20
36.496351815715002
 40
0.5
 50
270
 51
314.99999999999989
  0
ARC
  8
_0-0_
  6
CONTINUOUS
 62
    7
 10
28.575608026802911
 20
37.703458596901669
 40
0.5
 50
314.99999999999994
 51
359.99999999999994
  0
ARC
  8
_0-0_
  6
CONTINUOUS
 62
    7
 10
28.575608026802911
 20
41.896351815715093
 40
0.5
 50
0
 51
90
  0
ARC
  8
_0-0_
  6
CONTINUOUS
 62
    7
 10
27.084625021177999
 20
42.896351815715093
 40
0.5
 50
206.56505117707815
 51
270
  0
ARC
  8
_0-0_
  6
CONTINUOUS
 62
    7
 10
26.675608026803047
 20
43.714385804464996
 40
0.5
 50
180
 51
206.56505117707809
  0
ARC
  8
_0-0_
  6
CONTINUOUS
 62
    7
 10
26.675608026803047
 20
45.496351815715002
 40
0.5
 50
90
 51
180
  0
CIRCLE
  8
_0-0_
  6
CONTINUOUS
 62
    7
 10
7.0756080268029109
 20
11.996351815715002
 40
3.3999999999999999
  0
CIRCLE
  8
_0-0_
  6
CONTINUOUS
 62
    7
 10
7.0756080268029109
 20
39.996351815715002
 40
3.3999999999999999
  0
ARC
  8
_0-0_
  6
CONTINUOUS
 62
    7
 10
13.675608026803047
 20
18.996351815715002
 40
0.5
 50
180
 51
270
  0
ARC
  8
_0-0_
  6
CONTINUOUS
 62
    7
 10
14.823941976963397
 20
18.996351815715002
 40
0.5
 50
270
 51
330.00000000000006
  0
ARC
  8
_0-0_
  6
CONTINUOUS
 62
    7
 10
17.36428316139768
 20
21.396351815715093
 40
0.5
 50
90
 51
149.99999999999994
  0
ARC
  8
_0-0_
  6
CONTINUOUS
 62
    7
 10
24.786932892208142
 20
21.396351815715093
 40
0.5
 50
29.999999999999964
 51
89.999999999999986
  0
ARC
  8
_0-0_
  6
CONTINUOUS
 62
    7
 10
27.327274076642425
 20
18.996351815715002
 40
0.5
 50
209.99999999999994
 51
270
  0
ARC
  8
_0-0_
  6
CONTINUOUS
 62
    7
 10
28.475608026803002
 20
18.996351815715002
 40
0.5
 50
270
 51
0
  0
ARC
  8
_0-0_
  6
CONTINUOUS
 62
    7
 10
28.475608026803002
 20
32.996351815715002
 40
0.5
 50
0
 51
90
  0
ARC
  8
_0-0_
  6
CONTINUOUS
 62
    7
 10
27.327274076642425
 20
32.996351815715002
 40
0.5
 50
90
 51
149.99999999999994
  0
ARC
  8
_0-0_
  6
CONTINUOUS
 62
    7
 10
24.786932892208142
 20
30.596351815715366
 40
0.5
 50
270
 51
329.99999999999994
  0
ARC
  8
_0-0_
  6
CONTINUOUS
 62
    7
 10
17.36428316139768
 20
30.596351815715366
 40
0.5
 50
209.99999999999977
 51
270
  0
ARC
  8
_0-0_
  6
CONTINUOUS
 62
    7
 10
14.823941976963397
 20
32.996351815715002
 40
0.5
 50
29.999999999999865
 51
90.000000000000014
  0
ARC
  8
_0-0_
  6
CONTINUOUS
 62
    7
 10
13.675608026803047
 20
32.996351815715002
 40
0.5
 50
90
 51
180
  0
ARC
  8
_0-0_
  6
CONTINUOUS
 62
    7
 10
2.5756080268029109
 20
44.496351815715002
 40
1.5
 50
90
 51
180
  0
ARC
  8
_0-0_
  6
CONTINUOUS
 62
    7
 10
2.5756080268029109
 20
7.496351815715002
 40
1.5
 50
180
 51
270
  0
ARC
  8
_0-0_
  6
CONTINUOUS
 62
    7
 10
39.575608026802911
 20
7.496351815715002
 40
1.5
 50
270
 51
0
  0
ARC
  8
_0-0_
  6
CONTINUOUS
 62
    7
 10
39.575608026802911
 20
44.496351815715002
 40
1.5
 50
0
 51
90
  0
ARC
  8
_0-0_
  6
CONTINUOUS
 62
    7
 10
40.575608026802911
 20
42.296351815715184
 40
0.5
 50
270
 51
0
  0
LINE
  8
_0-1_
  6
CENTER1
 62
  152
 10
1.0756080268029109
 20
25.996351815715002
 11
41.075608026802911
 21
25.996351815715002
  0
LINE
  8
_0-1_
  6
CENTER1
 62
  152
 10
21.075608026802911
 20
5.996351815715002
 11
21.075608026802911
 21
45.996351815715002
  0
LINE
  8
_0-1_
  6
CENTER1
 62
  152
 10
2.702422307896768
 20
39.996351815715002
 11
11.851974087359849
 21
39.996351815715002
  0
LINE
  8
_0-1_
  6
CENTER1
 62
  152
 10
7.0756080268029109
 20
44.456679698208404
 11
7.0756080268029109
 21
35.773941785044485
  0
LINE
  8
_0-1_
  6
CENTER1
 62
  152
 10
7.0756080268029109
 20
16.456679698208404
 11
7.0756080268029109
 21
7.7739417850444852
  0
LINE
  8
_0-1_
  6
CENTER1
 62
  152
 10
2.702422307896768
 20
11.996351815715002
 11
11.851974087359849
 21
11.996351815715002
  0
ENDSEC
  0
EOF
