  0
SECTION
  2
HEADER
  9
$ACADVER
  1
AC1009
  9
$INSBASE
 10
0
 20
0
 30
0
  9
$EXTMIN
 10
0
 20
0
  9
$EXTMAX
 10
1189
 20
841
  9
$LIMMIN
 10
0
 20
0
  9
$LIMMAX
 10
1189
 20
841
  9
$LTSCALE
 40
1
  0
ENDSEC
  0
SECTION
  2
TABLES
  0
TABLE
  2
LTYPE
 70
     9
  0
LTYPE
  2
CONTINUOUS
 70
    64
  3
実線
 72
    65
 73
     0
 40
0.0
  0
LTYPE
  2
DASHED1
 70
    64
  3
--  --  --  --  --  --  --  --  
 72
    65
 73
     2
 40
2.5
 49
1.25
 49
-1.25
  0
LTYPE
  2
DASHED2
 70
    64
  3
----    ----    ----    ----    
 72
    65
 73
     2
 40
5.0
 49
2.5
 49
-2.5
  0
LTYPE
  2
DASHED3
 70
    64
  3
------  ------  ------  ------  
 72
    65
 73
     2
 40
5.0
 49
3.75
 49
-1.25
  0
LTYPE
  2
CENTER1
 70
    64
  3
----- - ----- - ----- - ----- - 
 72
    65
 73
     4
 40
10.0
 49
6.25
 49
-1.25
 49
1.25
 49
-1.25
  0
LTYPE
  2
CENTER2
 70
    64
  3
----------  --  ----------  --  
 72
    65
 73
     4
 40
20.0
 49
12.5
 49
-2.5
 49
2.5
 49
-2.5
  0
LTYPE
  2
PHANTOM1
 70
    64
  3
--- - - --- - - --- - - --- - - 
 72
    65
 73
     6
 40
10.0
 49
3.25
 49
-1.25
 49
1.25
 49
-1.25
 49
1.25
 49
-1.25
  0
LTYPE
  2
PHANTOM2
 70
    64
  3
--------  -  -  --------  -  -  
 72
    65
 73
     6
 40
20.0
 49
10.0
 49
-2.5
 49
1.25
 49
-2.5
 49
1.25
 49
-2.5
  0
LTYPE
  2
DOT
 70
    64
  3
-   -   -   -   -   -   -   -   
 72
    65
 73
     2
 40
2.5
 49
0.625
 49
-1.875
  0
LTYPE
  2
DUMMY
 70
    64
  3
ダミー
 72
    65
 73
     0
 40
0.0
  0
LTYPE
  2
RAND1
 70
    64
  3
ランダム線1
 72
    65
 73
     4
 40
10.0
 49
1.0
 49
-2.0
 49
3.0
 49
-4.0
  0
LTYPE
  2
RAND2
 70
    64
  3
ランダム線2
 72
    65
 73
     4
 40
14.0
 49
2.0
 49
-3.0
 49
4.0
 49
-5.0
  0
LTYPE
  2
RAND3
 70
    64
  3
ランダム線3
 72
    65
 73
     4
 40
18.0
 49
3.0
 49
-4.0
 49
5.0
 49
-6.0
  0
LTYPE
  2
RAND4
 70
    64
  3
ランダム線4
 72
    65
 73
     4
 40
22.0
 49
4.0
 49
-5.0
 49
6.0
 49
-7.0
  0
LTYPE
  2
RAND5
 70
    64
  3
ランダム線5
 72
    65
 73
     4
 40
26.0
 49
5.0
 49
-6.0
 49
7.0
 49
-8.0
  0
LTYPE
  2
LONG1
 70
    64
  3
----------  --  ----------  --  
 72
    65
 73
     4
 40
40.0
 49
32.5
 49
-2.5
 49
2.5
 49
-2.5
  0
LTYPE
  2
LONG2
 70
    64
  3
--------  -  -  --------  -  -  
 72
    65
 73
     6
 40
40.0
 49
30.0
 49
-2.5
 49
1.25
 49
-2.5
 49
1.25
 49
-2.5
  0
LTYPE
  2
LONG3
 70
    64
  3
+++++++++++++++..+++++++++++++++
 72
    65
 73
     2
 40
40.0
 49
37.5
 49
-2.5
  0
LTYPE
  2
LONG4
 70
    64
  3
+++++++++++++++..+++++++++++++++
 72
    65
 73
     2
 40
80.0
 49
75.0
 49
-5.0
  0
LTYPE
  2
LONG5
 70
    64
  3
----------  --  ----------  --  
 72
    65
 73
     4
 40
60.0
 49
37.5
 49
-7.5
 49
7.5
 49
-7.5
  0
LTYPE
  2
dashed
 70
   64
  3
-------   -------------   ------
 72
   65
 73
    2
 40
7.5
 49
6
 49
-1.5
  0
LTYPE
  2
dashed_spaced
 70
   64
  3
----        --------        ----
 72
   65
 73
    2
 40
12
 49
6
 49
-6
  0
LTYPE
  2
long_dashed_dotted
 70
   64
  3
------------- --- --------------
 72
   65
 73
    4
 40
15.25
 49
12
 49
-1.5
 49
0.25
 49
-1.5
  0
LTYPE
  2
long_dashed_double-dotted
 70
   64
  3
----------- --- --- ------------
 72
   65
 73
    6
 40
17
 49
12
 49
-1.5
 49
0.25
 49
-1.5
 49
0.25
 49
-1.5
  0
LTYPE
  2
long_dashed_triplicate-dotted
 70
   64
  3
--------- --- --- --- ----------
 72
   65
 73
    8
 40
18.75
 49
12
 49
-1.5
 49
0.25
 49
-1.5
 49
0.25
 49
-1.5
 49
0.25
 49
-1.5
  0
LTYPE
  2
dotted
 70
   64
  3
   -       -       -       -    
 72
   65
 73
    2
 40
1.75
 49
0.25
 49
-1.5
  0
LTYPE
  2
chain
 70
   64
  3
-------------- -- --------------
 72
   65
 73
    4
 40
18.5
 49
12
 49
-1.5
 49
3.5
 49
-1.5
  0
LTYPE
  2
chain_double_dash
 70
   64
  3
------------ -- -- -------------
 72
   65
 73
    6
 40
23.5
 49
12
 49
-1.5
 49
3.5
 49
-1.5
 49
3.5
 49
-1.5
  0
LTYPE
  2
dashed_dotted
 70
   64
  3
-----------     -     ----------
 72
   65
 73
    4
 40
9.25
 49
6
 49
-1.5
 49
0.25
 49
-1.5
  0
LTYPE
  2
double-dashed_dotted
 70
   64
  3
------   -----------   -   -----
 72
   65
 73
    6
 40
16.75
 49
6
 49
-1.5
 49
6
 49
-1.5
 49
0.25
 49
-1.5
  0
LTYPE
  2
dashed_double-dotted
 70
   64
  3
---------    -    -    ---------
 72
   65
 73
    6
 40
11
 49
6
 49
-1.5
 49
0.25
 49
-1.5
 49
0.25
 49
-1.5
  0
LTYPE
  2
double-dashed_double-dotted
 70
   64
  3
-----   ---------   -   -   ----
 72
   65
 73
    8
 40
18.5
 49
6
 49
-1.5
 49
6
 49
-1.5
 49
0.25
 49
-1.5
 49
0.25
 49
-1.5
  0
LTYPE
  2
dashed_triplicate-dotted
 70
   64
  3
-------    -    -    -    ------
 72
   65
 73
    8
 40
12.75
 49
6
 49
-1.5
 49
0.25
 49
-1.5
 49
0.25
 49
-1.5
 49
0.25
 49
-1.5
  0
LTYPE
  2
double-dashed_triplicate-dotted
 70
   64
  3
-----  ---------  -  -  -  -----
 72
   65
 73
   10
 40
20.25
 49
6
 49
-1.5
 49
6
 49
-1.5
 49
0.25
 49
-1.5
 49
0.25
 49
-1.5
 49
0.25
 49
-1.5
  0
LTYPE
  2
undefined
 70
   64
  3
--------------------------------
 72
   65
 73
    0
 40
0
  0
ENDTAB
  0
TABLE
  2
STYLE
  5
3
100
AcDbSymbolTable
 70
     1
  0
STYLE
  5
10
100
AcDbSymbolTableRecord
100
AcDbTextStyleTableRecord
  2
STANDARD
 70
     0
 40
0.0
 41
1.0
 50
0.0
 71
     0
 42
0.2
  3
txt
  4
bigfont.shx
  0
STYLE
  5
26
100
AcDbSymbolTableRecord
100
AcDbTextStyleTableRecord
  2
TATEGAKI
 70
    68
 40
0.0
 41
1.0
 50
0.0
 71
     0
 42
1.0
  3
txt
  4
bigfont.shx
  0
ENDTAB
  0
TABLE
  2
LAYER
 70
    4
  0
LAYER
  2
_0-0_
 70
   64
 62
    7
  6
CONTINUOUS
  0
LAYER
  2
_0-1_
 70
   64
 62
    7
  6
CONTINUOUS
  0
LAYER
  2
_0-f_
 70
   64
 62
    7
  6
CONTINUOUS
  0
LAYER
  2
ADD_LINE
 70
   64
 62
    7
  6
CONTINUOUS
  0
ENDTAB
  0
ENDSEC
  0
SECTION
  2
BLOCKS
  0
ENDSEC
  0
SECTION
  2
ENTITIES
  0
TEXT
  8
_0-f_
 62
    7
 10
0.799767902548524
 20
0.7453806365348896
 40
4.2999999999999998
 41
0.744186046511628
 50
0
  1
F44F,F44FB
  0
LINE
  8
_0-0_
  6
CONTINUOUS
 62
    7
 10
41.578455764419459
 20
44.079053300832072
 11
41.578455764419459
 21
31.179053300832095
  0
LINE
  8
_0-0_
  6
CONTINUOUS
 62
    7
 10
41.078455764419459
 20
30.679053300832095
 11
39.296489753169453
 21
30.679053300832095
  0
LINE
  8
_0-0_
  6
CONTINUOUS
 62
    7
 10
39.072882955419345
 20
30.731839705332106
 11
38.254848966669442
 21
31.140856699707058
  0
LINE
  8
_0-0_
  6
CONTINUOUS
 62
    7
 10
37.97845576441955
 20
31.588070295207046
 11
37.97845576441955
 21
33.079053300832072
  0
LINE
  8
_0-0_
  6
CONTINUOUS
 62
    7
 10
37.47845576441955
 20
33.579053300832072
 11
32.785562545606126
 21
33.579053300832072
  0
LINE
  8
_0-0_
  6
CONTINUOUS
 62
    7
 10
32.432009155012793
 20
33.432606691425292
 11
31.724902373826126
 21
32.725499910238739
  0
LINE
  8
_0-0_
  6
CONTINUOUS
 62
    7
 10
31.578455764419459
 20
32.371946519645519
 11
31.578455764419459
 21
18.786160082018625
  0
LINE
  8
_0-0_
  6
CONTINUOUS
 62
    7
 10
31.724902373826126
 20
18.432606691425406
 11
32.432009155012793
 21
17.725499910238739
  0
LINE
  8
_0-0_
  6
CONTINUOUS
 62
    7
 10
32.785562545606126
 20
17.579053300832072
 11
37.47845576441955
 21
17.579053300832072
  0
LINE
  8
_0-0_
  6
CONTINUOUS
 62
    7
 10
37.97845576441955
 20
18.079053300832072
 11
37.97845576441955
 21
19.570036306457098
  0
LINE
  8
_0-0_
  6
CONTINUOUS
 62
    7
 10
38.254848966669442
 20
20.017249901957086
 11
39.072882955419345
 21
20.426266896332038
  0
LINE
  8
_0-0_
  6
CONTINUOUS
 62
    7
 10
39.296489753169453
 20
20.479053300832049
 11
41.078455764419459
 21
20.479053300832049
  0
LINE
  8
_0-0_
  6
CONTINUOUS
 62
    7
 10
41.578455764419459
 20
19.979053300832049
 11
41.578455764419459
 21
7.0790533008320722
  0
LINE
  8
_0-0_
  6
CONTINUOUS
 62
    7
 10
40.178455764419368
 20
7.4790533008320494
 11
40.178455764419368
 21
16.891619092128337
  0
LINE
  8
_0-0_
  6
CONTINUOUS
 62
    7
 10
37.47845576441955
 20
16.079053300832072
 11
31.578455764419459
 21
16.079053300832072
  0
LINE
  8
_0-0_
  6
CONTINUOUS
 62
    7
 10
31.078455764419459
 20
15.579053300832072
 11
31.078455764419459
 21
9.6790533008320949
  0
LINE
  8
_0-0_
  6
CONTINUOUS
 62
    7
 10
29.578455764419459
 20
9.6790533008320949
 11
29.578455764419459
 21
14.371946519645519
  0
LINE
  8
_0-0_
  6
CONTINUOUS
 62
    7
 10
29.432009155012793
 20
14.725499910238739
 11
28.724902373826126
 21
15.432606691425406
  0
LINE
  8
_0-0_
  6
CONTINUOUS
 62
    7
 10
28.371348983232792
 20
15.579053300832072
 11
21.997267788141244
 21
15.579053300832072
  0
LINE
  8
_0-0_
  6
CONTINUOUS
 62
    7
 10
21.849020164050444
 20
15.619236261371668
 11
21.726467652362999
 21
15.689998501637263
  0
LINE
  8
_0-0_
  6
CONTINUOUS
 62
    7
 10
21.429388946919744
 20
15.689397305797854
 11
21.307881498608594
 21
15.619240584207489
  0
LINE
  8
_0-0_
  6
CONTINUOUS
 62
    7
 10
21.159643740697675
 20
15.579053300832072
 11
14.785562545606126
 21
15.579053300832072
  0
LINE
  8
_0-0_
  6
CONTINUOUS
 62
    7
 10
14.432009155012793
 20
15.432606691425406
 11
13.724902373826126
 21
14.725499910238739
  0
LINE
  8
_0-0_
  6
CONTINUOUS
 62
    7
 10
13.578455764419459
 20
14.371946519645519
 11
13.578455764419459
 21
9.6790533008320949
  0
LINE
  8
_0-0_
  6
CONTINUOUS
 62
    7
 10
14.078455764419459
 20
9.1790533008320949
 11
15.569438770044371
 21
9.1790533008320949
  0
LINE
  8
_0-0_
  6
CONTINUOUS
 62
    7
 10
16.016652365544587
 20
8.9026600985820892
 11
16.425669359919311
 21
8.0846261098321861
  0
LINE
  8
_0-0_
  6
CONTINUOUS
 62
    7
 10
16.47845576441955
 20
7.8610193120821918
 11
16.47845576441955
 21
6.0790533008320722
  0
LINE
  8
_0-0_
  6
CONTINUOUS
 62
    7
 10
15.97845576441955
 20
5.5790533008320722
 11
3.0784557644194592
 21
5.5790533008320722
  0
LINE
  8
_0-0_
  6
CONTINUOUS
 62
    7
 10
3.4784557644195502
 20
6.9790533008320494
 11
12.891021555715952
 21
6.9790533008320494
  0
LINE
  8
_0-0_
  6
CONTINUOUS
 62
    7
 10
12.078455764419459
 20
9.6790533008320949
 11
12.078455764419459
 21
15.579053300832072
  0
LINE
  8
_0-0_
  6
CONTINUOUS
 62
    7
 10
11.578455764419459
 20
16.079053300832072
 11
5.6784557644193683
 21
16.079053300832072
  0
LINE
  8
_0-0_
  6
CONTINUOUS
 62
    7
 10
5.6784557644193683
 20
17.579053300832072
 11
10.371348983232792
 21
17.579053300832072
  0
LINE
  8
_0-0_
  6
CONTINUOUS
 62
    7
 10
10.724902373826126
 20
17.725499910238739
 11
11.432009155012793
 21
18.432606691425406
  0
LINE
  8
_0-0_
  6
CONTINUOUS
 62
    7
 10
11.578455764419459
 20
18.786160082018625
 11
11.578455764419459
 21
32.371946519645519
  0
LINE
  8
_0-0_
  6
CONTINUOUS
 62
    7
 10
11.432009155012793
 20
32.725499910238852
 11
10.724902373826126
 21
33.432606691425292
  0
LINE
  8
_0-0_
  6
CONTINUOUS
 62
    7
 10
10.371348983232792
 20
33.579053300832072
 11
5.6784557644193683
 21
33.579053300832072
  0
LINE
  8
_0-0_
  6
CONTINUOUS
 62
    7
 10
5.1784557644193683
 20
33.079053300832072
 11
5.1784557644193683
 21
31.588070295207046
  0
LINE
  8
_0-0_
  6
CONTINUOUS
 62
    7
 10
4.9020625621694762
 20
31.140856699707058
 11
4.0840285734195731
 21
30.731839705332106
  0
LINE
  8
_0-0_
  6
CONTINUOUS
 62
    7
 10
3.8604217756694652
 20
30.679053300832095
 11
2.0784557644194592
 21
30.679053300832095
  0
LINE
  8
_0-0_
  6
CONTINUOUS
 62
    7
 10
1.5784557644194592
 20
31.179053300832095
 11
1.5784557644194592
 21
44.079053300832072
  0
LINE
  8
_0-0_
  6
CONTINUOUS
 62
    7
 10
2.9784557644195502
 20
43.679053300832095
 11
2.9784557644195502
 21
34.266487509535807
  0
LINE
  8
_0-0_
  6
CONTINUOUS
 62
    7
 10
5.6784557644193683
 20
35.079053300832072
 11
11.578455764419459
 21
35.079053300832072
  0
LINE
  8
_0-0_
  6
CONTINUOUS
 62
    7
 10
12.078455764419459
 20
35.579053300832072
 11
12.078455764419459
 21
41.479053300832049
  0
LINE
  8
_0-0_
  6
CONTINUOUS
 62
    7
 10
13.578455764419459
 20
41.479053300832049
 11
13.578455764419459
 21
36.786160082018625
  0
LINE
  8
_0-0_
  6
CONTINUOUS
 62
    7
 10
13.724902373826126
 20
36.432606691425292
 11
14.432009155012793
 21
35.725499910238852
  0
LINE
  8
_0-0_
  6
CONTINUOUS
 62
    7
 10
14.785562545606126
 20
35.579053300832072
 11
21.159643740697675
 21
35.579053300832072
  0
LINE
  8
_0-0_
  6
CONTINUOUS
 62
    7
 10
21.307881498608594
 20
35.538866017456542
 11
21.429388946919744
 21
35.46870929586629
  0
LINE
  8
_0-0_
  6
CONTINUOUS
 62
    7
 10
21.726467652362999
 20
35.468108100026882
 11
21.849020164050444
 21
35.538870340292476
  0
LINE
  8
_0-0_
  6
CONTINUOUS
 62
    7
 10
21.997267788141698
 20
35.579053300832072
 11
28.371348983232792
 21
35.579053300832072
  0
LINE
  8
_0-0_
  6
CONTINUOUS
 62
    7
 10
28.724902373826126
 20
35.725499910238852
 11
29.432009155012793
 21
36.432606691425292
  0
LINE
  8
_0-0_
  6
CONTINUOUS
 62
    7
 10
29.578455764419459
 20
36.786160082018625
 11
29.578455764419459
 21
41.479053300832049
  0
LINE
  8
_0-0_
  6
CONTINUOUS
 62
    7
 10
29.078455764419459
 20
41.979053300832049
 11
27.587472758794547
 21
41.979053300832049
  0
LINE
  8
_0-0_
  6
CONTINUOUS
 62
    7
 10
27.140259163294331
 20
42.255446503082055
 11
26.731242168919607
 21
43.073480491831958
  0
LINE
  8
_0-0_
  6
CONTINUOUS
 62
    7
 10
26.678455764419368
 20
43.297087289581953
 11
26.678455764419368
 21
45.079053300832072
  0
LINE
  8
_0-0_
  6
CONTINUOUS
 62
    7
 10
27.178455764419368
 20
45.579053300832072
 11
40.078455764419459
 21
45.579053300832072
  0
LINE
  8
_0-0_
  6
CONTINUOUS
 62
    7
 10
39.678455764419368
 20
44.179053300832095
 11
30.265889973122967
 21
44.179053300832095
  0
LINE
  8
_0-0_
  6
CONTINUOUS
 62
    7
 10
31.078455764419459
 20
41.479053300832049
 11
31.078455764419459
 21
35.579053300832072
  0
LINE
  8
_0-0_
  6
CONTINUOUS
 62
    7
 10
31.578455764419459
 20
35.079053300832072
 11
37.47845576441955
 21
35.079053300832072
  0
LINE
  8
_0-0_
  6
CONTINUOUS
 62
    7
 10
40.178455764419368
 20
34.266487509535807
 11
40.178455764419368
 21
43.679053300832095
  0
LINE
  8
_0-0_
  6
CONTINUOUS
 62
    7
 10
1.5784557644194592
 20
19.979053300832163
 11
1.5784557644194592
 21
7.0790533008320722
  0
LINE
  8
_0-0_
  6
CONTINUOUS
 62
    7
 10
2.9784557644195502
 20
7.4790533008320494
 11
2.9784557644195502
 21
16.891619092128337
  0
LINE
  8
_0-0_
  6
CONTINUOUS
 62
    7
 10
5.1784557644193683
 20
18.079053300832072
 11
5.1784557644193683
 21
19.570036306457212
  0
LINE
  8
_0-0_
  6
CONTINUOUS
 62
    7
 10
4.9020625621694762
 20
20.017249901957086
 11
4.0840285734195731
 21
20.426266896332038
  0
LINE
  8
_0-0_
  6
CONTINUOUS
 62
    7
 10
3.8604217756694652
 20
20.479053300832049
 11
2.0784557644194592
 21
20.479053300832049
  0
LINE
  8
_0-0_
  6
CONTINUOUS
 62
    7
 10
13.178455764419368
 20
18.279053300832118
 11
13.178455764419368
 21
32.879053300832027
  0
LINE
  8
_0-0_
  6
CONTINUOUS
 62
    7
 10
13.678455764419368
 20
33.379053300832027
 11
17.129596465340228
 21
33.379053300832027
  0
LINE
  8
_0-0_
  6
CONTINUOUS
 62
    7
 10
17.626699989123381
 20
32.932794222322116
 11
17.881967315011707
 21
30.571571457852031
  0
LINE
  8
_0-0_
  6
CONTINUOUS
 62
    7
 10
18.876174362578013
 20
29.679053300832095
 11
19.885635441390832
 21
29.679053300832095
  0
LINE
  8
_0-0_
  6
CONTINUOUS
 62
    7
 10
20.135635441390832
 20
29.746040598939601
 11
21.328455764419459
 21
30.434715733534688
  0
LINE
  8
_0-0_
  6
CONTINUOUS
 62
    7
 10
21.828455764419004
 20
30.434715733534574
 11
23.021276087446722
 21
29.746040598939601
  0
LINE
  8
_0-0_
  6
CONTINUOUS
 62
    7
 10
23.271276087446722
 20
29.679053300832095
 11
24.280737166260906
 21
29.679053300832095
  0
LINE
  8
_0-0_
  6
CONTINUOUS
 62
    7
 10
25.274944213827212
 20
30.571571457852031
 11
25.530211539715538
 21
32.932794222322116
  0
LINE
  8
_0-0_
  6
CONTINUOUS
 62
    7
 10
26.027315063498691
 20
33.379053300832027
 11
29.47845576441955
 21
33.379053300832027
  0
LINE
  8
_0-0_
  6
CONTINUOUS
 62
    7
 10
29.97845576441955
 20
32.879053300832027
 11
29.97845576441955
 21
18.279053300832118
  0
LINE
  8
_0-0_
  6
CONTINUOUS
 62
    7
 10
29.47845576441955
 20
17.779053300832118
 11
26.027315063498691
 21
17.779053300832118
  0
LINE
  8
_0-0_
  6
CONTINUOUS
 62
    7
 10
25.530211539715538
 20
18.225312379342029
 11
25.274944213827212
 21
20.586535143812114
  0
LINE
  8
_0-0_
  6
CONTINUOUS
 62
    7
 10
24.280737166260906
 20
21.479053300832049
 11
23.271276087446722
 21
21.479053300832049
  0
LINE
  8
_0-0_
  6
CONTINUOUS
 62
    7
 10
23.021276087446722
 20
21.41206600272443
 11
21.578455764419459
 21
20.579053300832072
  0
LINE
  8
_0-0_
  6
CONTINUOUS
 62
    7
 10
21.578455764419459
 20
20.579053300832072
 11
20.135635441390832
 21
21.41206600272443
  0
LINE
  8
_0-0_
  6
CONTINUOUS
 62
    7
 10
19.885635441390832
 20
21.479053300832049
 11
18.876174362578013
 21
21.479053300832049
  0
LINE
  8
_0-0_
  6
CONTINUOUS
 62
    7
 10
17.881967315011707
 20
20.586535143812114
 11
17.626699989123381
 21
18.225312379342029
  0
LINE
  8
_0-0_
  6
CONTINUOUS
 62
    7
 10
17.129596465340228
 20
17.779053300832118
 11
13.678455764419368
 21
17.779053300832118
  0
LINE
  8
_0-0_
  6
CONTINUOUS
 62
    7
 10
16.47845576441955
 20
45.079053300832072
 11
16.47845576441955
 21
43.297087289581953
  0
LINE
  8
_0-0_
  6
CONTINUOUS
 62
    7
 10
16.425669359919311
 20
43.073480491831958
 11
16.016652365544587
 21
42.255446503082055
  0
LINE
  8
_0-0_
  6
CONTINUOUS
 62
    7
 10
15.569438770044371
 20
41.979053300832049
 11
14.078455764419459
 21
41.979053300832049
  0
LINE
  8
_0-0_
  6
CONTINUOUS
 62
    7
 10
12.891021555715952
 20
44.179053300832095
 11
3.4784557644195502
 21
44.179053300832095
  0
LINE
  8
_0-0_
  6
CONTINUOUS
 62
    7
 10
3.0784557644194592
 20
45.579053300832072
 11
15.97845576441955
 21
45.579053300832072
  0
LINE
  8
_0-0_
  6
CONTINUOUS
 62
    7
 10
27.140259163294331
 20
8.9026600985820892
 11
26.731242168919607
 21
8.0846261098321861
  0
LINE
  8
_0-0_
  6
CONTINUOUS
 62
    7
 10
26.678455764419368
 20
7.8610193120821918
 11
26.678455764419368
 21
6.0790533008320722
  0
LINE
  8
_0-0_
  6
CONTINUOUS
 62
    7
 10
27.178455764419368
 20
5.5790533008320722
 11
40.078455764419459
 21
5.5790533008320722
  0
LINE
  8
_0-0_
  6
CONTINUOUS
 62
    7
 10
39.678455764419368
 20
6.9790533008320494
 11
30.265889973122967
 21
6.9790533008320494
  0
LINE
  8
_0-0_
  6
CONTINUOUS
 62
    7
 10
29.078455764419459
 20
9.1790533008320949
 11
27.587472758794547
 21
9.1790533008320949
  0
ARC
  8
_0-0_
  6
CONTINUOUS
 62
    7
 10
21.999030173580422
 20
15.87904813405288
 40
0.3000000099360252
 50
240.00001525878906
 51
269.66340725002965
  0
ARC
  8
_0-0_
  6
CONTINUOUS
 62
    7
 10
21.157881355258496
 20
35.279058467611264
 40
0.3000000099360252
 50
59.999969482421875
 51
89.663407250029664
  0
ARC
  8
_0-0_
  6
CONTINUOUS
 62
    7
 10
21.999030173580422
 20
35.279058467611264
 40
0.3000000099360252
 50
90.336592749970336
 51
119.99998474121095
  0
ARC
  8
_0-0_
  6
CONTINUOUS
 62
    7
 10
21.578455764419459
 20
35.729053471683471
 40
0.3000000099360252
 50
240.2055847854013
 51
300
  0
ARC
  8
_0-0_
  6
CONTINUOUS
 62
    7
 10
27.178455764419368
 20
45.079053300832072
 40
0.5
 50
90
 51
180
  0
ARC
  8
_0-0_
  6
CONTINUOUS
 62
    7
 10
27.178455764419368
 20
43.297087289581953
 40
0.5
 50
180
 51
206.565051177078
  0
ARC
  8
_0-0_
  6
CONTINUOUS
 62
    7
 10
27.587472758794547
 20
42.479053300832049
 40
0.5
 50
206.565051177078
 51
270
  0
ARC
  8
_0-0_
  6
CONTINUOUS
 62
    7
 10
29.078455764419459
 20
41.479053300832049
 40
0.5
 50
0
 51
90
  0
ARC
  8
_0-0_
  6
CONTINUOUS
 62
    7
 10
29.078455764419459
 20
36.786160082018625
 40
0.5
 50
314.99999999999994
 51
0.0000000000000572
  0
ARC
  8
_0-0_
  6
CONTINUOUS
 62
    7
 10
28.371348983232792
 20
36.079053300832072
 40
0.5
 50
270
 51
314.99999999999989
  0
ARC
  8
_0-0_
  6
CONTINUOUS
 62
    7
 10
29.078455764419459
 20
41.479053300832049
 40
2
 50
0
 51
61.642363423672158
  0
ARC
  8
_0-0_
  6
CONTINUOUS
 62
    7
 10
30.265889973122967
 20
43.679053300832095
 40
0.5
 50
90
 51
241.64236342367215
  0
ARC
  8
_0-0_
  6
CONTINUOUS
 62
    7
 10
39.678455764419368
 20
43.679053300832095
 40
0.5
 50
0
 51
90
  0
ARC
  8
_0-0_
  6
CONTINUOUS
 62
    7
 10
31.578455764419459
 20
35.579053300832072
 40
0.5
 50
180
 51
270
  0
ARC
  8
_0-0_
  6
CONTINUOUS
 62
    7
 10
40.078455764419459
 20
44.079053300832072
 40
1.5
 50
0
 51
90
  0
ARC
  8
_0-0_
  6
CONTINUOUS
 62
    7
 10
39.296489753169453
 20
31.179053300832095
 40
0.4999999999999997
 50
243.43494882292202
 51
270
  0
ARC
  8
_0-0_
  6
CONTINUOUS
 62
    7
 10
38.47845576441955
 20
31.588070295207046
 40
0.4999999999999997
 50
180
 51
243.434948822922
  0
ARC
  8
_0-0_
  6
CONTINUOUS
 62
    7
 10
37.47845576441955
 20
33.079053300832072
 40
0.4999999999999997
 50
0
 51
90
  0
ARC
  8
_0-0_
  6
CONTINUOUS
 62
    7
 10
32.785562545606126
 20
33.079053300832072
 40
0.4999999999999997
 50
89.999999999999929
 51
135.00000000000006
  0
ARC
  8
_0-0_
  6
CONTINUOUS
 62
    7
 10
32.078455764419459
 20
32.371946519645519
 40
0.4999999999999997
 50
135.00000000000011
 51
180
  0
ARC
  8
_0-0_
  6
CONTINUOUS
 62
    7
 10
41.078455764419459
 20
31.179053300832095
 40
0.4999999999999997
 50
270
 51
359.99999999999977
  0
ARC
  8
_0-0_
  6
CONTINUOUS
 62
    7
 10
2.0784557644194592
 20
31.179053300832095
 40
0.5
 50
180
 51
270
  0
ARC
  8
_0-0_
  6
CONTINUOUS
 62
    7
 10
3.8604217756694652
 20
31.179053300832095
 40
0.5
 50
270
 51
296.56505117707798
  0
ARC
  8
_0-0_
  6
CONTINUOUS
 62
    7
 10
4.6784557644193683
 20
31.588070295207046
 40
0.5
 50
296.56505117707798
 51
0.0000000000000127
  0
ARC
  8
_0-0_
  6
CONTINUOUS
 62
    7
 10
5.6784557644193683
 20
33.079053300832072
 40
0.5
 50
90
 51
180
  0
ARC
  8
_0-0_
  6
CONTINUOUS
 62
    7
 10
10.371348983232792
 20
33.079053300832072
 40
0.5
 50
44.99999999999995
 51
90.000000000000057
  0
ARC
  8
_0-0_
  6
CONTINUOUS
 62
    7
 10
11.078455764419459
 20
32.371946519645519
 40
0.5
 50
0
 51
44.999999999999872
  0
ARC
  8
_0-0_
  6
CONTINUOUS
 62
    7
 10
5.6784557644193683
 20
33.079053300832072
 40
2
 50
90
 51
151.64236342367215
  0
ARC
  8
_0-0_
  6
CONTINUOUS
 62
    7
 10
3.4784557644195502
 20
34.266487509535807
 40
0.5
 50
180
 51
331.64236342367224
  0
ARC
  8
_0-0_
  6
CONTINUOUS
 62
    7
 10
3.4784557644195502
 20
43.679053300832095
 40
0.5
 50
90
 51
180
  0
ARC
  8
_0-0_
  6
CONTINUOUS
 62
    7
 10
11.578455764419459
 20
35.579053300832072
 40
0.5
 50
270
 51
0
  0
ARC
  8
_0-0_
  6
CONTINUOUS
 62
    7
 10
3.0784557644194592
 20
44.079053300832072
 40
1.5
 50
90
 51
180
  0
ARC
  8
_0-0_
  6
CONTINUOUS
 62
    7
 10
15.97845576441955
 20
43.297087289581953
 40
0.4999999999999997
 50
333.43494882292202
 51
0
  0
ARC
  8
_0-0_
  6
CONTINUOUS
 62
    7
 10
15.569438770044371
 20
42.479053300832049
 40
0.4999999999999997
 50
270
 51
333.43494882292202
  0
ARC
  8
_0-0_
  6
CONTINUOUS
 62
    7
 10
14.078455764419459
 20
41.479053300832049
 40
0.4999999999999997
 50
90
 51
180
  0
ARC
  8
_0-0_
  6
CONTINUOUS
 62
    7
 10
14.078455764419459
 20
36.786160082018625
 40
0.4999999999999997
 50
179.99999999999994
 51
225.00000000000006
  0
ARC
  8
_0-0_
  6
CONTINUOUS
 62
    7
 10
14.785562545606126
 20
36.079053300832072
 40
0.4999999999999997
 50
225.00000000000011
 51
270
  0
ARC
  8
_0-0_
  6
CONTINUOUS
 62
    7
 10
15.97845576441955
 20
45.079053300832072
 40
0.4999999999999997
 50
0
 51
89.999999999999801
  0
ARC
  8
_0-0_
  6
CONTINUOUS
 62
    7
 10
15.97845576441955
 20
6.0790533008320722
 40
0.5
 50
270
 51
0
  0
ARC
  8
_0-0_
  6
CONTINUOUS
 62
    7
 10
15.97845576441955
 20
7.8610193120821918
 40
0.5
 50
0
 51
26.565051177077976
  0
ARC
  8
_0-0_
  6
CONTINUOUS
 62
    7
 10
15.569438770044371
 20
8.6790533008320949
 40
0.5
 50
26.565051177077994
 51
90
  0
ARC
  8
_0-0_
  6
CONTINUOUS
 62
    7
 10
14.078455764419459
 20
9.6790533008320949
 40
0.5
 50
180
 51
270
  0
ARC
  8
_0-0_
  6
CONTINUOUS
 62
    7
 10
14.078455764419459
 20
14.371946519645519
 40
0.5
 50
134.99999999999994
 51
180.00000000000006
  0
ARC
  8
_0-0_
  6
CONTINUOUS
 62
    7
 10
14.785562545606126
 20
15.079053300832072
 40
0.5
 50
90
 51
134.99999999999989
  0
ARC
  8
_0-0_
  6
CONTINUOUS
 62
    7
 10
14.078455764419459
 20
9.6790533008320949
 40
2
 50
180
 51
241.64236342367215
  0
ARC
  8
_0-0_
  6
CONTINUOUS
 62
    7
 10
12.891021555715952
 20
7.4790533008320494
 40
0.5
 50
270
 51
61.642363423672187
  0
ARC
  8
_0-0_
  6
CONTINUOUS
 62
    7
 10
3.4784557644195502
 20
7.4790533008320494
 40
0.5
 50
180
 51
270
  0
ARC
  8
_0-0_
  6
CONTINUOUS
 62
    7
 10
11.578455764419459
 20
15.579053300832072
 40
0.5
 50
0
 51
90
  0
ARC
  8
_0-0_
  6
CONTINUOUS
 62
    7
 10
3.0784557644194592
 20
7.0790533008320722
 40
1.5
 50
180
 51
270
  0
ARC
  8
_0-0_
  6
CONTINUOUS
 62
    7
 10
3.8604217756694652
 20
19.979053300832049
 40
0.4999999999999997
 50
63.43494882292201
 51
89.999999999999986
  0
ARC
  8
_0-0_
  6
CONTINUOUS
 62
    7
 10
4.6784557644193683
 20
19.570036306457212
 40
0.4999999999999997
 50
0
 51
63.43494882292201
  0
ARC
  8
_0-0_
  6
CONTINUOUS
 62
    7
 10
5.6784557644193683
 20
18.079053300832072
 40
0.4999999999999997
 50
180
 51
270
  0
ARC
  8
_0-0_
  6
CONTINUOUS
 62
    7
 10
10.371348983232792
 20
18.079053300832072
 40
0.4999999999999997
 50
269.99999999999994
 51
315.00000000000006
  0
ARC
  8
_0-0_
  6
CONTINUOUS
 62
    7
 10
11.078455764419459
 20
18.786160082018625
 40
0.4999999999999997
 50
315.00000000000011
 51
0
  0
ARC
  8
_0-0_
  6
CONTINUOUS
 62
    7
 10
2.0784557644194592
 20
19.979053300832163
 40
0.4999999999999997
 50
90
 51
179.9999999999998
  0
ARC
  8
_0-0_
  6
CONTINUOUS
 62
    7
 10
41.078455764419459
 20
19.979053300832049
 40
0.5
 50
0
 51
90
  0
ARC
  8
_0-0_
  6
CONTINUOUS
 62
    7
 10
39.296489753169453
 20
19.979053300832049
 40
0.5
 50
90
 51
116.56505117707799
  0
ARC
  8
_0-0_
  6
CONTINUOUS
 62
    7
 10
38.47845576441955
 20
19.570036306457098
 40
0.5
 50
116.56505117707802
 51
180
  0
ARC
  8
_0-0_
  6
CONTINUOUS
 62
    7
 10
37.47845576441955
 20
18.079053300832072
 40
0.5
 50
270
 51
0
  0
ARC
  8
_0-0_
  6
CONTINUOUS
 62
    7
 10
32.785562545606126
 20
18.079053300832072
 40
0.5
 50
224.99999999999994
 51
270.00000000000006
  0
ARC
  8
_0-0_
  6
CONTINUOUS
 62
    7
 10
32.078455764419459
 20
18.786160082018625
 40
0.5
 50
180
 51
224.99999999999989
  0
ARC
  8
_0-0_
  6
CONTINUOUS
 62
    7
 10
37.47845576441955
 20
18.079053300832072
 40
2
 50
270
 51
331.64236342367218
  0
ARC
  8
_0-0_
  6
CONTINUOUS
 62
    7
 10
39.678455764419368
 20
16.891619092128337
 40
0.5
 50
0
 51
151.64236342367215
  0
ARC
  8
_0-0_
  6
CONTINUOUS
 62
    7
 10
39.678455764419368
 20
7.4790533008320494
 40
0.5
 50
270
 51
0
  0
ARC
  8
_0-0_
  6
CONTINUOUS
 62
    7
 10
31.578455764419459
 20
15.579053300832072
 40
0.5
 50
90
 51
180
  0
ARC
  8
_0-0_
  6
CONTINUOUS
 62
    7
 10
40.078455764419459
 20
7.0790533008320722
 40
1.5
 50
270
 51
0
  0
ARC
  8
_0-0_
  6
CONTINUOUS
 62
    7
 10
29.078455764419459
 20
9.6790533008320949
 40
0.4999999999999997
 50
270
 51
0
  0
ARC
  8
_0-0_
  6
CONTINUOUS
 62
    7
 10
29.078455764419459
 20
14.371946519645519
 40
0.4999999999999997
 50
0
 51
45.000000000000092
  0
ARC
  8
_0-0_
  6
CONTINUOUS
 62
    7
 10
28.371348983232792
 20
15.079053300832072
 40
0.4999999999999997
 50
45.000000000000149
 51
90.000000000000028
  0
ARC
  8
_0-0_
  6
CONTINUOUS
 62
    7
 10
27.178455764419368
 20
6.0790533008320722
 40
0.4999999999999997
 50
180.00000000000006
 51
269.99999999999983
  0
ARC
  8
_0-0_
  6
CONTINUOUS
 62
    7
 10
13.678455764419368
 20
32.879053300832027
 40
0.5
 50
90
 51
180
  0
ARC
  8
_0-0_
  6
CONTINUOUS
 62
    7
 10
29.47845576441955
 20
32.879053300832027
 40
0.5
 50
0
 51
90
  0
ARC
  8
_0-0_
  6
CONTINUOUS
 62
    7
 10
26.027315063498691
 20
32.879053300832027
 40
0.5
 50
90
 51
173.82982490497039
  0
ARC
  8
_0-0_
  6
CONTINUOUS
 62
    7
 10
24.280737166260906
 20
30.679053300832095
 40
1
 50
270
 51
353.82982490497039
  0
ARC
  8
_0-0_
  6
CONTINUOUS
 62
    7
 10
17.129596465340228
 20
32.879053300832027
 40
0.5
 50
6.1701750950296068
 51
90
  0
ARC
  8
_0-0_
  6
CONTINUOUS
 62
    7
 10
18.876174362578013
 20
30.679053300832095
 40
1
 50
186.17017509502961
 51
270
  0
ARC
  8
_0-0_
  6
CONTINUOUS
 62
    7
 10
13.678455764419368
 20
18.279053300832118
 40
0.5
 50
180
 51
270
  0
ARC
  8
_0-0_
  6
CONTINUOUS
 62
    7
 10
29.47845576441955
 20
18.279053300832118
 40
0.5
 50
270
 51
0
  0
ARC
  8
_0-0_
  6
CONTINUOUS
 62
    7
 10
26.027315063498691
 20
18.279053300832118
 40
0.5
 50
186.17017509502961
 51
270
  0
ARC
  8
_0-0_
  6
CONTINUOUS
 62
    7
 10
24.280737166260906
 20
20.479053300832049
 40
1
 50
6.1701750950296068
 51
90
  0
ARC
  8
_0-0_
  6
CONTINUOUS
 62
    7
 10
17.129596465340228
 20
18.279053300832118
 40
0.5
 50
270
 51
353.82982490497039
  0
ARC
  8
_0-0_
  6
CONTINUOUS
 62
    7
 10
18.876174362578013
 20
20.479053300832049
 40
1
 50
90
 51
173.82982490497039
  0
ARC
  8
_0-0_
  6
CONTINUOUS
 62
    7
 10
27.587472758794547
 20
8.6790533008320949
 40
0.4999999999999997
 50
90
 51
153.43494882292197
  0
ARC
  8
_0-0_
  6
CONTINUOUS
 62
    7
 10
27.178455764419368
 20
7.8610193120821918
 40
0.4999999999999997
 50
153.43494882292191
 51
180
  0
ARC
  8
_0-0_
  6
CONTINUOUS
 62
    7
 10
12.891021555715952
 20
43.679053300832095
 40
0.5
 50
298.35763657632776
 51
90.000000000000057
  0
ARC
  8
_0-0_
  6
CONTINUOUS
 62
    7
 10
14.078455764419459
 20
41.479053300832049
 40
2
 50
118.35763657632783
 51
180
  0
ARC
  8
_0-0_
  6
CONTINUOUS
 62
    7
 10
30.265889973122967
 20
7.4790533008320494
 40
0.5
 50
118.35763657632783
 51
270
  0
ARC
  8
_0-0_
  6
CONTINUOUS
 62
    7
 10
29.078455764419459
 20
9.6790533008320949
 40
2
 50
298.35763657632776
 51
359.99999999999994
  0
ARC
  8
_0-0_
  6
CONTINUOUS
 62
    7
 10
39.678455764419368
 20
34.266487509535807
 40
0.5
 50
208.35763657632785
 51
0
  0
ARC
  8
_0-0_
  6
CONTINUOUS
 62
    7
 10
37.47845576441955
 20
33.079053300832072
 40
2
 50
28.357636576327835
 51
90.000000000000014
  0
ARC
  8
_0-0_
  6
CONTINUOUS
 62
    7
 10
3.4784557644195502
 20
16.891619092128337
 40
0.5
 50
28.357636576327835
 51
180.00000000000009
  0
ARC
  8
_0-0_
  6
CONTINUOUS
 62
    7
 10
5.6784557644193683
 20
18.079053300832072
 40
2
 50
208.35763657632785
 51
270
  0
ARC
  8
_0-0_
  6
CONTINUOUS
 62
    7
 10
19.885635441390832
 20
30.179053300831868
 40
0.5
 50
270
 51
299.99999999998965
  0
ARC
  8
_0-0_
  6
CONTINUOUS
 62
    7
 10
21.578455764419004
 20
21.156403570021496
 40
0.5
 50
240.00000000001052
 51
300.00000000000443
  0
ARC
  8
_0-0_
  6
CONTINUOUS
 62
    7
 10
23.271276087446722
 20
30.179053300831868
 40
0.5
 50
239.99999999999616
 51
270
  0
ARC
  8
_0-0_
  6
CONTINUOUS
 62
    7
 10
19.885635441390832
 20
20.979053300832163
 40
0.5
 50
60.000000000010338
 51
90
  0
ARC
  8
_0-0_
  6
CONTINUOUS
 62
    7
 10
23.271276087446722
 20
20.979053300832163
 40
0.5
 50
90
 51
120.00000000000388
  0
ARC
  8
_0-0_
  6
CONTINUOUS
 62
    7
 10
21.578455764419004
 20
30.001703031642535
 40
0.5
 50
59.999999999995552
 51
119.99999999998978
  0
ARC
  8
_0-0_
  6
CONTINUOUS
 62
    7
 10
21.578455764419459
 20
15.429053129980673
 40
0.3000000099360252
 50
60.000000000000007
 51
119.7944152145987
  0
ARC
  8
_0-0_
  6
CONTINUOUS
 62
    7
 10
21.157881355258496
 20
15.87904813405288
 40
0.3000000099360252
 50
270.33659275002731
 51
300.00003051757812
  0
LINE
  8
_0-1_
  6
CENTER1
 62
  152
 10
41.578455764419459
 20
25.579053300832072
 11
1.5784557644194592
 21
25.579053300832072
  0
LINE
  8
_0-1_
  6
CENTER1
 62
  152
 10
21.578455764419459
 20
5.5790533008321859
 11
21.578455764419459
 21
45.579053300832072
  0
ENDSEC
  0
EOF
