  0
SECTION
  2
HEADER
  9
$ACADVER
  1
AC1009
  9
$INSBASE
 10
0
 20
0
 30
0
  9
$EXTMIN
 10
0
 20
0
  9
$EXTMAX
 10
1189
 20
841
  9
$LIMMIN
 10
0
 20
0
  9
$LIMMAX
 10
1189
 20
841
  9
$LTSCALE
 40
1
  0
ENDSEC
  0
SECTION
  2
TABLES
  0
TABLE
  2
LTYPE
 70
     9
  0
LTYPE
  2
CONTINUOUS
 70
    64
  3
実線
 72
    65
 73
     0
 40
0.0
  0
LTYPE
  2
DASHED1
 70
    64
  3
--  --  --  --  --  --  --  --  
 72
    65
 73
     2
 40
2.5
 49
1.25
 49
-1.25
  0
LTYPE
  2
DASHED2
 70
    64
  3
----    ----    ----    ----    
 72
    65
 73
     2
 40
5.0
 49
2.5
 49
-2.5
  0
LTYPE
  2
DASHED3
 70
    64
  3
------  ------  ------  ------  
 72
    65
 73
     2
 40
5.0
 49
3.75
 49
-1.25
  0
LTYPE
  2
CENTER1
 70
    64
  3
----- - ----- - ----- - ----- - 
 72
    65
 73
     4
 40
10.0
 49
6.25
 49
-1.25
 49
1.25
 49
-1.25
  0
LTYPE
  2
CENTER2
 70
    64
  3
----------  --  ----------  --  
 72
    65
 73
     4
 40
20.0
 49
12.5
 49
-2.5
 49
2.5
 49
-2.5
  0
LTYPE
  2
PHANTOM1
 70
    64
  3
--- - - --- - - --- - - --- - - 
 72
    65
 73
     6
 40
10.0
 49
3.25
 49
-1.25
 49
1.25
 49
-1.25
 49
1.25
 49
-1.25
  0
LTYPE
  2
PHANTOM2
 70
    64
  3
--------  -  -  --------  -  -  
 72
    65
 73
     6
 40
20.0
 49
10.0
 49
-2.5
 49
1.25
 49
-2.5
 49
1.25
 49
-2.5
  0
LTYPE
  2
DOT
 70
    64
  3
-   -   -   -   -   -   -   -   
 72
    65
 73
     2
 40
2.5
 49
0.625
 49
-1.875
  0
LTYPE
  2
DUMMY
 70
    64
  3
ダミー
 72
    65
 73
     0
 40
0.0
  0
LTYPE
  2
RAND1
 70
    64
  3
ランダム線1
 72
    65
 73
     4
 40
10.0
 49
1.0
 49
-2.0
 49
3.0
 49
-4.0
  0
LTYPE
  2
RAND2
 70
    64
  3
ランダム線2
 72
    65
 73
     4
 40
14.0
 49
2.0
 49
-3.0
 49
4.0
 49
-5.0
  0
LTYPE
  2
RAND3
 70
    64
  3
ランダム線3
 72
    65
 73
     4
 40
18.0
 49
3.0
 49
-4.0
 49
5.0
 49
-6.0
  0
LTYPE
  2
RAND4
 70
    64
  3
ランダム線4
 72
    65
 73
     4
 40
22.0
 49
4.0
 49
-5.0
 49
6.0
 49
-7.0
  0
LTYPE
  2
RAND5
 70
    64
  3
ランダム線5
 72
    65
 73
     4
 40
26.0
 49
5.0
 49
-6.0
 49
7.0
 49
-8.0
  0
LTYPE
  2
LONG1
 70
    64
  3
----------  --  ----------  --  
 72
    65
 73
     4
 40
40.0
 49
32.5
 49
-2.5
 49
2.5
 49
-2.5
  0
LTYPE
  2
LONG2
 70
    64
  3
--------  -  -  --------  -  -  
 72
    65
 73
     6
 40
40.0
 49
30.0
 49
-2.5
 49
1.25
 49
-2.5
 49
1.25
 49
-2.5
  0
LTYPE
  2
LONG3
 70
    64
  3
+++++++++++++++..+++++++++++++++
 72
    65
 73
     2
 40
40.0
 49
37.5
 49
-2.5
  0
LTYPE
  2
LONG4
 70
    64
  3
+++++++++++++++..+++++++++++++++
 72
    65
 73
     2
 40
80.0
 49
75.0
 49
-5.0
  0
LTYPE
  2
LONG5
 70
    64
  3
----------  --  ----------  --  
 72
    65
 73
     4
 40
60.0
 49
37.5
 49
-7.5
 49
7.5
 49
-7.5
  0
LTYPE
  2
dashed
 70
   64
  3
-------   -------------   ------
 72
   65
 73
    2
 40
7.5
 49
6
 49
-1.5
  0
LTYPE
  2
dashed_spaced
 70
   64
  3
----        --------        ----
 72
   65
 73
    2
 40
12
 49
6
 49
-6
  0
LTYPE
  2
long_dashed_dotted
 70
   64
  3
------------- --- --------------
 72
   65
 73
    4
 40
15.25
 49
12
 49
-1.5
 49
0.25
 49
-1.5
  0
LTYPE
  2
long_dashed_double-dotted
 70
   64
  3
----------- --- --- ------------
 72
   65
 73
    6
 40
17
 49
12
 49
-1.5
 49
0.25
 49
-1.5
 49
0.25
 49
-1.5
  0
LTYPE
  2
long_dashed_triplicate-dotted
 70
   64
  3
--------- --- --- --- ----------
 72
   65
 73
    8
 40
18.75
 49
12
 49
-1.5
 49
0.25
 49
-1.5
 49
0.25
 49
-1.5
 49
0.25
 49
-1.5
  0
LTYPE
  2
dotted
 70
   64
  3
   -       -       -       -    
 72
   65
 73
    2
 40
1.75
 49
0.25
 49
-1.5
  0
LTYPE
  2
chain
 70
   64
  3
-------------- -- --------------
 72
   65
 73
    4
 40
18.5
 49
12
 49
-1.5
 49
3.5
 49
-1.5
  0
LTYPE
  2
chain_double_dash
 70
   64
  3
------------ -- -- -------------
 72
   65
 73
    6
 40
23.5
 49
12
 49
-1.5
 49
3.5
 49
-1.5
 49
3.5
 49
-1.5
  0
LTYPE
  2
dashed_dotted
 70
   64
  3
-----------     -     ----------
 72
   65
 73
    4
 40
9.25
 49
6
 49
-1.5
 49
0.25
 49
-1.5
  0
LTYPE
  2
double-dashed_dotted
 70
   64
  3
------   -----------   -   -----
 72
   65
 73
    6
 40
16.75
 49
6
 49
-1.5
 49
6
 49
-1.5
 49
0.25
 49
-1.5
  0
LTYPE
  2
dashed_double-dotted
 70
   64
  3
---------    -    -    ---------
 72
   65
 73
    6
 40
11
 49
6
 49
-1.5
 49
0.25
 49
-1.5
 49
0.25
 49
-1.5
  0
LTYPE
  2
double-dashed_double-dotted
 70
   64
  3
-----   ---------   -   -   ----
 72
   65
 73
    8
 40
18.5
 49
6
 49
-1.5
 49
6
 49
-1.5
 49
0.25
 49
-1.5
 49
0.25
 49
-1.5
  0
LTYPE
  2
dashed_triplicate-dotted
 70
   64
  3
-------    -    -    -    ------
 72
   65
 73
    8
 40
12.75
 49
6
 49
-1.5
 49
0.25
 49
-1.5
 49
0.25
 49
-1.5
 49
0.25
 49
-1.5
  0
LTYPE
  2
double-dashed_triplicate-dotted
 70
   64
  3
-----  ---------  -  -  -  -----
 72
   65
 73
   10
 40
20.25
 49
6
 49
-1.5
 49
6
 49
-1.5
 49
0.25
 49
-1.5
 49
0.25
 49
-1.5
 49
0.25
 49
-1.5
  0
LTYPE
  2
undefined
 70
   64
  3
--------------------------------
 72
   65
 73
    0
 40
0
  0
ENDTAB
  0
TABLE
  2
STYLE
  5
3
100
AcDbSymbolTable
 70
     1
  0
STYLE
  5
10
100
AcDbSymbolTableRecord
100
AcDbTextStyleTableRecord
  2
STANDARD
 70
     0
 40
0.0
 41
1.0
 50
0.0
 71
     0
 42
0.2
  3
txt
  4
bigfont.shx
  0
STYLE
  5
26
100
AcDbSymbolTableRecord
100
AcDbTextStyleTableRecord
  2
TATEGAKI
 70
    68
 40
0.0
 41
1.0
 50
0.0
 71
     0
 42
1.0
  3
txt
  4
bigfont.shx
  0
ENDTAB
  0
TABLE
  2
LAYER
 70
    4
  0
LAYER
  2
_0-0_
 70
   64
 62
    7
  6
CONTINUOUS
  0
LAYER
  2
_0-1_
 70
   64
 62
    7
  6
CONTINUOUS
  0
LAYER
  2
_0-f_
 70
   64
 62
    7
  6
CONTINUOUS
  0
LAYER
  2
ADD_LINE
 70
   64
 62
    7
  6
CONTINUOUS
  0
ENDTAB
  0
ENDSEC
  0
SECTION
  2
BLOCKS
  0
ENDSEC
  0
SECTION
  2
ENTITIES
  0
TEXT
  8
_0-f_
 62
    7
 10
0.7506978938756674
 20
0.7688170585877287
 40
4.2999999999999998
 41
0.744186046511628
 50
0
  1
F44E
  0
LINE
  8
_0-0_
  6
CONTINUOUS
 62
    7
 10
1.6667221039559763
 20
23.178798563065357
 11
1.6667221039559763
 21
31.978798563065538
  0
LINE
  8
_0-0_
  6
CONTINUOUS
 62
    7
 10
2.1667221039559763
 20
32.478798563065538
 11
3.9486881152059823
 21
32.478798563065538
  0
LINE
  8
_0-0_
  6
CONTINUOUS
 62
    7
 10
4.1722949129560902
 20
32.4260121585653
 11
4.9903289017059933
 21
32.016995164190575
  0
LINE
  8
_0-0_
  6
CONTINUOUS
 62
    7
 10
5.2667221039558854
 20
31.56978156869036
 11
5.2667221039558854
 21
30.078798563065448
  0
LINE
  8
_0-0_
  6
CONTINUOUS
 62
    7
 10
5.7667221039558854
 20
29.578798563065448
 11
9.4596153227693094
 21
29.578798563065448
  0
LINE
  8
_0-0_
  6
CONTINUOUS
 62
    7
 10
9.8131687133626428
 20
29.725245172472114
 11
11.52027549454931
 21
31.432351953658781
  0
LINE
  8
_0-0_
  6
CONTINUOUS
 62
    7
 10
11.666722103955976
 20
31.785905344252114
 11
11.666722103955976
 21
43.371691781878781
  0
LINE
  8
_0-0_
  6
CONTINUOUS
 62
    7
 10
11.52027549454931
 20
43.725245172472114
 11
9.8131687133626428
 21
45.432351953658781
  0
LINE
  8
_0-0_
  6
CONTINUOUS
 62
    7
 10
9.4596153227693094
 20
45.578798563065448
 11
5.7667221039558854
 21
45.578798563065448
  0
LINE
  8
_0-0_
  6
CONTINUOUS
 62
    7
 10
5.2667221039558854
 20
45.078798563065448
 11
5.2667221039558854
 21
43.587815557440535
  0
LINE
  8
_0-0_
  6
CONTINUOUS
 62
    7
 10
4.9903289017059933
 20
43.14060196194032
 11
4.1722949129560902
 21
42.731584967565595
  0
LINE
  8
_0-0_
  6
CONTINUOUS
 62
    7
 10
3.9486881152059823
 20
42.678798563065357
 11
2.1667221039559763
 21
42.678798563065357
  0
LINE
  8
_0-0_
  6
CONTINUOUS
 62
    7
 10
1.6667221039559763
 20
43.178798563065357
 11
1.6667221039559763
 21
46.078798563065448
  0
LINE
  8
_0-0_
  6
CONTINUOUS
 62
    7
 10
3.1667221039559763
 20
47.578798563065448
 11
16.066722103956067
 21
47.578798563065448
  0
LINE
  8
_0-0_
  6
CONTINUOUS
 62
    7
 10
16.566722103956067
 20
47.078798563065448
 11
16.566722103956067
 21
45.296832551815442
  0
LINE
  8
_0-0_
  6
CONTINUOUS
 62
    7
 10
16.513935699455828
 20
45.073225754065334
 11
16.104918705081104
 21
44.255191765315431
  0
LINE
  8
_0-0_
  6
CONTINUOUS
 62
    7
 10
15.657705109580888
 20
43.978798563065538
 11
14.166722103955976
 21
43.978798563065538
  0
LINE
  8
_0-0_
  6
CONTINUOUS
 62
    7
 10
13.666722103955976
 20
43.478798563065538
 11
13.666722103955976
 21
39.785905344252114
  0
LINE
  8
_0-0_
  6
CONTINUOUS
 62
    7
 10
13.813168713362643
 20
39.432351953658781
 11
15.52027549454931
 21
37.725245172472114
  0
LINE
  8
_0-0_
  6
CONTINUOUS
 62
    7
 10
15.873828885142643
 20
37.578798563065448
 11
21.0974832884134
 21
37.578798563065448
  0
LINE
  8
_0-0_
  6
CONTINUOUS
 62
    7
 10
21.451036679006734
 20
37.432351953658781
 11
21.560656086778067
 21
37.322732545887447
  0
LINE
  8
_0-0_
  6
CONTINUOUS
 62
    7
 10
21.772788121133885
 20
37.322732545887447
 11
21.882407528905219
 21
37.432351953658781
  0
LINE
  8
_0-0_
  6
CONTINUOUS
 62
    7
 10
22.235960919498552
 20
37.578798563065448
 11
27.459615322769309
 21
37.578798563065448
  0
LINE
  8
_0-0_
  6
CONTINUOUS
 62
    7
 10
27.813168713362643
 20
37.725245172472114
 11
29.52027549454931
 21
39.432351953658781
  0
LINE
  8
_0-0_
  6
CONTINUOUS
 62
    7
 10
29.666722103955976
 20
39.785905344252114
 11
29.666722103955976
 21
43.478798563065538
  0
LINE
  8
_0-0_
  6
CONTINUOUS
 62
    7
 10
29.166722103955976
 20
43.978798563065538
 11
27.67573909833061
 21
43.978798563065538
  0
LINE
  8
_0-0_
  6
CONTINUOUS
 62
    7
 10
27.228525502830848
 20
44.255191765315431
 11
26.819508508456124
 21
45.073225754065334
  0
LINE
  8
_0-0_
  6
CONTINUOUS
 62
    7
 10
26.766722103955885
 20
45.296832551815442
 11
26.766722103955885
 21
47.078798563065448
  0
LINE
  8
_0-0_
  6
CONTINUOUS
 62
    7
 10
27.266722103955885
 20
47.578798563065448
 11
40.166722103955863
 21
47.578798563065448
  0
LINE
  8
_0-0_
  6
CONTINUOUS
 62
    7
 10
41.666722103955863
 20
46.078798563065448
 11
41.666722103955863
 21
33.178798563065357
  0
LINE
  8
_0-0_
  6
CONTINUOUS
 62
    7
 10
41.166722103955863
 20
32.678798563065357
 11
39.384756092705857
 21
32.678798563065357
  0
LINE
  8
_0-0_
  6
CONTINUOUS
 62
    7
 10
39.161149294955749
 20
32.731584967565595
 11
38.343115306205846
 21
33.14060196194032
  0
LINE
  8
_0-0_
  6
CONTINUOUS
 62
    7
 10
38.066722103955954
 20
33.587815557440535
 11
38.066722103955954
 21
35.078798563065448
  0
LINE
  8
_0-0_
  6
CONTINUOUS
 62
    7
 10
37.566722103955954
 20
35.578798563065448
 11
33.87382888514253
 21
35.578798563065448
  0
LINE
  8
_0-0_
  6
CONTINUOUS
 62
    7
 10
33.520275494549196
 20
35.432351953658781
 11
31.813168713362643
 21
33.725245172472114
  0
LINE
  8
_0-0_
  6
CONTINUOUS
 62
    7
 10
31.666722103955976
 20
33.371691781878781
 11
31.666722103955976
 21
21.785905344252114
  0
LINE
  8
_0-0_
  6
CONTINUOUS
 62
    7
 10
31.813168713362643
 20
21.432351953658781
 11
33.520275494549196
 21
19.725245172472114
  0
LINE
  8
_0-0_
  6
CONTINUOUS
 62
    7
 10
33.873828885142075
 20
19.578798563065448
 11
37.566722103955954
 21
19.578798563065448
  0
LINE
  8
_0-0_
  6
CONTINUOUS
 62
    7
 10
38.066722103955954
 20
20.078798563065448
 11
38.066722103955954
 21
21.56978156869036
  0
LINE
  8
_0-0_
  6
CONTINUOUS
 62
    7
 10
38.343115306205846
 20
22.016995164190575
 11
39.161149294955749
 21
22.4260121585653
  0
LINE
  8
_0-0_
  6
CONTINUOUS
 62
    7
 10
39.384756092705402
 20
22.478798563065538
 11
41.166722103955863
 21
22.478798563065538
  0
LINE
  8
_0-0_
  6
CONTINUOUS
 62
    7
 10
41.666722103955863
 20
21.978798563065538
 11
41.666722103955863
 21
9.0787985630654475
  0
LINE
  8
_0-0_
  6
CONTINUOUS
 62
    7
 10
40.166722103955863
 20
7.5787985630654475
 11
27.266722103955885
 21
7.5787985630654475
  0
LINE
  8
_0-0_
  6
CONTINUOUS
 62
    7
 10
26.766722103955885
 20
8.0787985630654475
 11
26.766722103955885
 21
9.8607645743154535
  0
LINE
  8
_0-0_
  6
CONTINUOUS
 62
    7
 10
26.819508508455669
 20
10.084371372065561
 11
27.228525502830848
 21
10.902405360815465
  0
LINE
  8
_0-0_
  6
CONTINUOUS
 62
    7
 10
27.67573909833061
 20
11.178798563065357
 11
29.166722103955976
 21
11.178798563065357
  0
LINE
  8
_0-0_
  6
CONTINUOUS
 62
    7
 10
29.666722103955976
 20
11.678798563065357
 11
29.666722103955976
 21
15.371691781878781
  0
LINE
  8
_0-0_
  6
CONTINUOUS
 62
    7
 10
29.52027549454931
 20
15.725245172472114
 11
27.813168713362643
 21
17.432351953658781
  0
LINE
  8
_0-0_
  6
CONTINUOUS
 62
    7
 10
27.459615322769309
 20
17.578798563065448
 11
22.235960919498552
 21
17.578798563065448
  0
LINE
  8
_0-0_
  6
CONTINUOUS
 62
    7
 10
21.882407528905219
 20
17.725245172472114
 11
21.772788121133885
 21
17.834864580243448
  0
LINE
  8
_0-0_
  6
CONTINUOUS
 62
    7
 10
21.560656086778067
 20
17.834864580243448
 11
21.451036679006734
 21
17.725245172472114
  0
LINE
  8
_0-0_
  6
CONTINUOUS
 62
    7
 10
21.0974832884134
 20
17.578798563065448
 11
15.873828885142188
 21
17.578798563065448
  0
LINE
  8
_0-0_
  6
CONTINUOUS
 62
    7
 10
15.52027549454931
 20
17.432351953658781
 11
13.813168713362643
 21
15.725245172472114
  0
LINE
  8
_0-0_
  6
CONTINUOUS
 62
    7
 10
13.666722103955976
 20
15.371691781878781
 11
13.666722103955976
 21
11.678798563065357
  0
LINE
  8
_0-0_
  6
CONTINUOUS
 62
    7
 10
14.166722103955976
 20
11.178798563065357
 11
15.657705109580888
 21
11.178798563065357
  0
LINE
  8
_0-0_
  6
CONTINUOUS
 62
    7
 10
16.104918705080649
 20
10.902405360815465
 11
16.513935699455828
 21
10.084371372065561
  0
LINE
  8
_0-0_
  6
CONTINUOUS
 62
    7
 10
16.566722103956067
 20
9.8607645743154535
 11
16.566722103956067
 21
8.0787985630654475
  0
LINE
  8
_0-0_
  6
CONTINUOUS
 62
    7
 10
16.066722103956067
 20
7.5787985630654475
 11
3.1667221039559763
 21
7.5787985630654475
  0
LINE
  8
_0-0_
  6
CONTINUOUS
 62
    7
 10
1.6667221039559763
 20
9.0787985630654475
 11
1.6667221039559763
 21
11.978798563065538
  0
LINE
  8
_0-0_
  6
CONTINUOUS
 62
    7
 10
2.1667221039559763
 20
12.478798563065538
 11
3.9486881152059823
 21
12.478798563065538
  0
LINE
  8
_0-0_
  6
CONTINUOUS
 62
    7
 10
4.1722949129560902
 20
12.4260121585653
 11
4.9903289017059933
 21
12.016995164190575
  0
LINE
  8
_0-0_
  6
CONTINUOUS
 62
    7
 10
5.2667221039558854
 20
11.56978156869036
 11
5.2667221039558854
 21
10.078798563065448
  0
LINE
  8
_0-0_
  6
CONTINUOUS
 62
    7
 10
5.7667221039558854
 20
9.5787985630654475
 11
9.4596153227693094
 21
9.5787985630654475
  0
LINE
  8
_0-0_
  6
CONTINUOUS
 62
    7
 10
9.8131687133626428
 20
9.7252451724721141
 11
11.52027549454931
 21
11.432351953658781
  0
LINE
  8
_0-0_
  6
CONTINUOUS
 62
    7
 10
11.666722103955976
 20
11.785905344252114
 11
11.666722103955976
 21
23.371691781878781
  0
LINE
  8
_0-0_
  6
CONTINUOUS
 62
    7
 10
11.52027549454931
 20
23.725245172472114
 11
9.8131687133626428
 21
25.432351953658781
  0
LINE
  8
_0-0_
  6
CONTINUOUS
 62
    7
 10
9.4596153227693094
 20
25.578798563065448
 11
5.7667221039558854
 21
25.578798563065448
  0
LINE
  8
_0-0_
  6
CONTINUOUS
 62
    7
 10
5.2667221039558854
 20
25.078798563065448
 11
5.2667221039558854
 21
23.587815557440535
  0
LINE
  8
_0-0_
  6
CONTINUOUS
 62
    7
 10
4.9903289017059933
 20
23.14060196194032
 11
4.1722949129560902
 21
22.731584967565595
  0
LINE
  8
_0-0_
  6
CONTINUOUS
 62
    7
 10
3.9486881152059823
 20
22.678798563065357
 11
2.1667221039559763
 21
22.678798563065357
  0
LINE
  8
_0-0_
  6
CONTINUOUS
 62
    7
 10
29.566722103956067
 20
20.578798563065448
 11
29.566722103956067
 21
34.578798563065448
  0
LINE
  8
_0-0_
  6
CONTINUOUS
 62
    7
 10
29.066722103956067
 20
35.078798563065448
 11
27.91838815379549
 21
35.078798563065448
  0
LINE
  8
_0-0_
  6
CONTINUOUS
 62
    7
 10
27.485375451902996
 20
34.828798563065448
 11
25.811059671253474
 21
31.928798563065357
  0
LINE
  8
_0-0_
  6
CONTINUOUS
 62
    7
 10
25.37804696936098
 20
31.678798563065357
 11
17.955397238550518
 21
31.678798563065357
  0
LINE
  8
_0-0_
  6
CONTINUOUS
 62
    7
 10
17.522384536658478
 20
31.928798563065357
 11
15.848068756008502
 21
34.828798563065448
  0
LINE
  8
_0-0_
  6
CONTINUOUS
 62
    7
 10
15.415056054116462
 20
35.078798563065448
 11
14.266722103955885
 21
35.078798563065448
  0
LINE
  8
_0-0_
  6
CONTINUOUS
 62
    7
 10
13.766722103955885
 20
34.578798563065448
 11
13.766722103955885
 21
20.578798563065448
  0
LINE
  8
_0-0_
  6
CONTINUOUS
 62
    7
 10
14.266722103955885
 20
20.078798563065448
 11
15.415056054116462
 21
20.078798563065448
  0
LINE
  8
_0-0_
  6
CONTINUOUS
 62
    7
 10
15.848068756008502
 20
20.328798563065448
 11
17.522384536658478
 21
23.228798563065538
  0
LINE
  8
_0-0_
  6
CONTINUOUS
 62
    7
 10
17.955397238550518
 20
23.478798563065538
 11
25.37804696936098
 21
23.478798563065538
  0
LINE
  8
_0-0_
  6
CONTINUOUS
 62
    7
 10
25.811059671253474
 20
23.228798563065538
 11
27.485375451902996
 21
20.328798563065448
  0
LINE
  8
_0-0_
  6
CONTINUOUS
 62
    7
 10
27.91838815379549
 20
20.078798563065448
 11
29.066722103956067
 21
20.078798563065448
  0
CIRCLE
  8
_0-0_
  6
CONTINUOUS
 62
    7
 10
35.666722103955863
 20
13.578798563065448
 40
4.0999999999999996
  0
ARC
  8
_0-0_
  6
CONTINUOUS
 62
    7
 10
21.666722103955976
 20
17.728798563065538
 40
0.1499999999999999
 50
44.999999999996184
 51
89.999999999999972
  0
ARC
  8
_0-0_
  6
CONTINUOUS
 62
    7
 10
22.235960919498552
 20
18.078798563065448
 40
0.5
 50
225.00000000000219
 51
269.99999999999994
  0
ARC
  8
_0-0_
  6
CONTINUOUS
 62
    7
 10
27.266722103955885
 20
8.0787985630654475
 40
0.5
 50
180
 51
270
  0
ARC
  8
_0-0_
  6
CONTINUOUS
 62
    7
 10
27.266722103955885
 20
9.8607645743154535
 40
0.5
 50
153.43494882292222
 51
180
  0
ARC
  8
_0-0_
  6
CONTINUOUS
 62
    7
 10
27.67573909833061
 20
10.678798563065357
 40
0.5
 50
90
 51
153.43494882292217
  0
ARC
  8
_0-0_
  6
CONTINUOUS
 62
    7
 10
29.166722103955976
 20
11.678798563065357
 40
0.5
 50
270
 51
0
  0
ARC
  8
_0-0_
  6
CONTINUOUS
 62
    7
 10
29.166722103955976
 20
15.371691781878781
 40
0.5
 50
0
 51
44.999999999999943
  0
ARC
  8
_0-0_
  6
CONTINUOUS
 62
    7
 10
27.459615322769309
 20
17.078798563065448
 40
0.5
 50
44.99999999999995
 51
89.999999999999943
  0
ARC
  8
_0-0_
  6
CONTINUOUS
 62
    7
 10
40.166722103955863
 20
9.0787985630654475
 40
1.5
 50
270
 51
0
  0
ARC
  8
_0-0_
  6
CONTINUOUS
 62
    7
 10
21.666722103955976
 20
17.728798563065538
 40
0.1499999999999999
 50
90
 51
135.00000000000381
  0
ARC
  8
_0-0_
  6
CONTINUOUS
 62
    7
 10
21.0974832884134
 20
18.078798563065448
 40
0.5
 50
270.00000000000006
 51
314.99999999999784
  0
ARC
  8
_0-0_
  6
CONTINUOUS
 62
    7
 10
16.066722103956067
 20
8.0787985630654475
 40
0.5
 50
270
 51
0
  0
ARC
  8
_0-0_
  6
CONTINUOUS
 62
    7
 10
16.066722103956067
 20
9.8607645743154535
 40
0.5
 50
0
 51
26.565051177077809
  0
ARC
  8
_0-0_
  6
CONTINUOUS
 62
    7
 10
15.657705109580888
 20
10.678798563065357
 40
0.5
 50
26.565051177077894
 51
90.000000000000085
  0
ARC
  8
_0-0_
  6
CONTINUOUS
 62
    7
 10
14.166722103955976
 20
11.678798563065357
 40
0.5
 50
180
 51
270
  0
ARC
  8
_0-0_
  6
CONTINUOUS
 62
    7
 10
14.166722103955976
 20
15.371691781878781
 40
0.5
 50
135.00000000000006
 51
180
  0
ARC
  8
_0-0_
  6
CONTINUOUS
 62
    7
 10
15.873828885142188
 20
17.078798563065448
 40
0.5
 50
90.000000000000057
 51
135.00000000000006
  0
ARC
  8
_0-0_
  6
CONTINUOUS
 62
    7
 10
3.1667221039559763
 20
9.0787985630654475
 40
1.5
 50
180.00000000000006
 51
270
  0
ARC
  8
_0-0_
  6
CONTINUOUS
 62
    7
 10
2.1667221039559763
 20
11.978798563065538
 40
0.5
 50
90
 51
180
  0
ARC
  8
_0-0_
  6
CONTINUOUS
 62
    7
 10
3.9486881152059823
 20
11.978798563065538
 40
0.5
 50
63.434948822922209
 51
90.000000000000028
  0
ARC
  8
_0-0_
  6
CONTINUOUS
 62
    7
 10
4.7667221039558854
 20
11.56978156869036
 40
0.5
 50
0
 51
63.434948822922145
  0
ARC
  8
_0-0_
  6
CONTINUOUS
 62
    7
 10
5.7667221039558854
 20
10.078798563065448
 40
0.5
 50
180
 51
270
  0
ARC
  8
_0-0_
  6
CONTINUOUS
 62
    7
 10
9.4596153227693094
 20
10.078798563065448
 40
0.5
 50
270
 51
314.99999999999994
  0
ARC
  8
_0-0_
  6
CONTINUOUS
 62
    7
 10
11.166722103955976
 20
11.785905344252114
 40
0.5
 50
314.99999999999994
 51
359.99999999999994
  0
ARC
  8
_0-0_
  6
CONTINUOUS
 62
    7
 10
2.1667221039559763
 20
23.178798563065357
 40
0.5
 50
180
 51
270
  0
ARC
  8
_0-0_
  6
CONTINUOUS
 62
    7
 10
3.9486881152059823
 20
23.178798563065357
 40
0.5
 50
270
 51
296.56505117707781
  0
ARC
  8
_0-0_
  6
CONTINUOUS
 62
    7
 10
4.7667221039558854
 20
23.587815557440535
 40
0.5
 50
296.56505117707786
 51
0.0000000000000381
  0
ARC
  8
_0-0_
  6
CONTINUOUS
 62
    7
 10
5.7667221039558854
 20
25.078798563065448
 40
0.5
 50
90
 51
180
  0
ARC
  8
_0-0_
  6
CONTINUOUS
 62
    7
 10
9.4596153227693094
 20
25.078798563065448
 40
0.5
 50
45.00000000000005
 51
90
  0
ARC
  8
_0-0_
  6
CONTINUOUS
 62
    7
 10
11.166722103955976
 20
23.371691781878781
 40
0.5
 50
0.0000000000000508
 51
45.00000000000005
  0
ARC
  8
_0-0_
  6
CONTINUOUS
 62
    7
 10
41.166722103955863
 20
33.178798563065357
 40
0.5
 50
270
 51
0
  0
ARC
  8
_0-0_
  6
CONTINUOUS
 62
    7
 10
39.384756092705857
 20
33.178798563065357
 40
0.5
 50
243.43494882292225
 51
270.00000000000006
  0
ARC
  8
_0-0_
  6
CONTINUOUS
 62
    7
 10
38.566722103955954
 20
33.587815557440535
 40
0.5
 50
180
 51
243.43494882292217
  0
ARC
  8
_0-0_
  6
CONTINUOUS
 62
    7
 10
37.566722103955954
 20
35.078798563065448
 40
0.5
 50
0
 51
90
  0
ARC
  8
_0-0_
  6
CONTINUOUS
 62
    7
 10
33.87382888514253
 20
35.078798563065448
 40
0.5
 50
90
 51
134.99999999999994
  0
ARC
  8
_0-0_
  6
CONTINUOUS
 62
    7
 10
32.166722103955976
 20
33.371691781878781
 40
0.5
 50
134.99999999999994
 51
179.99999999999994
  0
ARC
  8
_0-0_
  6
CONTINUOUS
 62
    7
 10
41.166722103955863
 20
21.978798563065538
 40
0.5
 50
0
 51
90
  0
ARC
  8
_0-0_
  6
CONTINUOUS
 62
    7
 10
39.384756092705402
 20
21.978798563065538
 40
0.5
 50
90
 51
116.56505117707779
  0
ARC
  8
_0-0_
  6
CONTINUOUS
 62
    7
 10
38.566722103955954
 20
21.56978156869036
 40
0.5
 50
116.56505117707783
 51
180
  0
ARC
  8
_0-0_
  6
CONTINUOUS
 62
    7
 10
37.566722103955954
 20
20.078798563065448
 40
0.5
 50
270
 51
0
  0
ARC
  8
_0-0_
  6
CONTINUOUS
 62
    7
 10
33.873828885142075
 20
20.078798563065448
 40
0.5
 50
225.00000000000006
 51
270
  0
ARC
  8
_0-0_
  6
CONTINUOUS
 62
    7
 10
32.166722103955976
 20
21.785905344252114
 40
0.5
 50
180.00000000000006
 51
225.00000000000006
  0
CIRCLE
  8
_0-0_
  6
CONTINUOUS
 62
    7
 10
35.666722103955863
 20
41.578798563065448
 40
4.0999999999999996
  0
ARC
  8
_0-0_
  6
CONTINUOUS
 62
    7
 10
21.666722103955976
 20
37.428798563065357
 40
0.1499999999999999
 50
270
 51
315.00000000000381
  0
ARC
  8
_0-0_
  6
CONTINUOUS
 62
    7
 10
22.235960919498552
 20
37.078798563065448
 40
0.5
 50
90.000000000000028
 51
134.99999999999781
  0
ARC
  8
_0-0_
  6
CONTINUOUS
 62
    7
 10
27.266722103955885
 20
47.078798563065448
 40
0.5
 50
90
 51
180
  0
ARC
  8
_0-0_
  6
CONTINUOUS
 62
    7
 10
27.266722103955885
 20
45.296832551815442
 40
0.5
 50
180
 51
206.56505117707778
  0
ARC
  8
_0-0_
  6
CONTINUOUS
 62
    7
 10
27.67573909833061
 20
44.478798563065538
 40
0.5
 50
206.56505117707783
 51
270
  0
ARC
  8
_0-0_
  6
CONTINUOUS
 62
    7
 10
29.166722103955976
 20
43.478798563065538
 40
0.5
 50
0
 51
90
  0
ARC
  8
_0-0_
  6
CONTINUOUS
 62
    7
 10
29.166722103955976
 20
39.785905344252114
 40
0.5
 50
315.00000000000006
 51
0
  0
ARC
  8
_0-0_
  6
CONTINUOUS
 62
    7
 10
27.459615322769309
 20
38.078798563065448
 40
0.5
 50
270.00000000000006
 51
315.00000000000006
  0
ARC
  8
_0-0_
  6
CONTINUOUS
 62
    7
 10
40.166722103955863
 20
46.078798563065448
 40
1.5
 50
0
 51
90
  0
ARC
  8
_0-0_
  6
CONTINUOUS
 62
    7
 10
21.666722103955976
 20
37.428798563065357
 40
0.1499999999999999
 50
224.99999999999622
 51
270
  0
ARC
  8
_0-0_
  6
CONTINUOUS
 62
    7
 10
21.0974832884134
 20
37.078798563065448
 40
0.5
 50
45.000000000002139
 51
89.999999999999929
  0
ARC
  8
_0-0_
  6
CONTINUOUS
 62
    7
 10
16.066722103956067
 20
47.078798563065448
 40
0.5
 50
0
 51
90
  0
ARC
  8
_0-0_
  6
CONTINUOUS
 62
    7
 10
16.066722103956067
 20
45.296832551815442
 40
0.5
 50
333.43494882292219
 51
0.000000000000019
  0
ARC
  8
_0-0_
  6
CONTINUOUS
 62
    7
 10
15.657705109580888
 20
44.478798563065538
 40
0.5
 50
270
 51
333.43494882292214
  0
ARC
  8
_0-0_
  6
CONTINUOUS
 62
    7
 10
14.166722103955976
 20
43.478798563065538
 40
0.5
 50
90
 51
180
  0
ARC
  8
_0-0_
  6
CONTINUOUS
 62
    7
 10
14.166722103955976
 20
39.785905344252114
 40
0.5
 50
180
 51
224.99999999999994
  0
ARC
  8
_0-0_
  6
CONTINUOUS
 62
    7
 10
15.873828885142643
 20
38.078798563065448
 40
0.5
 50
224.99999999999994
 51
269.99999999999994
  0
ARC
  8
_0-0_
  6
CONTINUOUS
 62
    7
 10
3.1667221039559763
 20
46.078798563065448
 40
1.5
 50
90
 51
180
  0
ARC
  8
_0-0_
  6
CONTINUOUS
 62
    7
 10
2.1667221039559763
 20
43.178798563065357
 40
0.5
 50
180
 51
270
  0
ARC
  8
_0-0_
  6
CONTINUOUS
 62
    7
 10
3.9486881152059823
 20
43.178798563065357
 40
0.5
 50
270
 51
296.56505117707781
  0
ARC
  8
_0-0_
  6
CONTINUOUS
 62
    7
 10
4.7667221039558854
 20
43.587815557440535
 40
0.5
 50
296.56505117707786
 51
0.0000000000000381
  0
ARC
  8
_0-0_
  6
CONTINUOUS
 62
    7
 10
5.7667221039558854
 20
45.078798563065448
 40
0.5
 50
90
 51
180
  0
ARC
  8
_0-0_
  6
CONTINUOUS
 62
    7
 10
9.4596153227693094
 20
45.078798563065448
 40
0.5
 50
45.00000000000005
 51
90
  0
ARC
  8
_0-0_
  6
CONTINUOUS
 62
    7
 10
11.166722103955976
 20
43.371691781878781
 40
0.5
 50
0.0000000000000508
 51
45.00000000000005
  0
ARC
  8
_0-0_
  6
CONTINUOUS
 62
    7
 10
3.9486881152059823
 20
31.978798563065538
 40
0.5
 50
63.434948822922209
 51
90.000000000000028
  0
ARC
  8
_0-0_
  6
CONTINUOUS
 62
    7
 10
4.7667221039558854
 20
31.56978156869036
 40
0.5
 50
0
 51
63.434948822922145
  0
ARC
  8
_0-0_
  6
CONTINUOUS
 62
    7
 10
5.7667221039558854
 20
30.078798563065448
 40
0.5
 50
180
 51
270
  0
ARC
  8
_0-0_
  6
CONTINUOUS
 62
    7
 10
9.4596153227693094
 20
30.078798563065448
 40
0.5
 50
270
 51
314.99999999999994
  0
ARC
  8
_0-0_
  6
CONTINUOUS
 62
    7
 10
11.166722103955976
 20
31.785905344252114
 40
0.5
 50
314.99999999999994
 51
359.99999999999994
  0
ARC
  8
_0-0_
  6
CONTINUOUS
 62
    7
 10
2.1667221039559763
 20
31.978798563065538
 40
0.5
 50
90
 51
180
  0
ARC
  8
_0-0_
  6
CONTINUOUS
 62
    7
 10
25.37804696936098
 20
22.978798563065538
 40
0.5
 50
30.000000000000266
 51
90.000000000000057
  0
ARC
  8
_0-0_
  6
CONTINUOUS
 62
    7
 10
27.91838815379549
 20
20.578798563065448
 40
0.5
 50
210.00000000000017
 51
270
  0
ARC
  8
_0-0_
  6
CONTINUOUS
 62
    7
 10
29.066722103956067
 20
20.578798563065448
 40
0.5
 50
270
 51
0
  0
ARC
  8
_0-0_
  6
CONTINUOUS
 62
    7
 10
17.955397238550518
 20
22.978798563065538
 40
0.5
 50
89.999999999999929
 51
149.99999999999972
  0
ARC
  8
_0-0_
  6
CONTINUOUS
 62
    7
 10
15.415056054116462
 20
20.578798563065448
 40
0.5
 50
270
 51
329.99999999999983
  0
ARC
  8
_0-0_
  6
CONTINUOUS
 62
    7
 10
14.266722103955885
 20
20.578798563065448
 40
0.5
 50
180
 51
270
  0
ARC
  8
_0-0_
  6
CONTINUOUS
 62
    7
 10
25.37804696936098
 20
32.178798563065357
 40
0.5
 50
269.99999999999994
 51
329.99999999999972
  0
ARC
  8
_0-0_
  6
CONTINUOUS
 62
    7
 10
27.91838815379549
 20
34.578798563065448
 40
0.5
 50
90
 51
149.99999999999983
  0
ARC
  8
_0-0_
  6
CONTINUOUS
 62
    7
 10
29.066722103956067
 20
34.578798563065448
 40
0.5
 50
0
 51
90
  0
ARC
  8
_0-0_
  6
CONTINUOUS
 62
    7
 10
17.955397238550518
 20
32.178798563065357
 40
0.5
 50
210.00000000000028
 51
270.00000000000006
  0
ARC
  8
_0-0_
  6
CONTINUOUS
 62
    7
 10
15.415056054116462
 20
34.578798563065448
 40
0.5
 50
30.000000000000171
 51
90
  0
ARC
  8
_0-0_
  6
CONTINUOUS
 62
    7
 10
14.266722103955885
 20
34.578798563065448
 40
0.5
 50
90
 51
180
  0
LINE
  8
_0-1_
  6
CENTER2
 62
  152
 10
1.6667221039559763
 20
27.578798563065448
 11
41.66671210395566
 21
27.578798563065448
  0
LINE
  8
_0-1_
  6
CENTER2
 62
  152
 10
21.666722103955976
 20
7.578778563065498
 11
21.666722103955976
 21
47.578768563065296
  0
LINE
  8
_0-1_
  6
CENTER1
 62
  152
 10
35.666722103955863
 20
35.578798563065448
 11
35.666722103955863
 21
47.578798563065448
  0
LINE
  8
_0-1_
  6
CENTER1
 62
  152
 10
29.666722103955976
 20
41.578798563065448
 11
41.666722103955863
 21
41.578798563065448
  0
LINE
  8
_0-1_
  6
CENTER1
 62
  152
 10
29.666722103955976
 20
13.578798563065448
 11
41.666722103955863
 21
13.578798563065448
  0
LINE
  8
_0-1_
  6
CENTER1
 62
  152
 10
35.666722103955863
 20
19.578798563065448
 11
35.666722103955863
 21
7.5787985630654475
  0
ENDSEC
  0
EOF
