  0
SECTION
  2
HEADER
  9
$ACADVER
  1
AC1009
  9
$INSBASE
 10
0
 20
0
 30
0
  9
$EXTMIN
 10
0
 20
0
  9
$EXTMAX
 10
1189
 20
841
  9
$LIMMIN
 10
0
 20
0
  9
$LIMMAX
 10
1189
 20
841
  9
$LTSCALE
 40
1
  0
ENDSEC
  0
SECTION
  2
TABLES
  0
TABLE
  2
LTYPE
 70
     9
  0
LTYPE
  2
CONTINUOUS
 70
    64
  3
実線
 72
    65
 73
     0
 40
0.0
  0
LTYPE
  2
DASHED1
 70
    64
  3
--  --  --  --  --  --  --  --  
 72
    65
 73
     2
 40
2.5
 49
1.25
 49
-1.25
  0
LTYPE
  2
DASHED2
 70
    64
  3
----    ----    ----    ----    
 72
    65
 73
     2
 40
5.0
 49
2.5
 49
-2.5
  0
LTYPE
  2
DASHED3
 70
    64
  3
------  ------  ------  ------  
 72
    65
 73
     2
 40
5.0
 49
3.75
 49
-1.25
  0
LTYPE
  2
CENTER1
 70
    64
  3
----- - ----- - ----- - ----- - 
 72
    65
 73
     4
 40
10.0
 49
6.25
 49
-1.25
 49
1.25
 49
-1.25
  0
LTYPE
  2
CENTER2
 70
    64
  3
----------  --  ----------  --  
 72
    65
 73
     4
 40
20.0
 49
12.5
 49
-2.5
 49
2.5
 49
-2.5
  0
LTYPE
  2
PHANTOM1
 70
    64
  3
--- - - --- - - --- - - --- - - 
 72
    65
 73
     6
 40
10.0
 49
3.25
 49
-1.25
 49
1.25
 49
-1.25
 49
1.25
 49
-1.25
  0
LTYPE
  2
PHANTOM2
 70
    64
  3
--------  -  -  --------  -  -  
 72
    65
 73
     6
 40
20.0
 49
10.0
 49
-2.5
 49
1.25
 49
-2.5
 49
1.25
 49
-2.5
  0
LTYPE
  2
DOT
 70
    64
  3
-   -   -   -   -   -   -   -   
 72
    65
 73
     2
 40
2.5
 49
0.625
 49
-1.875
  0
LTYPE
  2
DUMMY
 70
    64
  3
ダミー
 72
    65
 73
     0
 40
0.0
  0
LTYPE
  2
RAND1
 70
    64
  3
ランダム線1
 72
    65
 73
     4
 40
10.0
 49
1.0
 49
-2.0
 49
3.0
 49
-4.0
  0
LTYPE
  2
RAND2
 70
    64
  3
ランダム線2
 72
    65
 73
     4
 40
14.0
 49
2.0
 49
-3.0
 49
4.0
 49
-5.0
  0
LTYPE
  2
RAND3
 70
    64
  3
ランダム線3
 72
    65
 73
     4
 40
18.0
 49
3.0
 49
-4.0
 49
5.0
 49
-6.0
  0
LTYPE
  2
RAND4
 70
    64
  3
ランダム線4
 72
    65
 73
     4
 40
22.0
 49
4.0
 49
-5.0
 49
6.0
 49
-7.0
  0
LTYPE
  2
RAND5
 70
    64
  3
ランダム線5
 72
    65
 73
     4
 40
26.0
 49
5.0
 49
-6.0
 49
7.0
 49
-8.0
  0
LTYPE
  2
LONG1
 70
    64
  3
----------  --  ----------  --  
 72
    65
 73
     4
 40
40.0
 49
32.5
 49
-2.5
 49
2.5
 49
-2.5
  0
LTYPE
  2
LONG2
 70
    64
  3
--------  -  -  --------  -  -  
 72
    65
 73
     6
 40
40.0
 49
30.0
 49
-2.5
 49
1.25
 49
-2.5
 49
1.25
 49
-2.5
  0
LTYPE
  2
LONG3
 70
    64
  3
+++++++++++++++..+++++++++++++++
 72
    65
 73
     2
 40
40.0
 49
37.5
 49
-2.5
  0
LTYPE
  2
LONG4
 70
    64
  3
+++++++++++++++..+++++++++++++++
 72
    65
 73
     2
 40
80.0
 49
75.0
 49
-5.0
  0
LTYPE
  2
LONG5
 70
    64
  3
----------  --  ----------  --  
 72
    65
 73
     4
 40
60.0
 49
37.5
 49
-7.5
 49
7.5
 49
-7.5
  0
LTYPE
  2
dashed
 70
   64
  3
-------   -------------   ------
 72
   65
 73
    2
 40
7.5
 49
6
 49
-1.5
  0
LTYPE
  2
dashed_spaced
 70
   64
  3
----        --------        ----
 72
   65
 73
    2
 40
12
 49
6
 49
-6
  0
LTYPE
  2
long_dashed_dotted
 70
   64
  3
------------- --- --------------
 72
   65
 73
    4
 40
15.25
 49
12
 49
-1.5
 49
0.25
 49
-1.5
  0
LTYPE
  2
long_dashed_double-dotted
 70
   64
  3
----------- --- --- ------------
 72
   65
 73
    6
 40
17
 49
12
 49
-1.5
 49
0.25
 49
-1.5
 49
0.25
 49
-1.5
  0
LTYPE
  2
long_dashed_triplicate-dotted
 70
   64
  3
--------- --- --- --- ----------
 72
   65
 73
    8
 40
18.75
 49
12
 49
-1.5
 49
0.25
 49
-1.5
 49
0.25
 49
-1.5
 49
0.25
 49
-1.5
  0
LTYPE
  2
dotted
 70
   64
  3
   -       -       -       -    
 72
   65
 73
    2
 40
1.75
 49
0.25
 49
-1.5
  0
LTYPE
  2
chain
 70
   64
  3
-------------- -- --------------
 72
   65
 73
    4
 40
18.5
 49
12
 49
-1.5
 49
3.5
 49
-1.5
  0
LTYPE
  2
chain_double_dash
 70
   64
  3
------------ -- -- -------------
 72
   65
 73
    6
 40
23.5
 49
12
 49
-1.5
 49
3.5
 49
-1.5
 49
3.5
 49
-1.5
  0
LTYPE
  2
dashed_dotted
 70
   64
  3
-----------     -     ----------
 72
   65
 73
    4
 40
9.25
 49
6
 49
-1.5
 49
0.25
 49
-1.5
  0
LTYPE
  2
double-dashed_dotted
 70
   64
  3
------   -----------   -   -----
 72
   65
 73
    6
 40
16.75
 49
6
 49
-1.5
 49
6
 49
-1.5
 49
0.25
 49
-1.5
  0
LTYPE
  2
dashed_double-dotted
 70
   64
  3
---------    -    -    ---------
 72
   65
 73
    6
 40
11
 49
6
 49
-1.5
 49
0.25
 49
-1.5
 49
0.25
 49
-1.5
  0
LTYPE
  2
double-dashed_double-dotted
 70
   64
  3
-----   ---------   -   -   ----
 72
   65
 73
    8
 40
18.5
 49
6
 49
-1.5
 49
6
 49
-1.5
 49
0.25
 49
-1.5
 49
0.25
 49
-1.5
  0
LTYPE
  2
dashed_triplicate-dotted
 70
   64
  3
-------    -    -    -    ------
 72
   65
 73
    8
 40
12.75
 49
6
 49
-1.5
 49
0.25
 49
-1.5
 49
0.25
 49
-1.5
 49
0.25
 49
-1.5
  0
LTYPE
  2
double-dashed_triplicate-dotted
 70
   64
  3
-----  ---------  -  -  -  -----
 72
   65
 73
   10
 40
20.25
 49
6
 49
-1.5
 49
6
 49
-1.5
 49
0.25
 49
-1.5
 49
0.25
 49
-1.5
 49
0.25
 49
-1.5
  0
LTYPE
  2
undefined
 70
   64
  3
--------------------------------
 72
   65
 73
    0
 40
0
  0
ENDTAB
  0
TABLE
  2
STYLE
  5
3
100
AcDbSymbolTable
 70
     1
  0
STYLE
  5
10
100
AcDbSymbolTableRecord
100
AcDbTextStyleTableRecord
  2
STANDARD
 70
     0
 40
0.0
 41
1.0
 50
0.0
 71
     0
 42
0.2
  3
txt
  4
bigfont.shx
  0
STYLE
  5
26
100
AcDbSymbolTableRecord
100
AcDbTextStyleTableRecord
  2
TATEGAKI
 70
    68
 40
0.0
 41
1.0
 50
0.0
 71
     0
 42
1.0
  3
txt
  4
bigfont.shx
  0
ENDTAB
  0
TABLE
  2
LAYER
 70
    4
  0
LAYER
  2
_0-0_
 70
   64
 62
    7
  6
CONTINUOUS
  0
LAYER
  2
_0-1_
 70
   64
 62
    7
  6
CONTINUOUS
  0
LAYER
  2
_0-f_
 70
   64
 62
    7
  6
CONTINUOUS
  0
LAYER
  2
ADD_LINE
 70
   64
 62
    7
  6
CONTINUOUS
  0
ENDTAB
  0
ENDSEC
  0
SECTION
  2
BLOCKS
  0
ENDSEC
  0
SECTION
  2
ENTITIES
  0
TEXT
  8
_0-f_
 62
    7
 10
2.4810870554340454
 20
1.3508215395634124
 40
4.2999999999999998
 41
0.744186046511628
 50
0
  1
F43W
  0
LINE
  8
_0-0_
  6
CONTINUOUS
 62
    7
 10
3.5145664557586542
 20
22.329485739065092
 11
5.2965324670088876
 21
22.329485739065092
  0
LINE
  8
_0-0_
  6
CONTINUOUS
 62
    7
 10
5.5201392647587681
 20
22.382272143564876
 11
6.3381732535086712
 21
22.791289137940055
  0
LINE
  8
_0-0_
  6
CONTINUOUS
 62
    7
 10
6.6145664557587907
 20
23.238502733439816
 11
6.6145664557587907
 21
24.729485739065183
  0
LINE
  8
_0-0_
  6
CONTINUOUS
 62
    7
 10
7.1145664557587907
 20
25.229485739065183
 11
11.807459674572215
 21
25.229485739065183
  0
LINE
  8
_0-0_
  6
CONTINUOUS
 62
    7
 10
12.161013065165548
 20
25.083039129658516
 11
12.868119846351988
 21
24.375932348471849
  0
LINE
  8
_0-0_
  6
CONTINUOUS
 62
    7
 10
13.014566455758654
 20
24.022378957878516
 11
13.014566455758654
 21
17.65006287565933
  0
LINE
  8
_0-0_
  6
CONTINUOUS
 62
    7
 10
13.054758834623499
 20
17.500062875659239
 11
13.124374076894128
 21
17.379485739065274
  0
LINE
  8
_0-0_
  6
CONTINUOUS
 62
    7
 10
13.124374076894128
 20
17.079485739065092
 11
13.054758834623499
 21
16.958908602471126
  0
LINE
  8
_0-0_
  6
CONTINUOUS
 62
    7
 10
13.014566455758654
 20
16.808908602471035
 11
13.014566455758654
 21
10.43659252025185
  0
LINE
  8
_0-0_
  6
CONTINUOUS
 62
    7
 10
12.868119846351988
 20
10.083039129658516
 11
12.161013065165548
 21
9.3759323484718493
  0
LINE
  8
_0-0_
  6
CONTINUOUS
 62
    7
 10
11.807459674572215
 20
9.2294857390651828
 11
7.1145664557587907
 21
9.2294857390651828
  0
LINE
  8
_0-0_
  6
CONTINUOUS
 62
    7
 10
6.6145664557587907
 20
9.7294857390651828
 11
6.6145664557587907
 21
11.220468744690095
  0
LINE
  8
_0-0_
  6
CONTINUOUS
 62
    7
 10
6.3381732535086712
 20
11.667682340190311
 11
5.5201392647587681
 21
12.076699334565035
  0
LINE
  8
_0-0_
  6
CONTINUOUS
 62
    7
 10
5.2965324670088876
 20
12.129485739065274
 11
3.5145664557586542
 21
12.129485739065274
  0
LINE
  8
_0-0_
  6
CONTINUOUS
 62
    7
 10
3.0145664557586542
 20
11.629485739065274
 11
3.0145664557586542
 21
8.7294857390651828
  0
LINE
  8
_0-0_
  6
CONTINUOUS
 62
    7
 10
4.5145664557586542
 20
7.2294857390651828
 11
31.514566455758654
 21
7.2294857390651828
  0
LINE
  8
_0-0_
  6
CONTINUOUS
 62
    7
 10
33.014566455758654
 20
8.7294857390651828
 11
33.014566455758654
 21
45.729485739065183
  0
LINE
  8
_0-0_
  6
CONTINUOUS
 62
    7
 10
31.514566455758654
 20
47.229485739065183
 11
4.5145664557586542
 21
47.229485739065183
  0
LINE
  8
_0-0_
  6
CONTINUOUS
 62
    7
 10
3.0145664557586542
 20
45.729485739065183
 11
3.0145664557586542
 21
42.829485739065092
  0
LINE
  8
_0-0_
  6
CONTINUOUS
 62
    7
 10
3.5145664557586542
 20
42.329485739065092
 11
5.2965324670088876
 21
42.329485739065092
  0
LINE
  8
_0-0_
  6
CONTINUOUS
 62
    7
 10
5.5201392647587681
 20
42.382272143564876
 11
6.3381732535086712
 21
42.791289137940055
  0
LINE
  8
_0-0_
  6
CONTINUOUS
 62
    7
 10
6.6145664557587907
 20
43.238502733439816
 11
6.6145664557587907
 21
44.729485739065183
  0
LINE
  8
_0-0_
  6
CONTINUOUS
 62
    7
 10
7.1145664557587907
 20
45.229485739065183
 11
11.807459674572215
 21
45.229485739065183
  0
LINE
  8
_0-0_
  6
CONTINUOUS
 62
    7
 10
12.161013065165548
 20
45.083039129658516
 11
12.868119846351988
 21
44.375932348471849
  0
LINE
  8
_0-0_
  6
CONTINUOUS
 62
    7
 10
13.014566455758654
 20
44.022378957878516
 11
13.014566455758654
 21
37.650062875658875
  0
LINE
  8
_0-0_
  6
CONTINUOUS
 62
    7
 10
13.054758834623499
 20
37.500062875659239
 11
13.124374076894128
 21
37.379485739065274
  0
LINE
  8
_0-0_
  6
CONTINUOUS
 62
    7
 10
13.124374076894128
 20
37.079485739065092
 11
13.054758834623499
 21
36.958908602471126
  0
LINE
  8
_0-0_
  6
CONTINUOUS
 62
    7
 10
13.014566455758654
 20
36.808908602471035
 11
13.014566455758654
 21
30.436592520251395
  0
LINE
  8
_0-0_
  6
CONTINUOUS
 62
    7
 10
12.868119846351988
 20
30.083039129658516
 11
12.161013065165548
 21
29.375932348471849
  0
LINE
  8
_0-0_
  6
CONTINUOUS
 62
    7
 10
11.807459674572215
 20
29.229485739065183
 11
7.1145664557587907
 21
29.229485739065183
  0
LINE
  8
_0-0_
  6
CONTINUOUS
 62
    7
 10
6.6145664557587907
 20
29.729485739065183
 11
6.6145664557587907
 21
31.220468744690095
  0
LINE
  8
_0-0_
  6
CONTINUOUS
 62
    7
 10
6.3381732535086712
 20
31.667682340189856
 11
5.5201392647587681
 21
32.076699334565035
  0
LINE
  8
_0-0_
  6
CONTINUOUS
 62
    7
 10
5.2965324670088876
 20
32.129485739064819
 11
3.5145664557586542
 21
32.129485739064819
  0
LINE
  8
_0-0_
  6
CONTINUOUS
 62
    7
 10
3.0145664557586542
 20
31.629485739064819
 11
3.0145664557586542
 21
22.829485739065092
  0
LINE
  8
_0-0_
  6
CONTINUOUS
 62
    7
 10
30.514566455758654
 20
29.729485739065183
 11
30.514566455758654
 21
32.784860951752705
  0
LINE
  8
_0-0_
  6
CONTINUOUS
 62
    7
 10
30.072987079542486
 20
33.281436253913796
 11
27.997725208191355
 21
33.525584709367138
  0
LINE
  8
_0-0_
  6
CONTINUOUS
 62
    7
 10
27.114566455758791
 20
34.518735313689774
 11
27.114566455758791
 21
39.940236164440137
  0
LINE
  8
_0-0_
  6
CONTINUOUS
 62
    7
 10
27.997725208191355
 20
40.933386768762773
 11
30.072987079542486
 21
41.177535224216115
  0
LINE
  8
_0-0_
  6
CONTINUOUS
 62
    7
 10
30.514566455758654
 20
41.67411052637766
 11
30.514566455758654
 21
45.129485739064819
  0
LINE
  8
_0-0_
  6
CONTINUOUS
 62
    7
 10
30.014566455758654
 20
45.629485739064819
 11
16.014566455758654
 21
45.629485739064819
  0
LINE
  8
_0-0_
  6
CONTINUOUS
 62
    7
 10
15.514566455758654
 20
45.129485739064819
 11
15.514566455758654
 21
41.67411052637766
  0
LINE
  8
_0-0_
  6
CONTINUOUS
 62
    7
 10
15.95614583197505
 20
41.177535224216115
 11
18.031407703326181
 21
40.933386768762773
  0
LINE
  8
_0-0_
  6
CONTINUOUS
 62
    7
 10
18.914566455758745
 20
39.940236164440137
 11
18.914566455758745
 21
34.518735313689774
  0
LINE
  8
_0-0_
  6
CONTINUOUS
 62
    7
 10
18.031407703326181
 20
33.525584709367138
 11
15.95614583197505
 21
33.281436253913796
  0
LINE
  8
_0-0_
  6
CONTINUOUS
 62
    7
 10
15.514566455758654
 20
32.784860951752705
 11
15.514566455758654
 21
29.729485739065183
  0
LINE
  8
_0-0_
  6
CONTINUOUS
 62
    7
 10
16.014566455758654
 20
29.229485739065183
 11
17.914566455758745
 21
29.229485739065183
  0
LINE
  8
_0-0_
  6
CONTINUOUS
 62
    7
 10
18.914566455758745
 20
28.229485739065183
 11
18.914566455758745
 21
26.229485739065183
  0
LINE
  8
_0-0_
  6
CONTINUOUS
 62
    7
 10
17.914566455758745
 20
25.229485739065183
 11
16.014566455758654
 21
25.229485739065183
  0
LINE
  8
_0-0_
  6
CONTINUOUS
 62
    7
 10
15.514566455758654
 20
24.729485739065183
 11
15.514566455758654
 21
21.67411052637766
  0
LINE
  8
_0-0_
  6
CONTINUOUS
 62
    7
 10
15.95614583197505
 20
21.177535224216115
 11
18.031407703326181
 21
20.933386768762773
  0
LINE
  8
_0-0_
  6
CONTINUOUS
 62
    7
 10
18.914566455758745
 20
19.940236164440137
 11
18.914566455758745
 21
14.518735313690229
  0
LINE
  8
_0-0_
  6
CONTINUOUS
 62
    7
 10
18.031407703326181
 20
13.525584709367138
 11
15.95614583197505
 21
13.281436253914251
  0
LINE
  8
_0-0_
  6
CONTINUOUS
 62
    7
 10
15.514566455758654
 20
12.784860951752705
 11
15.514566455758654
 21
9.3294857390650918
  0
LINE
  8
_0-0_
  6
CONTINUOUS
 62
    7
 10
16.014566455758654
 20
8.8294857390650918
 11
30.014566455758654
 21
8.8294857390650918
  0
LINE
  8
_0-0_
  6
CONTINUOUS
 62
    7
 10
30.514566455758654
 20
9.3294857390650918
 11
30.514566455758654
 21
12.784860951752705
  0
LINE
  8
_0-0_
  6
CONTINUOUS
 62
    7
 10
30.072987079542486
 20
13.281436253914251
 11
27.997725208191355
 21
13.525584709367138
  0
LINE
  8
_0-0_
  6
CONTINUOUS
 62
    7
 10
27.114566455758791
 20
14.518735313690229
 11
27.114566455758791
 21
19.940236164440137
  0
LINE
  8
_0-0_
  6
CONTINUOUS
 62
    7
 10
27.997725208191355
 20
20.933386768762773
 11
30.072987079542486
 21
21.177535224216115
  0
LINE
  8
_0-0_
  6
CONTINUOUS
 62
    7
 10
30.514566455758654
 20
21.67411052637766
 11
30.514566455758654
 21
24.729485739065183
  0
LINE
  8
_0-0_
  6
CONTINUOUS
 62
    7
 10
30.014566455758654
 20
25.229485739065183
 11
28.114566455758791
 21
25.229485739065183
  0
LINE
  8
_0-0_
  6
CONTINUOUS
 62
    7
 10
27.114566455758791
 20
26.229485739065183
 11
27.114566455758791
 21
28.229485739065183
  0
LINE
  8
_0-0_
  6
CONTINUOUS
 62
    7
 10
28.114566455758791
 20
29.229485739065183
 11
30.014566455758654
 21
29.229485739065183
  0
ARC
  8
_0-0_
  6
CONTINUOUS
 62
    7
 10
31.514566455758654
 20
45.729485739065183
 40
1.5
 50
0
 51
90
  0
ARC
  8
_0-0_
  6
CONTINUOUS
 62
    7
 10
31.514566455758654
 20
8.7294857390651828
 40
1.5
 50
270
 51
0
  0
ARC
  8
_0-0_
  6
CONTINUOUS
 62
    7
 10
4.5145664557586542
 20
8.7294857390651828
 40
1.5
 50
180
 51
270
  0
ARC
  8
_0-0_
  6
CONTINUOUS
 62
    7
 10
4.5145664557586542
 20
45.729485739065183
 40
1.5
 50
90
 51
180
  0
ARC
  8
_0-0_
  6
CONTINUOUS
 62
    7
 10
28.114566455758791
 20
39.940236164440137
 40
1
 50
96.709836807757043
 51
180
  0
ARC
  8
_0-0_
  6
CONTINUOUS
 62
    7
 10
28.114566455758791
 20
34.518735313689774
 40
1
 50
180
 51
263.29016319224297
  0
ARC
  8
_0-0_
  6
CONTINUOUS
 62
    7
 10
30.014566455758654
 20
41.67411052637766
 40
0.5
 50
276.7098368077568
 51
0
  0
ARC
  8
_0-0_
  6
CONTINUOUS
 62
    7
 10
30.014566455758654
 20
32.784860951752705
 40
0.5
 50
0
 51
83.290163192243227
  0
ARC
  8
_0-0_
  6
CONTINUOUS
 62
    7
 10
30.014566455758654
 20
45.129485739064819
 40
0.5
 50
0
 51
90
  0
ARC
  8
_0-0_
  6
CONTINUOUS
 62
    7
 10
30.014566455758654
 20
29.729485739065183
 40
0.5
 50
270
 51
0
  0
ARC
  8
_0-0_
  6
CONTINUOUS
 62
    7
 10
28.114566455758791
 20
28.229485739065183
 40
1
 50
90
 51
180
  0
ARC
  8
_0-0_
  6
CONTINUOUS
 62
    7
 10
28.114566455758791
 20
14.518735313690229
 40
1
 50
180
 51
263.29016319224297
  0
ARC
  8
_0-0_
  6
CONTINUOUS
 62
    7
 10
28.114566455758791
 20
19.940236164440137
 40
1
 50
96.709836807757043
 51
180
  0
ARC
  8
_0-0_
  6
CONTINUOUS
 62
    7
 10
30.014566455758654
 20
12.784860951752705
 40
0.5
 50
0
 51
83.290163192243227
  0
ARC
  8
_0-0_
  6
CONTINUOUS
 62
    7
 10
30.014566455758654
 20
21.67411052637766
 40
0.5
 50
276.7098368077568
 51
0
  0
ARC
  8
_0-0_
  6
CONTINUOUS
 62
    7
 10
30.014566455758654
 20
9.3294857390650918
 40
0.5
 50
270
 51
0
  0
ARC
  8
_0-0_
  6
CONTINUOUS
 62
    7
 10
30.014566455758654
 20
24.729485739065183
 40
0.5
 50
0
 51
90
  0
ARC
  8
_0-0_
  6
CONTINUOUS
 62
    7
 10
28.114566455758791
 20
26.229485739065183
 40
1
 50
180
 51
270
  0
ARC
  8
_0-0_
  6
CONTINUOUS
 62
    7
 10
17.914566455758745
 20
39.940236164440137
 40
1
 50
0
 51
83.290163192242971
  0
ARC
  8
_0-0_
  6
CONTINUOUS
 62
    7
 10
17.914566455758745
 20
34.518735313689774
 40
1
 50
276.70983680775703
 51
0
  0
ARC
  8
_0-0_
  6
CONTINUOUS
 62
    7
 10
16.014566455758654
 20
41.67411052637766
 40
0.5
 50
180
 51
263.2901631922432
  0
ARC
  8
_0-0_
  6
CONTINUOUS
 62
    7
 10
16.014566455758654
 20
32.784860951752705
 40
0.5
 50
96.709836807756801
 51
180.00000000000003
  0
ARC
  8
_0-0_
  6
CONTINUOUS
 62
    7
 10
16.014566455758654
 20
45.129485739064819
 40
0.5
 50
90
 51
180
  0
ARC
  8
_0-0_
  6
CONTINUOUS
 62
    7
 10
16.014566455758654
 20
29.729485739065183
 40
0.5
 50
180
 51
270
  0
ARC
  8
_0-0_
  6
CONTINUOUS
 62
    7
 10
17.914566455758745
 20
28.229485739065183
 40
1
 50
0
 51
90
  0
ARC
  8
_0-0_
  6
CONTINUOUS
 62
    7
 10
17.914566455758745
 20
14.518735313690229
 40
1
 50
276.70983680775703
 51
0
  0
ARC
  8
_0-0_
  6
CONTINUOUS
 62
    7
 10
17.914566455758745
 20
19.940236164440137
 40
1
 50
0
 51
83.290163192242971
  0
ARC
  8
_0-0_
  6
CONTINUOUS
 62
    7
 10
16.014566455758654
 20
12.784860951752705
 40
0.5
 50
96.709836807756801
 51
180.00000000000003
  0
ARC
  8
_0-0_
  6
CONTINUOUS
 62
    7
 10
16.014566455758654
 20
21.67411052637766
 40
0.5
 50
180
 51
263.2901631922432
  0
ARC
  8
_0-0_
  6
CONTINUOUS
 62
    7
 10
16.014566455758654
 20
9.3294857390650918
 40
0.5
 50
180
 51
270
  0
ARC
  8
_0-0_
  6
CONTINUOUS
 62
    7
 10
16.014566455758654
 20
24.729485739065183
 40
0.5
 50
90
 51
180
  0
ARC
  8
_0-0_
  6
CONTINUOUS
 62
    7
 10
17.914566455758745
 20
26.229485739065183
 40
1
 50
270
 51
0
  0
ARC
  8
_0-0_
  6
CONTINUOUS
 62
    7
 10
11.807459674572215
 20
44.729485739065183
 40
0.5
 50
45
 51
90
  0
ARC
  8
_0-0_
  6
CONTINUOUS
 62
    7
 10
12.514566455758654
 20
44.022378957878516
 40
0.5
 50
0
 51
44.999999999999886
  0
ARC
  8
_0-0_
  6
CONTINUOUS
 62
    7
 10
7.1145664557587907
 20
44.729485739065183
 40
0.5
 50
90
 51
180
  0
ARC
  8
_0-0_
  6
CONTINUOUS
 62
    7
 10
6.1145664557587907
 20
43.238502733439816
 40
0.5
 50
296.56505117707786
 51
0.000000000000089
  0
ARC
  8
_0-0_
  6
CONTINUOUS
 62
    7
 10
5.2965324670088876
 20
42.829485739065092
 40
0.5
 50
270
 51
296.56505117707809
  0
ARC
  8
_0-0_
  6
CONTINUOUS
 62
    7
 10
3.5145664557586542
 20
42.829485739065092
 40
0.5
 50
180
 51
270
  0
ARC
  8
_0-0_
  6
CONTINUOUS
 62
    7
 10
11.807459674572215
 20
29.729485739065183
 40
0.5
 50
270
 51
315
  0
ARC
  8
_0-0_
  6
CONTINUOUS
 62
    7
 10
12.514566455758654
 20
30.436592520251395
 40
0.5
 50
315.00000000000011
 51
0
  0
ARC
  8
_0-0_
  6
CONTINUOUS
 62
    7
 10
7.1145664557587907
 20
29.729485739065183
 40
0.5
 50
180
 51
270
  0
ARC
  8
_0-0_
  6
CONTINUOUS
 62
    7
 10
6.1145664557587907
 20
31.220468744690095
 40
0.5
 50
359.99999999999994
 51
63.434948822922202
  0
ARC
  8
_0-0_
  6
CONTINUOUS
 62
    7
 10
5.2965324670088876
 20
31.629485739064819
 40
0.5
 50
63.434948822921882
 51
90
  0
ARC
  8
_0-0_
  6
CONTINUOUS
 62
    7
 10
3.5145664557586542
 20
31.629485739064819
 40
0.5
 50
90
 51
180
  0
ARC
  8
_0-0_
  6
CONTINUOUS
 62
    7
 10
11.807459674572215
 20
9.7294857390651828
 40
0.5
 50
270
 51
315
  0
ARC
  8
_0-0_
  6
CONTINUOUS
 62
    7
 10
12.514566455758654
 20
10.43659252025185
 40
0.5
 50
315.00000000000011
 51
0
  0
ARC
  8
_0-0_
  6
CONTINUOUS
 62
    7
 10
7.1145664557587907
 20
9.7294857390651828
 40
0.5
 50
180
 51
270
  0
ARC
  8
_0-0_
  6
CONTINUOUS
 62
    7
 10
6.1145664557587907
 20
11.220468744690095
 40
0.5
 50
359.99999999999994
 51
63.434948822922202
  0
ARC
  8
_0-0_
  6
CONTINUOUS
 62
    7
 10
5.2965324670088876
 20
11.629485739065274
 40
0.5
 50
63.434948822921882
 51
90
  0
ARC
  8
_0-0_
  6
CONTINUOUS
 62
    7
 10
3.5145664557586542
 20
11.629485739065274
 40
0.5
 50
90
 51
180
  0
ARC
  8
_0-0_
  6
CONTINUOUS
 62
    7
 10
11.807459674572215
 20
24.729485739065183
 40
0.5
 50
45
 51
90
  0
ARC
  8
_0-0_
  6
CONTINUOUS
 62
    7
 10
12.514566455758654
 20
24.022378957878516
 40
0.5
 50
0
 51
44.999999999999886
  0
ARC
  8
_0-0_
  6
CONTINUOUS
 62
    7
 10
7.1145664557587907
 20
24.729485739065183
 40
0.5
 50
90
 51
180
  0
ARC
  8
_0-0_
  6
CONTINUOUS
 62
    7
 10
6.1145664557587907
 20
23.238502733439816
 40
0.5
 50
296.56505117707786
 51
0.000000000000089
  0
ARC
  8
_0-0_
  6
CONTINUOUS
 62
    7
 10
5.2965324670088876
 20
22.829485739065092
 40
0.5
 50
270
 51
296.56505117707809
  0
ARC
  8
_0-0_
  6
CONTINUOUS
 62
    7
 10
3.5145664557586542
 20
22.829485739065092
 40
0.5
 50
180
 51
270
  0
ARC
  8
_0-0_
  6
CONTINUOUS
 62
    7
 10
12.864566455758791
 20
17.229485739065183
 40
0.2999999999999998
 50
329.99999999999983
 51
30.00000000000097
  0
ARC
  8
_0-0_
  6
CONTINUOUS
 62
    7
 10
13.314566455758836
 20
16.808908602471035
 40
0.2999999999999998
 50
150.00000000000634
 51
180
  0
ARC
  8
_0-0_
  6
CONTINUOUS
 62
    7
 10
13.314566455758836
 20
17.65006287565933
 40
0.2999999999999998
 50
180
 51
209.99999999999363
  0
ARC
  8
_0-0_
  6
CONTINUOUS
 62
    7
 10
12.864566455758791
 20
37.229485739065183
 40
0.2999999999999998
 50
329.99999999999983
 51
30.00000000000097
  0
ARC
  8
_0-0_
  6
CONTINUOUS
 62
    7
 10
13.314566455758836
 20
36.808908602471035
 40
0.2999999999999998
 50
150.00000000000634
 51
180
  0
ARC
  8
_0-0_
  6
CONTINUOUS
 62
    7
 10
13.314566455758836
 20
37.650062875658875
 40
0.2999999999999998
 50
180
 51
209.99999999999363
  0
LINE
  8
_0-1_
  6
CENTER2
 62
  152
 10
3.0145664557586542
 20
27.229485739065183
 11
33.014566455758654
 21
27.229485739065183
  0
LINE
  8
_0-1_
  6
CENTER2
 62
  152
 10
33.014566455758654
 20
37.229485739065183
 11
3.0145664557586542
 21
37.229485739065183
  0
LINE
  8
_0-1_
  6
CENTER2
 62
  152
 10
23.014566455758654
 20
7.2294857390651828
 11
23.014566455758654
 21
47.229485739065183
  0
LINE
  8
_0-1_
  6
CENTER2
 62
  152
 10
33.014566455758654
 20
17.229485739065183
 11
3.0145664557586542
 21
17.229485739065183
  0
ENDSEC
  0
EOF
