  0
SECTION
  2
HEADER
  9
$ACADVER
  1
AC1009
  9
$INSBASE
 10
0
 20
0
 30
0
  9
$EXTMIN
 10
0
 20
0
  9
$EXTMAX
 10
1189
 20
841
  9
$LIMMIN
 10
0
 20
0
  9
$LIMMAX
 10
1189
 20
841
  9
$LTSCALE
 40
1
  0
ENDSEC
  0
SECTION
  2
TABLES
  0
TABLE
  2
LTYPE
 70
     9
  0
LTYPE
  2
CONTINUOUS
 70
    64
  3
実線
 72
    65
 73
     0
 40
0.0
  0
LTYPE
  2
DASHED1
 70
    64
  3
--  --  --  --  --  --  --  --  
 72
    65
 73
     2
 40
2.5
 49
1.25
 49
-1.25
  0
LTYPE
  2
DASHED2
 70
    64
  3
----    ----    ----    ----    
 72
    65
 73
     2
 40
5.0
 49
2.5
 49
-2.5
  0
LTYPE
  2
DASHED3
 70
    64
  3
------  ------  ------  ------  
 72
    65
 73
     2
 40
5.0
 49
3.75
 49
-1.25
  0
LTYPE
  2
CENTER1
 70
    64
  3
----- - ----- - ----- - ----- - 
 72
    65
 73
     4
 40
10.0
 49
6.25
 49
-1.25
 49
1.25
 49
-1.25
  0
LTYPE
  2
CENTER2
 70
    64
  3
----------  --  ----------  --  
 72
    65
 73
     4
 40
20.0
 49
12.5
 49
-2.5
 49
2.5
 49
-2.5
  0
LTYPE
  2
PHANTOM1
 70
    64
  3
--- - - --- - - --- - - --- - - 
 72
    65
 73
     6
 40
10.0
 49
3.25
 49
-1.25
 49
1.25
 49
-1.25
 49
1.25
 49
-1.25
  0
LTYPE
  2
PHANTOM2
 70
    64
  3
--------  -  -  --------  -  -  
 72
    65
 73
     6
 40
20.0
 49
10.0
 49
-2.5
 49
1.25
 49
-2.5
 49
1.25
 49
-2.5
  0
LTYPE
  2
DOT
 70
    64
  3
-   -   -   -   -   -   -   -   
 72
    65
 73
     2
 40
2.5
 49
0.625
 49
-1.875
  0
LTYPE
  2
DUMMY
 70
    64
  3
ダミー
 72
    65
 73
     0
 40
0.0
  0
LTYPE
  2
RAND1
 70
    64
  3
ランダム線1
 72
    65
 73
     4
 40
10.0
 49
1.0
 49
-2.0
 49
3.0
 49
-4.0
  0
LTYPE
  2
RAND2
 70
    64
  3
ランダム線2
 72
    65
 73
     4
 40
14.0
 49
2.0
 49
-3.0
 49
4.0
 49
-5.0
  0
LTYPE
  2
RAND3
 70
    64
  3
ランダム線3
 72
    65
 73
     4
 40
18.0
 49
3.0
 49
-4.0
 49
5.0
 49
-6.0
  0
LTYPE
  2
RAND4
 70
    64
  3
ランダム線4
 72
    65
 73
     4
 40
22.0
 49
4.0
 49
-5.0
 49
6.0
 49
-7.0
  0
LTYPE
  2
RAND5
 70
    64
  3
ランダム線5
 72
    65
 73
     4
 40
26.0
 49
5.0
 49
-6.0
 49
7.0
 49
-8.0
  0
LTYPE
  2
LONG1
 70
    64
  3
----------  --  ----------  --  
 72
    65
 73
     4
 40
40.0
 49
32.5
 49
-2.5
 49
2.5
 49
-2.5
  0
LTYPE
  2
LONG2
 70
    64
  3
--------  -  -  --------  -  -  
 72
    65
 73
     6
 40
40.0
 49
30.0
 49
-2.5
 49
1.25
 49
-2.5
 49
1.25
 49
-2.5
  0
LTYPE
  2
LONG3
 70
    64
  3
+++++++++++++++..+++++++++++++++
 72
    65
 73
     2
 40
40.0
 49
37.5
 49
-2.5
  0
LTYPE
  2
LONG4
 70
    64
  3
+++++++++++++++..+++++++++++++++
 72
    65
 73
     2
 40
80.0
 49
75.0
 49
-5.0
  0
LTYPE
  2
LONG5
 70
    64
  3
----------  --  ----------  --  
 72
    65
 73
     4
 40
60.0
 49
37.5
 49
-7.5
 49
7.5
 49
-7.5
  0
LTYPE
  2
dashed
 70
   64
  3
-------   -------------   ------
 72
   65
 73
    2
 40
7.5
 49
6
 49
-1.5
  0
LTYPE
  2
dashed_spaced
 70
   64
  3
----        --------        ----
 72
   65
 73
    2
 40
12
 49
6
 49
-6
  0
LTYPE
  2
long_dashed_dotted
 70
   64
  3
------------- --- --------------
 72
   65
 73
    4
 40
15.25
 49
12
 49
-1.5
 49
0.25
 49
-1.5
  0
LTYPE
  2
long_dashed_double-dotted
 70
   64
  3
----------- --- --- ------------
 72
   65
 73
    6
 40
17
 49
12
 49
-1.5
 49
0.25
 49
-1.5
 49
0.25
 49
-1.5
  0
LTYPE
  2
long_dashed_triplicate-dotted
 70
   64
  3
--------- --- --- --- ----------
 72
   65
 73
    8
 40
18.75
 49
12
 49
-1.5
 49
0.25
 49
-1.5
 49
0.25
 49
-1.5
 49
0.25
 49
-1.5
  0
LTYPE
  2
dotted
 70
   64
  3
   -       -       -       -    
 72
   65
 73
    2
 40
1.75
 49
0.25
 49
-1.5
  0
LTYPE
  2
chain
 70
   64
  3
-------------- -- --------------
 72
   65
 73
    4
 40
18.5
 49
12
 49
-1.5
 49
3.5
 49
-1.5
  0
LTYPE
  2
chain_double_dash
 70
   64
  3
------------ -- -- -------------
 72
   65
 73
    6
 40
23.5
 49
12
 49
-1.5
 49
3.5
 49
-1.5
 49
3.5
 49
-1.5
  0
LTYPE
  2
dashed_dotted
 70
   64
  3
-----------     -     ----------
 72
   65
 73
    4
 40
9.25
 49
6
 49
-1.5
 49
0.25
 49
-1.5
  0
LTYPE
  2
double-dashed_dotted
 70
   64
  3
------   -----------   -   -----
 72
   65
 73
    6
 40
16.75
 49
6
 49
-1.5
 49
6
 49
-1.5
 49
0.25
 49
-1.5
  0
LTYPE
  2
dashed_double-dotted
 70
   64
  3
---------    -    -    ---------
 72
   65
 73
    6
 40
11
 49
6
 49
-1.5
 49
0.25
 49
-1.5
 49
0.25
 49
-1.5
  0
LTYPE
  2
double-dashed_double-dotted
 70
   64
  3
-----   ---------   -   -   ----
 72
   65
 73
    8
 40
18.5
 49
6
 49
-1.5
 49
6
 49
-1.5
 49
0.25
 49
-1.5
 49
0.25
 49
-1.5
  0
LTYPE
  2
dashed_triplicate-dotted
 70
   64
  3
-------    -    -    -    ------
 72
   65
 73
    8
 40
12.75
 49
6
 49
-1.5
 49
0.25
 49
-1.5
 49
0.25
 49
-1.5
 49
0.25
 49
-1.5
  0
LTYPE
  2
double-dashed_triplicate-dotted
 70
   64
  3
-----  ---------  -  -  -  -----
 72
   65
 73
   10
 40
20.25
 49
6
 49
-1.5
 49
6
 49
-1.5
 49
0.25
 49
-1.5
 49
0.25
 49
-1.5
 49
0.25
 49
-1.5
  0
LTYPE
  2
undefined
 70
   64
  3
--------------------------------
 72
   65
 73
    0
 40
0
  0
ENDTAB
  0
TABLE
  2
STYLE
  5
3
100
AcDbSymbolTable
 70
     1
  0
STYLE
  5
10
100
AcDbSymbolTableRecord
100
AcDbTextStyleTableRecord
  2
STANDARD
 70
     0
 40
0.0
 41
1.0
 50
0.0
 71
     0
 42
0.2
  3
txt
  4
bigfont.shx
  0
STYLE
  5
26
100
AcDbSymbolTableRecord
100
AcDbTextStyleTableRecord
  2
TATEGAKI
 70
    68
 40
0.0
 41
1.0
 50
0.0
 71
     0
 42
1.0
  3
txt
  4
bigfont.shx
  0
ENDTAB
  0
TABLE
  2
LAYER
 70
    4
  0
LAYER
  2
_0-0_
 70
   64
 62
    7
  6
CONTINUOUS
  0
LAYER
  2
_0-1_
 70
   64
 62
    7
  6
CONTINUOUS
  0
LAYER
  2
_0-f_
 70
   64
 62
    7
  6
CONTINUOUS
  0
LAYER
  2
ADD_LINE
 70
   64
 62
    7
  6
CONTINUOUS
  0
ENDTAB
  0
ENDSEC
  0
SECTION
  2
BLOCKS
  0
ENDSEC
  0
SECTION
  2
ENTITIES
  0
TEXT
  8
_0-f_
 62
    7
 10
1.5321560916953558
 20
0.9777918218911736
 40
4.2999999999999998
 41
0.744186046511628
 50
0
  1
F43K,F43KB
  0
LINE
  8
_0-0_
  6
CONTINUOUS
 62
    7
 10
1.9318466284274791
 20
44.779541915518621
 11
1.9318466284274791
 21
31.87954191551853
  0
LINE
  8
_0-0_
  6
CONTINUOUS
 62
    7
 10
2.4318466284274791
 20
31.37954191551853
 11
4.2138126396777125
 21
31.37954191551853
  0
LINE
  8
_0-0_
  6
CONTINUOUS
 62
    7
 10
4.437419437427593
 20
31.432328320018314
 11
5.2554534261774961
 21
31.841345314393493
  0
LINE
  8
_0-0_
  6
CONTINUOUS
 62
    7
 10
5.5318466284276155
 20
32.288558909893254
 11
5.5318466284276155
 21
33.779541915518621
  0
LINE
  8
_0-0_
  6
CONTINUOUS
 62
    7
 10
6.0318466284276155
 20
34.279541915518621
 11
10.22473984724104
 21
34.279541915518621
  0
LINE
  8
_0-0_
  6
CONTINUOUS
 62
    7
 10
10.578293237834373
 20
34.133095306111954
 11
11.785400019020813
 21
32.925988524925287
  0
LINE
  8
_0-0_
  6
CONTINUOUS
 62
    7
 10
11.931846628427479
 20
32.572435134331954
 11
11.931846628427479
 21
19.986648696704833
  0
LINE
  8
_0-0_
  6
CONTINUOUS
 62
    7
 10
11.785400019020813
 20
19.633095306111954
 11
10.578293237834146
 21
18.425988524925287
  0
LINE
  8
_0-0_
  6
CONTINUOUS
 62
    7
 10
10.22473984724104
 20
18.279541915518621
 11
6.0318466284276155
 21
18.279541915518621
  0
LINE
  8
_0-0_
  6
CONTINUOUS
 62
    7
 10
5.5318466284276155
 20
18.779541915518621
 11
5.5318466284276155
 21
20.270524921143533
  0
LINE
  8
_0-0_
  6
CONTINUOUS
 62
    7
 10
5.2554534261774961
 20
20.717738516643294
 11
4.437419437427593
 21
21.126755511018473
  0
LINE
  8
_0-0_
  6
CONTINUOUS
 62
    7
 10
4.2138126396777125
 20
21.179541915518257
 11
2.4318466284274791
 21
21.179541915518257
  0
LINE
  8
_0-0_
  6
CONTINUOUS
 62
    7
 10
1.9318466284274791
 20
20.679541915518257
 11
1.9318466284274791
 21
7.779541915518621
  0
LINE
  8
_0-0_
  6
CONTINUOUS
 62
    7
 10
3.4318466284274791
 20
6.279541915518621
 11
16.33184662842757
 21
6.279541915518621
  0
LINE
  8
_0-0_
  6
CONTINUOUS
 62
    7
 10
16.83184662842757
 20
6.779541915518621
 11
16.83184662842757
 21
8.5615079267686269
  0
LINE
  8
_0-0_
  6
CONTINUOUS
 62
    7
 10
16.779060223927559
 20
8.7851147245187349
 11
16.370043229552607
 21
9.6031487132686379
  0
LINE
  8
_0-0_
  6
CONTINUOUS
 62
    7
 10
15.922829634052619
 20
9.87954191551853
 11
14.431846628427479
 21
9.87954191551853
  0
LINE
  8
_0-0_
  6
CONTINUOUS
 62
    7
 10
13.931846628427479
 20
10.37954191551853
 11
13.931846628427479
 21
14.572435134331954
  0
LINE
  8
_0-0_
  6
CONTINUOUS
 62
    7
 10
14.078293237834146
 20
14.925988524925287
 11
15.285400019020813
 21
16.133095306111954
  0
LINE
  8
_0-0_
  6
CONTINUOUS
 62
    7
 10
15.638953409614146
 20
16.279541915518621
 11
21.217703790141172
 21
16.279541915518621
  0
LINE
  8
_0-0_
  6
CONTINUOUS
 62
    7
 10
21.571186580200106
 20
16.425986556385396
 11
21.578296351315771
 21
16.433096327501062
  0
LINE
  8
_0-0_
  6
CONTINUOUS
 62
    7
 10
22.2853927815421
 20
16.433100451498376
 11
22.292506676654853
 21
16.425986556385396
  0
LINE
  8
_0-0_
  6
CONTINUOUS
 62
    7
 10
22.292506795594022
 20
16.425988524925287
 11
22.285393796917901
 21
16.433101523601181
  0
LINE
  8
_0-0_
  6
CONTINUOUS
 62
    7
 10
22.646060186187356
 20
16.279541915518621
 11
28.22473984724104
 21
16.279541915518621
  0
LINE
  8
_0-0_
  6
CONTINUOUS
 62
    7
 10
28.578293237834373
 20
16.133095306111954
 11
29.785400019020813
 21
14.925988524925287
  0
LINE
  8
_0-0_
  6
CONTINUOUS
 62
    7
 10
29.931846628427479
 20
14.572435134331954
 11
29.931846628427479
 21
10.37954191551853
  0
LINE
  8
_0-0_
  6
CONTINUOUS
 62
    7
 10
29.431846628427479
 20
9.87954191551853
 11
27.940863622802567
 21
9.87954191551853
  0
LINE
  8
_0-0_
  6
CONTINUOUS
 62
    7
 10
27.493650027302579
 20
9.6031487132686379
 11
27.084633032927627
 21
8.7851147245187349
  0
LINE
  8
_0-0_
  6
CONTINUOUS
 62
    7
 10
27.031846628427616
 20
8.5615079267686269
 11
27.031846628427616
 21
6.779541915518621
  0
LINE
  8
_0-0_
  6
CONTINUOUS
 62
    7
 10
27.531846628427616
 20
6.279541915518621
 11
30.431846628427479
 21
6.279541915518621
  0
LINE
  8
_0-0_
  6
CONTINUOUS
 62
    7
 10
31.931846628427479
 20
7.779541915518621
 11
31.931846628427479
 21
44.779541915518621
  0
LINE
  8
_0-0_
  6
CONTINUOUS
 62
    7
 10
30.431846628427479
 20
46.279541915518621
 11
27.531846628427616
 21
46.279541915518621
  0
LINE
  8
_0-0_
  6
CONTINUOUS
 62
    7
 10
27.031846628427616
 20
45.779541915518621
 11
27.031846628427616
 21
43.99757590426816
  0
LINE
  8
_0-0_
  6
CONTINUOUS
 62
    7
 10
27.084633032927627
 20
43.773969106518507
 11
27.493650027302579
 21
42.955935117768604
  0
LINE
  8
_0-0_
  6
CONTINUOUS
 62
    7
 10
27.940863622802567
 20
42.679541915518257
 11
29.431846628427479
 21
42.679541915518257
  0
LINE
  8
_0-0_
  6
CONTINUOUS
 62
    7
 10
29.931846628427479
 20
42.179541915518257
 11
29.931846628427479
 21
37.986648696704833
  0
LINE
  8
_0-0_
  6
CONTINUOUS
 62
    7
 10
29.785400019020813
 20
37.6330953061115
 11
28.578293237834373
 21
36.425988524925287
  0
LINE
  8
_0-0_
  6
CONTINUOUS
 62
    7
 10
28.22473984724104
 20
36.279541915518621
 11
22.645989466713786
 21
36.279541915518621
  0
LINE
  8
_0-0_
  6
CONTINUOUS
 62
    7
 10
22.292506676654853
 20
36.133097274651391
 11
22.285396905539415
 21
36.125987503535725
  0
LINE
  8
_0-0_
  6
CONTINUOUS
 62
    7
 10
21.578300475312858
 20
36.125983379538866
 11
21.571186580200106
 21
36.133097274651391
  0
LINE
  8
_0-0_
  6
CONTINUOUS
 62
    7
 10
21.571186461261163
 20
36.133095306111954
 11
21.578299459937284
 21
36.125982307435606
  0
LINE
  8
_0-0_
  6
CONTINUOUS
 62
    7
 10
21.21763307066783
 20
36.279541915518621
 11
15.638953409614146
 21
36.279541915518621
  0
LINE
  8
_0-0_
  6
CONTINUOUS
 62
    7
 10
15.285400019020813
 20
36.425988524925287
 11
14.078293237834146
 21
37.633095306111954
  0
LINE
  8
_0-0_
  6
CONTINUOUS
 62
    7
 10
13.931846628427479
 20
37.986648696704833
 11
13.931846628427479
 21
42.179541915518257
  0
LINE
  8
_0-0_
  6
CONTINUOUS
 62
    7
 10
14.431846628427479
 20
42.679541915518257
 11
15.922829634052619
 21
42.679541915518257
  0
LINE
  8
_0-0_
  6
CONTINUOUS
 62
    7
 10
16.370043229552607
 20
42.955935117768604
 11
16.779060223927559
 21
43.773969106518507
  0
LINE
  8
_0-0_
  6
CONTINUOUS
 62
    7
 10
16.83184662842757
 20
43.99757590426816
 11
16.83184662842757
 21
45.779541915518621
  0
LINE
  8
_0-0_
  6
CONTINUOUS
 62
    7
 10
16.33184662842757
 20
46.279541915518621
 11
3.4318466284274791
 21
46.279541915518621
  0
LINE
  8
_0-0_
  6
CONTINUOUS
 62
    7
 10
28.931846628427479
 20
18.37954191551853
 11
14.931846628427479
 21
18.37954191551853
  0
LINE
  8
_0-0_
  6
CONTINUOUS
 62
    7
 10
14.431846628427479
 20
18.87954191551853
 11
14.431846628427479
 21
20.984851167263059
  0
LINE
  8
_0-0_
  6
CONTINUOUS
 62
    7
 10
14.802437105876265
 20
21.467814080407607
 11
17.461256150978784
 21
22.180242496363462
  0
LINE
  8
_0-0_
  6
CONTINUOUS
 62
    7
 10
17.83184662842757
 20
22.663205409508009
 11
17.83184662842757
 21
29.895878421528778
  0
LINE
  8
_0-0_
  6
CONTINUOUS
 62
    7
 10
17.461256150978784
 20
30.378841334673325
 11
14.802437105876265
 21
31.091269750629181
  0
LINE
  8
_0-0_
  6
CONTINUOUS
 62
    7
 10
14.431846628427479
 20
31.574232663773728
 11
14.431846628427479
 21
33.679541915518257
  0
LINE
  8
_0-0_
  6
CONTINUOUS
 62
    7
 10
14.931846628427479
 20
34.179541915518712
 11
28.931846628427479
 21
34.179541915518712
  0
LINE
  8
_0-0_
  6
CONTINUOUS
 62
    7
 10
29.431846628427479
 20
33.679541915518257
 11
29.431846628427479
 21
31.574232663773728
  0
LINE
  8
_0-0_
  6
CONTINUOUS
 62
    7
 10
29.06125615097892
 20
31.091269750629181
 11
26.402437105876402
 21
30.378841334673325
  0
LINE
  8
_0-0_
  6
CONTINUOUS
 62
    7
 10
26.031846628427616
 20
29.895878421528778
 11
26.031846628427616
 21
22.663205409508009
  0
LINE
  8
_0-0_
  6
CONTINUOUS
 62
    7
 10
26.402437105876402
 20
22.180242496363462
 11
29.06125615097892
 21
21.467814080407607
  0
LINE
  8
_0-0_
  6
CONTINUOUS
 62
    7
 10
29.431846628427479
 20
20.984851167263059
 11
29.431846628427479
 21
18.87954191551853
  0
ARC
  8
_0-0_
  6
CONTINUOUS
 62
    7
 10
21.931846628427479
 20
36.479541904644975
 40
0.4999999891261788
 50
225.0010070800738
 51
315.57299626091196
  0
ARC
  8
_0-0_
  6
CONTINUOUS
 62
    7
 10
22.645989466713786
 20
35.779541915518621
 40
0.5
 50
90
 51
135.5729962609131
  0
ARC
  8
_0-0_
  6
CONTINUOUS
 62
    7
 10
21.21763307066783
 20
35.779541915518621
 40
0.5
 50
45
 51
90
  0
ARC
  8
_0-0_
  6
CONTINUOUS
 62
    7
 10
14.431846628427479
 20
42.179541915518257
 40
0.5
 50
90
 51
180
  0
ARC
  8
_0-0_
  6
CONTINUOUS
 62
    7
 10
30.431846628427479
 20
44.779541915518621
 40
1.4999999999999996
 50
0
 51
90
  0
ARC
  8
_0-0_
  6
CONTINUOUS
 62
    7
 10
29.431846628427479
 20
42.179541915518257
 40
0.5
 50
0
 51
90
  0
ARC
  8
_0-0_
  6
CONTINUOUS
 62
    7
 10
27.531846628427616
 20
45.779541915518621
 40
0.5
 50
90
 51
180
  0
ARC
  8
_0-0_
  6
CONTINUOUS
 62
    7
 10
27.531846628427616
 20
43.99757590426816
 40
0.5
 50
180
 51
206.56505117707786
  0
ARC
  8
_0-0_
  6
CONTINUOUS
 62
    7
 10
27.940863622802567
 20
43.179541915518257
 40
0.5
 50
206.56505117707772
 51
270
  0
ARC
  8
_0-0_
  6
CONTINUOUS
 62
    7
 10
16.33184662842757
 20
45.779541915518621
 40
0.5
 50
0
 51
90
  0
ARC
  8
_0-0_
  6
CONTINUOUS
 62
    7
 10
16.33184662842757
 20
43.99757590426816
 40
0.5
 50
333.43494882292214
 51
359.99999999999994
  0
ARC
  8
_0-0_
  6
CONTINUOUS
 62
    7
 10
15.922829634052619
 20
43.179541915518257
 40
0.5
 50
270
 51
333.43494882292231
  0
ARC
  8
_0-0_
  6
CONTINUOUS
 62
    7
 10
15.638953409614146
 20
36.779541915518621
 40
0.5
 50
224.99999999999994
 51
270
  0
ARC
  8
_0-0_
  6
CONTINUOUS
 62
    7
 10
28.22473984724104
 20
36.779541915518621
 40
0.5
 50
270
 51
314.99999999999994
  0
ARC
  8
_0-0_
  6
CONTINUOUS
 62
    7
 10
29.431846628427479
 20
37.986648696704833
 40
0.5
 50
315
 51
0
  0
ARC
  8
_0-0_
  6
CONTINUOUS
 62
    7
 10
3.4318466284274791
 20
44.779541915518621
 40
1.4999999999999996
 50
90
 51
180
  0
CIRCLE
  8
_0-0_
  6
CONTINUOUS
 62
    7
 10
7.9318466284274791
 20
40.279541915518621
 40
4.2000000000000002
  0
ARC
  8
_0-0_
  6
CONTINUOUS
 62
    7
 10
6.0318466284276155
 20
18.779541915518621
 40
0.5
 50
180
 51
270
  0
ARC
  8
_0-0_
  6
CONTINUOUS
 62
    7
 10
6.0318466284276155
 20
33.779541915518621
 40
0.5
 50
90
 51
180
  0
ARC
  8
_0-0_
  6
CONTINUOUS
 62
    7
 10
2.4318466284274791
 20
31.87954191551853
 40
0.5
 50
180
 51
270
  0
ARC
  8
_0-0_
  6
CONTINUOUS
 62
    7
 10
4.2138126396777125
 20
31.87954191551853
 40
0.5
 50
270
 51
296.56505117707786
  0
ARC
  8
_0-0_
  6
CONTINUOUS
 62
    7
 10
5.0318466284276155
 20
32.288558909893254
 40
0.5
 50
296.56505117707769
 51
0
  0
ARC
  8
_0-0_
  6
CONTINUOUS
 62
    7
 10
2.4318466284274791
 20
20.679541915518257
 40
0.5
 50
90
 51
180
  0
ARC
  8
_0-0_
  6
CONTINUOUS
 62
    7
 10
4.2138126396777125
 20
20.679541915518257
 40
0.5
 50
63.434948822922159
 51
89.999999999999972
  0
ARC
  8
_0-0_
  6
CONTINUOUS
 62
    7
 10
5.0318466284276155
 20
20.270524921143533
 40
0.5
 50
0
 51
63.434948822922316
  0
ARC
  8
_0-0_
  6
CONTINUOUS
 62
    7
 10
11.431846628427479
 20
19.986648696704833
 40
0.5
 50
314.99999999999994
 51
0.0000000000000063
  0
ARC
  8
_0-0_
  6
CONTINUOUS
 62
    7
 10
11.431846628427479
 20
32.572435134331954
 40
0.5
 50
0
 51
44.999999999999943
  0
ARC
  8
_0-0_
  6
CONTINUOUS
 62
    7
 10
10.22473984724104
 20
33.779541915518621
 40
0.5
 50
45
 51
90
  0
ARC
  8
_0-0_
  6
CONTINUOUS
 62
    7
 10
14.431846628427479
 20
37.986648696704833
 40
0.5
 50
180
 51
225.00000000000006
  0
ARC
  8
_0-0_
  6
CONTINUOUS
 62
    7
 10
10.22473984724104
 20
18.779541915518621
 40
0.5
 50
270
 51
315
  0
ARC
  8
_0-0_
  6
CONTINUOUS
 62
    7
 10
14.431846628427479
 20
10.37954191551853
 40
0.5
 50
180
 51
270
  0
ARC
  8
_0-0_
  6
CONTINUOUS
 62
    7
 10
30.431846628427479
 20
7.779541915518621
 40
1.4999999999999996
 50
270
 51
0
  0
ARC
  8
_0-0_
  6
CONTINUOUS
 62
    7
 10
29.431846628427479
 20
10.37954191551853
 40
0.5
 50
270
 51
0
  0
ARC
  8
_0-0_
  6
CONTINUOUS
 62
    7
 10
27.531846628427616
 20
6.779541915518621
 40
0.5
 50
180
 51
270
  0
ARC
  8
_0-0_
  6
CONTINUOUS
 62
    7
 10
27.531846628427616
 20
8.5615079267686269
 40
0.5
 50
153.43494882292217
 51
180
  0
ARC
  8
_0-0_
  6
CONTINUOUS
 62
    7
 10
27.940863622802567
 20
9.37954191551853
 40
0.5
 50
90
 51
153.43494882292231
  0
ARC
  8
_0-0_
  6
CONTINUOUS
 62
    7
 10
16.33184662842757
 20
6.779541915518621
 40
0.5
 50
270
 51
0
  0
ARC
  8
_0-0_
  6
CONTINUOUS
 62
    7
 10
16.33184662842757
 20
8.5615079267686269
 40
0.5
 50
0
 51
26.565051177077834
  0
ARC
  8
_0-0_
  6
CONTINUOUS
 62
    7
 10
15.922829634052619
 20
9.37954191551853
 40
0.5
 50
26.565051177077688
 51
90
  0
ARC
  8
_0-0_
  6
CONTINUOUS
 62
    7
 10
15.638953409614146
 20
15.779541915518621
 40
0.5
 50
90
 51
135.00000000000006
  0
ARC
  8
_0-0_
  6
CONTINUOUS
 62
    7
 10
28.22473984724104
 20
15.779541915518621
 40
0.5
 50
45.00000000000005
 51
90
  0
ARC
  8
_0-0_
  6
CONTINUOUS
 62
    7
 10
29.431846628427479
 20
14.572435134331954
 40
0.5
 50
0
 51
45
  0
ARC
  8
_0-0_
  6
CONTINUOUS
 62
    7
 10
14.431846628427479
 20
14.572435134331954
 40
0.5
 50
134.99999999999994
 51
180
  0
ARC
  8
_0-0_
  6
CONTINUOUS
 62
    7
 10
3.4318466284274791
 20
7.779541915518621
 40
1.4999999999999996
 50
180
 51
270
  0
CIRCLE
  8
_0-0_
  6
CONTINUOUS
 62
    7
 10
7.9318466284274791
 20
12.279541915518621
 40
4.2000000000000002
  0
ARC
  8
_0-0_
  6
CONTINUOUS
 62
    7
 10
21.931846628427479
 20
16.079541926392267
 40
0.4999999891261788
 50
45.001007080073833
 51
135.57299626091185
  0
ARC
  8
_0-0_
  6
CONTINUOUS
 62
    7
 10
21.217703790141172
 20
16.779541915518621
 40
0.5
 50
270
 51
315.57299626091304
  0
ARC
  8
_0-0_
  6
CONTINUOUS
 62
    7
 10
22.646060186187356
 20
16.779541915518621
 40
0.5
 50
225
 51
270
  0
ARC
  8
_0-0_
  6
CONTINUOUS
 62
    7
 10
28.931846628427479
 20
18.87954191551853
 40
0.5
 50
270
 51
0
  0
ARC
  8
_0-0_
  6
CONTINUOUS
 62
    7
 10
14.931846628427479
 20
18.87954191551853
 40
0.5
 50
180
 51
270
  0
ARC
  8
_0-0_
  6
CONTINUOUS
 62
    7
 10
28.931846628427479
 20
20.984851167263059
 40
0.5
 50
0
 51
74.999999999999972
  0
ARC
  8
_0-0_
  6
CONTINUOUS
 62
    7
 10
26.531846628427616
 20
22.663205409508009
 40
0.5
 50
180
 51
254.99999999999991
  0
ARC
  8
_0-0_
  6
CONTINUOUS
 62
    7
 10
14.931846628427479
 20
20.984851167263059
 40
0.5
 50
104.99999999999997
 51
180
  0
ARC
  8
_0-0_
  6
CONTINUOUS
 62
    7
 10
17.33184662842757
 20
22.663205409508009
 40
0.5
 50
285
 51
0
  0
ARC
  8
_0-0_
  6
CONTINUOUS
 62
    7
 10
28.931846628427479
 20
33.679541915518257
 40
0.5
 50
0
 51
90
  0
ARC
  8
_0-0_
  6
CONTINUOUS
 62
    7
 10
14.931846628427479
 20
33.679541915518257
 40
0.5
 50
90
 51
180
  0
ARC
  8
_0-0_
  6
CONTINUOUS
 62
    7
 10
28.931846628427479
 20
31.574232663773728
 40
0.5
 50
285
 51
0
  0
ARC
  8
_0-0_
  6
CONTINUOUS
 62
    7
 10
26.531846628427616
 20
29.895878421528778
 40
0.5
 50
105.00000000000001
 51
180
  0
ARC
  8
_0-0_
  6
CONTINUOUS
 62
    7
 10
14.931846628427479
 20
31.574232663773728
 40
0.5
 50
180
 51
255.00000000000003
  0
ARC
  8
_0-0_
  6
CONTINUOUS
 62
    7
 10
17.33184662842757
 20
29.895878421528778
 40
0.5
 50
0
 51
75.000000000000028
  0
LINE
  8
_0-1_
  6
CENTER2
 62
  152
 10
21.931846628427479
 20
46.279541915518621
 11
21.931846628427479
 21
6.279541915518621
  0
LINE
  8
_0-1_
  6
CENTER2
 62
  152
 10
31.931846628427479
 20
26.279541915518621
 11
1.9318466284274791
 21
26.279541915518621
  0
ENDSEC
  0
EOF
