  0
SECTION
  2
HEADER
  9
$ACADVER
  1
AC1009
  9
$INSBASE
 10
0
 20
0
 30
0
  9
$EXTMIN
 10
0
 20
0
  9
$EXTMAX
 10
1189
 20
841
  9
$LIMMIN
 10
0
 20
0
  9
$LIMMAX
 10
1189
 20
841
  9
$LTSCALE
 40
1
  0
ENDSEC
  0
SECTION
  2
TABLES
  0
TABLE
  2
LTYPE
 70
     9
  0
LTYPE
  2
CONTINUOUS
 70
    64
  3
実線
 72
    65
 73
     0
 40
0.0
  0
LTYPE
  2
DASHED1
 70
    64
  3
--  --  --  --  --  --  --  --  
 72
    65
 73
     2
 40
2.5
 49
1.25
 49
-1.25
  0
LTYPE
  2
DASHED2
 70
    64
  3
----    ----    ----    ----    
 72
    65
 73
     2
 40
5.0
 49
2.5
 49
-2.5
  0
LTYPE
  2
DASHED3
 70
    64
  3
------  ------  ------  ------  
 72
    65
 73
     2
 40
5.0
 49
3.75
 49
-1.25
  0
LTYPE
  2
CENTER1
 70
    64
  3
----- - ----- - ----- - ----- - 
 72
    65
 73
     4
 40
10.0
 49
6.25
 49
-1.25
 49
1.25
 49
-1.25
  0
LTYPE
  2
CENTER2
 70
    64
  3
----------  --  ----------  --  
 72
    65
 73
     4
 40
20.0
 49
12.5
 49
-2.5
 49
2.5
 49
-2.5
  0
LTYPE
  2
PHANTOM1
 70
    64
  3
--- - - --- - - --- - - --- - - 
 72
    65
 73
     6
 40
10.0
 49
3.25
 49
-1.25
 49
1.25
 49
-1.25
 49
1.25
 49
-1.25
  0
LTYPE
  2
PHANTOM2
 70
    64
  3
--------  -  -  --------  -  -  
 72
    65
 73
     6
 40
20.0
 49
10.0
 49
-2.5
 49
1.25
 49
-2.5
 49
1.25
 49
-2.5
  0
LTYPE
  2
DOT
 70
    64
  3
-   -   -   -   -   -   -   -   
 72
    65
 73
     2
 40
2.5
 49
0.625
 49
-1.875
  0
LTYPE
  2
DUMMY
 70
    64
  3
ダミー
 72
    65
 73
     0
 40
0.0
  0
LTYPE
  2
RAND1
 70
    64
  3
ランダム線1
 72
    65
 73
     4
 40
10.0
 49
1.0
 49
-2.0
 49
3.0
 49
-4.0
  0
LTYPE
  2
RAND2
 70
    64
  3
ランダム線2
 72
    65
 73
     4
 40
14.0
 49
2.0
 49
-3.0
 49
4.0
 49
-5.0
  0
LTYPE
  2
RAND3
 70
    64
  3
ランダム線3
 72
    65
 73
     4
 40
18.0
 49
3.0
 49
-4.0
 49
5.0
 49
-6.0
  0
LTYPE
  2
RAND4
 70
    64
  3
ランダム線4
 72
    65
 73
     4
 40
22.0
 49
4.0
 49
-5.0
 49
6.0
 49
-7.0
  0
LTYPE
  2
RAND5
 70
    64
  3
ランダム線5
 72
    65
 73
     4
 40
26.0
 49
5.0
 49
-6.0
 49
7.0
 49
-8.0
  0
LTYPE
  2
LONG1
 70
    64
  3
----------  --  ----------  --  
 72
    65
 73
     4
 40
40.0
 49
32.5
 49
-2.5
 49
2.5
 49
-2.5
  0
LTYPE
  2
LONG2
 70
    64
  3
--------  -  -  --------  -  -  
 72
    65
 73
     6
 40
40.0
 49
30.0
 49
-2.5
 49
1.25
 49
-2.5
 49
1.25
 49
-2.5
  0
LTYPE
  2
LONG3
 70
    64
  3
+++++++++++++++..+++++++++++++++
 72
    65
 73
     2
 40
40.0
 49
37.5
 49
-2.5
  0
LTYPE
  2
LONG4
 70
    64
  3
+++++++++++++++..+++++++++++++++
 72
    65
 73
     2
 40
80.0
 49
75.0
 49
-5.0
  0
LTYPE
  2
LONG5
 70
    64
  3
----------  --  ----------  --  
 72
    65
 73
     4
 40
60.0
 49
37.5
 49
-7.5
 49
7.5
 49
-7.5
  0
LTYPE
  2
dashed
 70
   64
  3
-------   -------------   ------
 72
   65
 73
    2
 40
7.5
 49
6
 49
-1.5
  0
LTYPE
  2
dashed_spaced
 70
   64
  3
----        --------        ----
 72
   65
 73
    2
 40
12
 49
6
 49
-6
  0
LTYPE
  2
long_dashed_dotted
 70
   64
  3
------------- --- --------------
 72
   65
 73
    4
 40
15.25
 49
12
 49
-1.5
 49
0.25
 49
-1.5
  0
LTYPE
  2
long_dashed_double-dotted
 70
   64
  3
----------- --- --- ------------
 72
   65
 73
    6
 40
17
 49
12
 49
-1.5
 49
0.25
 49
-1.5
 49
0.25
 49
-1.5
  0
LTYPE
  2
long_dashed_triplicate-dotted
 70
   64
  3
--------- --- --- --- ----------
 72
   65
 73
    8
 40
18.75
 49
12
 49
-1.5
 49
0.25
 49
-1.5
 49
0.25
 49
-1.5
 49
0.25
 49
-1.5
  0
LTYPE
  2
dotted
 70
   64
  3
   -       -       -       -    
 72
   65
 73
    2
 40
1.75
 49
0.25
 49
-1.5
  0
LTYPE
  2
chain
 70
   64
  3
-------------- -- --------------
 72
   65
 73
    4
 40
18.5
 49
12
 49
-1.5
 49
3.5
 49
-1.5
  0
LTYPE
  2
chain_double_dash
 70
   64
  3
------------ -- -- -------------
 72
   65
 73
    6
 40
23.5
 49
12
 49
-1.5
 49
3.5
 49
-1.5
 49
3.5
 49
-1.5
  0
LTYPE
  2
dashed_dotted
 70
   64
  3
-----------     -     ----------
 72
   65
 73
    4
 40
9.25
 49
6
 49
-1.5
 49
0.25
 49
-1.5
  0
LTYPE
  2
double-dashed_dotted
 70
   64
  3
------   -----------   -   -----
 72
   65
 73
    6
 40
16.75
 49
6
 49
-1.5
 49
6
 49
-1.5
 49
0.25
 49
-1.5
  0
LTYPE
  2
dashed_double-dotted
 70
   64
  3
---------    -    -    ---------
 72
   65
 73
    6
 40
11
 49
6
 49
-1.5
 49
0.25
 49
-1.5
 49
0.25
 49
-1.5
  0
LTYPE
  2
double-dashed_double-dotted
 70
   64
  3
-----   ---------   -   -   ----
 72
   65
 73
    8
 40
18.5
 49
6
 49
-1.5
 49
6
 49
-1.5
 49
0.25
 49
-1.5
 49
0.25
 49
-1.5
  0
LTYPE
  2
dashed_triplicate-dotted
 70
   64
  3
-------    -    -    -    ------
 72
   65
 73
    8
 40
12.75
 49
6
 49
-1.5
 49
0.25
 49
-1.5
 49
0.25
 49
-1.5
 49
0.25
 49
-1.5
  0
LTYPE
  2
double-dashed_triplicate-dotted
 70
   64
  3
-----  ---------  -  -  -  -----
 72
   65
 73
   10
 40
20.25
 49
6
 49
-1.5
 49
6
 49
-1.5
 49
0.25
 49
-1.5
 49
0.25
 49
-1.5
 49
0.25
 49
-1.5
  0
LTYPE
  2
undefined
 70
   64
  3
--------------------------------
 72
   65
 73
    0
 40
0
  0
ENDTAB
  0
TABLE
  2
STYLE
  5
3
100
AcDbSymbolTable
 70
     1
  0
STYLE
  5
10
100
AcDbSymbolTableRecord
100
AcDbTextStyleTableRecord
  2
STANDARD
 70
     0
 40
0.0
 41
1.0
 50
0.0
 71
     0
 42
0.2
  3
txt
  4
bigfont.shx
  0
STYLE
  5
26
100
AcDbSymbolTableRecord
100
AcDbTextStyleTableRecord
  2
TATEGAKI
 70
    68
 40
0.0
 41
1.0
 50
0.0
 71
     0
 42
1.0
  3
txt
  4
bigfont.shx
  0
ENDTAB
  0
TABLE
  2
LAYER
 70
    4
  0
LAYER
  2
_0-0_
 70
   64
 62
    7
  6
CONTINUOUS
  0
LAYER
  2
_0-1_
 70
   64
 62
    7
  6
CONTINUOUS
  0
LAYER
  2
_0-f_
 70
   64
 62
    7
  6
CONTINUOUS
  0
LAYER
  2
ADD_LINE
 70
   64
 62
    7
  6
CONTINUOUS
  0
ENDTAB
  0
ENDSEC
  0
SECTION
  2
BLOCKS
  0
ENDSEC
  0
SECTION
  2
ENTITIES
  0
ARC
  8
_0-0_
  6
CONTINUOUS
 62
    7
 10
17.833847791378275
 20
52.780840872804561
 40
0.5
 50
90
 51
180
  0
LINE
  8
_0-0_
  6
CONTINUOUS
 62
    7
 10
17.333847791378275
 20
55.180840872804652
 11
17.333847791378275
 21
61.581007782533277
  0
ARC
  8
_0-0_
  6
CONTINUOUS
 62
    7
 10
17.833847791378275
 20
55.180840872804652
 40
0.5
 50
180
 51
270
  0
LINE
  8
_0-0_
  6
CONTINUOUS
 62
    7
 10
32.433847791378639
 20
54.680840872804595
 11
17.833847791378275
 21
54.680840872804652
  0
LINE
  8
_0-0_
  6
CONTINUOUS
 62
    7
 10
32.933847791378639
 20
55.180840872804595
 11
32.933847791378639
 21
61.581007782532765
  0
ARC
  8
_0-0_
  6
CONTINUOUS
 62
    7
 10
32.433847791378639
 20
55.180840872804595
 40
0.5
 50
270
 51
0
  0
LINE
  8
_0-0_
  6
CONTINUOUS
 62
    7
 10
32.433847791378639
 20
53.280840872804504
 11
17.833847791378275
 21
53.280840872804561
  0
ARC
  8
_0-0_
  6
CONTINUOUS
 62
    7
 10
32.433847791378639
 20
52.780840872804504
 40
0.5
 50
0
 51
90
  0
LINE
  8
_0-0_
  6
CONTINUOUS
 62
    7
 10
17.333847791378275
 20
30.380673963076447
 11
17.333847791378275
 21
52.780840872804561
  0
LINE
  8
_0-0_
  6
CONTINUOUS
 62
    7
 10
32.933847791378639
 20
30.380673963076447
 11
32.933847791378639
 21
52.780840872804504
  0
LINE
  8
_0-0_
  6
CONTINUOUS
 62
    7
 10
35.433847791378639
 20
75.480840872804606
 11
41.033847791378548
 21
75.480840872804606
  0
LINE
  8
_0-0_
  6
CONTINUOUS
 62
    7
 10
30.92674101019179
 20
115.98084087280461
 11
19.340954572565124
 21
115.98084087280461
  0
LINE
  8
_0-0_
  6
CONTINUOUS
 62
    7
 10
17.133847791378457
 20
118.18794765399127
 11
17.133847791378457
 21
121.8808408728047
  0
ARC
  8
_0-0_
  6
CONTINUOUS
 62
    7
 10
32.633847791378457
 20
118.18794765399127
 40
0.5
 50
314.99999999999824
 51
0
  0
LINE
  8
_0-0_
  6
CONTINUOUS
 62
    7
 10
33.133847791378457
 20
118.18794765399127
 11
33.133847791378457
 21
121.8808408728047
  0
LINE
  8
_0-0_
  6
CONTINUOUS
 62
    7
 10
32.987401181971791
 20
117.83439426339794
 11
31.280294400785124
 21
116.12728748221173
  0
ARC
  8
_0-0_
  6
CONTINUOUS
 62
    7
 10
30.92674101019179
 20
116.48084087280461
 40
0.5
 50
270
 51
315
  0
ARC
  8
_0-0_
  6
CONTINUOUS
 62
    7
 10
37.340954572565124
 20
18.480840872804606
 40
0.5
 50
225.00000000000179
 51
270
  0
LINE
  8
_0-0_
  6
CONTINUOUS
 62
    7
 10
37.340954572565124
 20
17.980840872804606
 11
41.033847791378548
 21
17.980840872804606
  0
LINE
  8
_0-0_
  6
CONTINUOUS
 62
    7
 10
36.987401181971791
 20
18.127287482211273
 11
35.280294400785124
 21
19.83439426339794
  0
ARC
  8
_0-0_
  6
CONTINUOUS
 62
    7
 10
35.633847791378457
 20
20.187947653991273
 40
0.5
 50
180
 51
225
  0
ARC
  8
_0-0_
  6
CONTINUOUS
 62
    7
 10
14.633847791378457
 20
20.187947653991273
 40
0.5
 50
314.99999999999824
 51
0
  0
LINE
  8
_0-0_
  6
CONTINUOUS
 62
    7
 10
14.987401181971791
 20
19.83439426339794
 11
13.280294400785124
 21
18.127287482211727
  0
ARC
  8
_0-0_
  6
CONTINUOUS
 62
    7
 10
12.92674101019179
 20
18.480840872804606
 40
0.5
 50
270
 51
315
  0
LINE
  8
_0-0_
  6
CONTINUOUS
 62
    7
 10
12.92674101019179
 20
17.980840872804606
 11
9.2338477913783663
 21
17.980840872804606
  0
LINE
  8
_0-0_
  6
CONTINUOUS
 62
    7
 10
37.133847791378457
 20
113.98084087280461
 11
35.133847791378457
 21
111.98084087280461
  0
LINE
  8
_0-0_
  6
CONTINUOUS
 62
    7
 10
37.133847791378457
 20
113.98084087280461
 11
41.033847791378548
 21
113.98084087280461
  0
ARC
  8
_0-0_
  6
CONTINUOUS
 62
    7
 10
12.92674101019179
 20
113.48084087280461
 40
0.5
 50
45.000000000001783
 51
90.000000000000057
  0
ARC
  8
_0-0_
  6
CONTINUOUS
 62
    7
 10
14.633847791378457
 20
111.77373409161839
 40
0.5
 50
0
 51
45
  0
ARC
  8
_0-0_
  6
CONTINUOUS
 62
    7
 10
19.340954572565124
 20
116.48084087280461
 40
0.5
 50
225.00000000000179
 51
270
  0
LINE
  8
_0-0_
  6
CONTINUOUS
 62
    7
 10
18.987401181971791
 20
116.12728748221127
 11
17.280294400785124
 21
117.83439426339794
  0
ARC
  8
_0-0_
  6
CONTINUOUS
 62
    7
 10
17.633847791378457
 20
118.18794765399127
 40
0.5
 50
180
 51
225
  0
ARC
  8
_0-0_
  6
CONTINUOUS
 62
    7
 10
35.633847791378457
 20
33.480840872804606
 40
0.5
 50
90
 51
180
  0
LINE
  8
_0-0_
  6
CONTINUOUS
 62
    7
 10
35.633847791378457
 20
33.980840872804606
 11
41.033847791378548
 21
33.980840872804606
  0
ARC
  8
_0-0_
  6
CONTINUOUS
 62
    7
 10
14.633847791378457
 20
33.480840872804606
 40
0.5
 50
0
 51
90.000000000000014
  0
LINE
  8
_0-0_
  6
CONTINUOUS
 62
    7
 10
14.633847791378457
 20
33.980840872804663
 11
9.2338477913783663
 21
33.980840872804663
  0
ARC
  8
_0-0_
  6
CONTINUOUS
 62
    7
 10
14.633847791378457
 20
58.480840872804663
 40
0.5
 50
270
 51
0
  0
LINE
  8
_0-0_
  6
CONTINUOUS
 62
    7
 10
14.633847791378457
 20
57.980840872804663
 11
9.2338477913783663
 21
57.980840872804663
  0
ARC
  8
_0-0_
  6
CONTINUOUS
 62
    7
 10
35.633847791378457
 20
58.480840872804606
 40
0.5
 50
180
 51
270
  0
LINE
  8
_0-0_
  6
CONTINUOUS
 62
    7
 10
35.633847791378457
 20
57.980840872804606
 11
41.033847791378548
 21
57.980840872804606
  0
ARC
  8
_0-0_
  6
CONTINUOUS
 62
    7
 10
35.633847791378457
 20
73.480840872804606
 40
0.5
 50
90
 51
180
  0
LINE
  8
_0-0_
  6
CONTINUOUS
 62
    7
 10
35.633847791378457
 20
73.980840872804606
 11
41.033847791378548
 21
73.980840872804606
  0
ARC
  8
_0-0_
  6
CONTINUOUS
 62
    7
 10
14.633847791378457
 20
73.480840872804606
 40
0.5
 50
0
 51
90.000000000000014
  0
LINE
  8
_0-0_
  6
CONTINUOUS
 62
    7
 10
14.633847791378457
 20
73.980840872804606
 11
9.2338477913783663
 21
73.980840872804606
  0
ARC
  8
_0-0_
  6
CONTINUOUS
 62
    7
 10
35.633847791378457
 20
98.480840872804606
 40
0.5
 50
180
 51
270
  0
LINE
  8
_0-0_
  6
CONTINUOUS
 62
    7
 10
35.633847791378457
 20
97.980840872804606
 11
41.033847791378548
 21
97.980840872804606
  0
ARC
  8
_0-0_
  6
CONTINUOUS
 62
    7
 10
14.633847791378457
 20
98.480840872804606
 40
0.5
 50
270
 51
0
  0
LINE
  8
_0-0_
  6
CONTINUOUS
 62
    7
 10
14.633847791378457
 20
97.980840872804606
 11
9.2338477913783663
 21
97.980840872804606
  0
ARC
  8
_0-0_
  6
CONTINUOUS
 62
    7
 10
17.833847791378275
 20
21.581007782532765
 40
0.5
 50
95.314545669945076
 51
180
  0
LINE
  8
_0-0_
  6
CONTINUOUS
 62
    7
 10
17.787536106913421
 20
22.078858390528808
 11
20.761634802057188
 21
22.355518734263228
  0
LINE
  8
_0-0_
  6
CONTINUOUS
 62
    7
 10
17.333847791378275
 20
21.581007782532765
 11
17.333847791378275
 21
18.480840872804606
  0
ARC
  8
_0-0_
  6
CONTINUOUS
 62
    7
 10
32.433847791378639
 20
18.480840872804606
 40
0.5
 50
270
 51
0
  0
LINE
  8
_0-0_
  6
CONTINUOUS
 62
    7
 10
32.933847791378639
 20
18.480840872804606
 11
32.933847791378639
 21
21.581007782532765
  0
LINE
  8
_0-0_
  6
CONTINUOUS
 62
    7
 10
32.433847791378639
 20
17.980840872804606
 11
17.833847791378275
 21
17.980840872804606
  0
ARC
  8
_0-0_
  6
CONTINUOUS
 62
    7
 10
17.833847791378275
 20
18.480840872804606
 40
0.5
 50
180
 51
270
  0
ARC
  8
_0-0_
  6
CONTINUOUS
 62
    7
 10
32.433847791378639
 20
21.581007782532765
 40
0.5
 50
0
 51
84.685454330054924
  0
LINE
  8
_0-0_
  6
CONTINUOUS
 62
    7
 10
32.480159475843493
 20
22.078858390528808
 11
29.506060780699727
 21
22.355518734263228
  0
ARC
  8
_0-0_
  6
CONTINUOUS
 62
    7
 10
32.433847791378639
 20
30.380673963076447
 40
0.5
 50
275.31454566994506
 51
0
  0
LINE
  8
_0-0_
  6
CONTINUOUS
 62
    7
 10
32.480159475843493
 20
29.882823355080404
 11
29.506060780699727
 21
29.606163011345984
  0
ARC
  8
_0-0_
  6
CONTINUOUS
 62
    7
 10
17.833847791378275
 20
30.380673963076447
 40
0.5
 50
180
 51
264.68545433005494
  0
LINE
  8
_0-0_
  6
CONTINUOUS
 62
    7
 10
17.787536106913421
 20
29.882823355080404
 11
20.761634802057188
 21
29.606163011345984
  0
ARC
  8
_0-0_
  6
CONTINUOUS
 62
    7
 10
32.433847791378639
 20
61.581007782532765
 40
0.5
 50
0
 51
84.685454330054924
  0
LINE
  8
_0-0_
  6
CONTINUOUS
 62
    7
 10
32.480159475843493
 20
62.078858390528808
 11
29.506060780699727
 21
62.355518734263228
  0
ARC
  8
_0-0_
  6
CONTINUOUS
 62
    7
 10
17.833847791378275
 20
61.581007782532822
 40
0.5
 50
95.314545669945076
 51
180
  0
LINE
  8
_0-0_
  6
CONTINUOUS
 62
    7
 10
17.787536106913421
 20
62.078858390529319
 11
20.761634802057188
 21
62.355518734263285
  0
ARC
  8
_0-0_
  6
CONTINUOUS
 62
    7
 10
20.733847791378366
 20
62.654229099060728
 40
0.3
 50
275.31454566994421
 51
359.99999999999994
  0
ARC
  8
_0-0_
  6
CONTINUOUS
 62
    7
 10
29.533847791378548
 20
62.654229099060672
 40
0.3
 50
180.00000000000006
 51
264.68545433005573
  0
LINE
  8
_0-0_
  6
CONTINUOUS
 62
    7
 10
21.033847791378548
 20
29.307452646548541
 11
21.033847791378548
 21
22.654229099060672
  0
ARC
  8
_0-0_
  6
CONTINUOUS
 62
    7
 10
20.733847791378366
 20
22.654229099060672
 40
0.3
 50
275.31454566994421
 51
359.99999999999994
  0
ARC
  8
_0-0_
  6
CONTINUOUS
 62
    7
 10
20.733847791378366
 20
29.307452646548541
 40
0.3
 50
0.0000000000000254
 51
84.685454330055734
  0
LINE
  8
_0-0_
  6
CONTINUOUS
 62
    7
 10
29.233847791378366
 20
29.307452646548541
 11
29.233847791378366
 21
22.654229099060672
  0
ARC
  8
_0-0_
  6
CONTINUOUS
 62
    7
 10
29.533847791378548
 20
22.654229099060672
 40
0.3
 50
180.00000000000006
 51
264.68545433005573
  0
ARC
  8
_0-0_
  6
CONTINUOUS
 62
    7
 10
29.533847791378548
 20
29.307452646548541
 40
0.3
 50
95.314545669944266
 51
179.99999999999997
  0
LINE
  8
_0-0_
  6
CONTINUOUS
 62
    7
 10
34.933847791378639
 20
55.980840872804606
 11
34.933847791378639
 21
35.980840872804606
  0
ARC
  8
_0-0_
  6
CONTINUOUS
 62
    7
 10
35.433847791378639
 20
35.980840872804606
 40
0.4999999999999998
 50
180
 51
270
  0
LINE
  8
_0-0_
  6
CONTINUOUS
 62
    7
 10
35.433847791378639
 20
35.480840872804606
 11
41.033847791378548
 21
35.480840872804606
  0
ARC
  8
_0-0_
  6
CONTINUOUS
 62
    7
 10
35.433847791378639
 20
55.980840872804606
 40
0.5
 50
90.000000000000028
 51
180.00000000000003
  0
LINE
  8
_0-0_
  6
CONTINUOUS
 62
    7
 10
35.433847791378639
 20
56.480840872804606
 11
41.033847791378548
 21
56.480840872804606
  0
LINE
  8
_0-0_
  6
CONTINUOUS
 62
    7
 10
15.333847791378275
 20
55.980840872804663
 11
15.333847791378275
 21
35.980840872804663
  0
ARC
  8
_0-0_
  6
CONTINUOUS
 62
    7
 10
14.833847791378275
 20
35.980840872804663
 40
0.4999999999999998
 50
270
 51
0
  0
LINE
  8
_0-0_
  6
CONTINUOUS
 62
    7
 10
14.833847791378275
 20
35.480840872804663
 11
9.2338477913783663
 21
35.480840872804663
  0
ARC
  8
_0-0_
  6
CONTINUOUS
 62
    7
 10
14.833847791378275
 20
55.980840872804663
 40
0.5
 50
0
 51
90
  0
LINE
  8
_0-0_
  6
CONTINUOUS
 62
    7
 10
14.833847791378275
 20
56.480840872804663
 11
9.2338477913783663
 21
56.480840872804663
  0
LINE
  8
_0-0_
  6
CONTINUOUS
 62
    7
 10
34.933847791378639
 20
95.980840872804606
 11
34.933847791378639
 21
75.980840872804606
  0
ARC
  8
_0-0_
  6
CONTINUOUS
 62
    7
 10
35.433847791378639
 20
75.980840872804606
 40
0.4999999999999998
 50
180
 51
270
  0
ARC
  8
_0-0_
  6
CONTINUOUS
 62
    7
 10
35.433847791378639
 20
95.980840872804606
 40
0.5
 50
90.000000000000028
 51
180.00000000000003
  0
LINE
  8
_0-0_
  6
CONTINUOUS
 62
    7
 10
35.433847791378639
 20
96.480840872804606
 11
41.033847791378548
 21
96.480840872804606
  0
LINE
  8
_0-0_
  6
CONTINUOUS
 62
    7
 10
15.333847791378275
 20
95.980840872804606
 11
15.333847791378275
 21
75.980840872804606
  0
ARC
  8
_0-0_
  6
CONTINUOUS
 62
    7
 10
14.833847791378275
 20
75.980840872804606
 40
0.4999999999999998
 50
270
 51
0
  0
LINE
  8
_0-0_
  6
CONTINUOUS
 62
    7
 10
14.833847791378275
 20
75.480840872804606
 11
9.2338477913783663
 21
75.480840872804606
  0
ARC
  8
_0-0_
  6
CONTINUOUS
 62
    7
 10
14.833847791378275
 20
95.980840872804606
 40
0.5
 50
0
 51
90
  0
LINE
  8
_0-0_
  6
CONTINUOUS
 62
    7
 10
14.833847791378275
 20
96.480840872804606
 11
9.2338477913783663
 21
96.480840872804606
  0
ARC
  8
_0-0_
  6
CONTINUOUS
 62
    7
 10
9.2338477913783663
 20
33.480840872804606
 40
0.5
 50
90
 51
180
  0
LINE
  8
_0-0_
  6
CONTINUOUS
 62
    7
 10
8.7338477913783663
 20
33.480840872804606
 11
8.7338477913783663
 21
31.989857867179239
  0
ARC
  8
_0-0_
  6
CONTINUOUS
 62
    7
 10
8.2338477913783663
 20
31.989857867179239
 40
0.5
 50
296.56505117706848
 51
0
  0
LINE
  8
_0-0_
  6
CONTINUOUS
 62
    7
 10
8.4574545891284743
 20
31.542644271679478
 11
7.6394206003785712
 21
31.133627277304754
  0
ARC
  8
_0-0_
  6
CONTINUOUS
 62
    7
 10
7.4158138026284632
 20
31.580840872804515
 40
0.5
 50
269.99999999999994
 51
296.56505117707792
  0
LINE
  8
_0-0_
  6
CONTINUOUS
 62
    7
 10
7.4158138026284632
 20
31.080840872804515
 11
5.6338477913784573
 21
31.080840872804572
  0
ARC
  8
_0-0_
  6
CONTINUOUS
 62
    7
 10
5.6338477913784573
 20
31.580840872804572
 40
0.5
 50
180
 51
270
  0
ARC
  8
_0-0_
  6
CONTINUOUS
 62
    7
 10
9.2338477913783663
 20
18.480840872804606
 40
0.5
 50
180
 51
270
  0
LINE
  8
_0-0_
  6
CONTINUOUS
 62
    7
 10
8.7338477913783663
 20
18.480840872804606
 11
8.7338477913783663
 21
19.971823878429973
  0
ARC
  8
_0-0_
  6
CONTINUOUS
 62
    7
 10
8.2338477913783663
 20
19.971823878429973
 40
0.5
 50
0
 51
63.434948822931524
  0
LINE
  8
_0-0_
  6
CONTINUOUS
 62
    7
 10
8.4574545891284743
 20
20.419037473929734
 11
7.6394206003785712
 21
20.828054468304458
  0
ARC
  8
_0-0_
  6
CONTINUOUS
 62
    7
 10
7.4158138026284632
 20
20.380840872804697
 40
0.5
 50
63.43494882292206
 51
90.000000000000057
  0
LINE
  8
_0-0_
  6
CONTINUOUS
 62
    7
 10
7.4158138026284632
 20
20.880840872804697
 11
5.6338477913784573
 21
20.880840872804697
  0
ARC
  8
_0-0_
  6
CONTINUOUS
 62
    7
 10
5.6338477913784573
 20
20.380840872804697
 40
0.5
 50
90
 51
180
  0
ARC
  8
_0-0_
  6
CONTINUOUS
 62
    7
 10
9.2338477913783663
 20
73.480840872804606
 40
0.5
 50
90
 51
180
  0
LINE
  8
_0-0_
  6
CONTINUOUS
 62
    7
 10
8.7338477913783663
 20
73.480840872804606
 11
8.7338477913783663
 21
71.989857867179296
  0
ARC
  8
_0-0_
  6
CONTINUOUS
 62
    7
 10
8.2338477913783663
 20
71.989857867179296
 40
0.5
 50
296.56505117706848
 51
0
  0
LINE
  8
_0-0_
  6
CONTINUOUS
 62
    7
 10
8.4574545891284743
 20
71.542644271679535
 11
7.6394206003785712
 21
71.133627277304811
  0
ARC
  8
_0-0_
  6
CONTINUOUS
 62
    7
 10
7.4158138026284632
 20
71.580840872804572
 40
0.5
 50
269.99999999999994
 51
296.56505117707792
  0
LINE
  8
_0-0_
  6
CONTINUOUS
 62
    7
 10
7.4158138026284632
 20
71.080840872804572
 11
5.6338477913784573
 21
71.080840872804572
  0
ARC
  8
_0-0_
  6
CONTINUOUS
 62
    7
 10
5.6338477913784573
 20
71.580840872804572
 40
0.5
 50
180
 51
270
  0
ARC
  8
_0-0_
  6
CONTINUOUS
 62
    7
 10
9.2338477913783663
 20
58.480840872804663
 40
0.5
 50
180
 51
270
  0
LINE
  8
_0-0_
  6
CONTINUOUS
 62
    7
 10
8.7338477913783663
 20
58.480840872804663
 11
8.7338477913783663
 21
59.97182387843003
  0
ARC
  8
_0-0_
  6
CONTINUOUS
 62
    7
 10
8.2338477913783663
 20
59.97182387843003
 40
0.5
 50
0
 51
63.434948822931524
  0
LINE
  8
_0-0_
  6
CONTINUOUS
 62
    7
 10
8.4574545891284743
 20
60.419037473929791
 11
7.6394206003785712
 21
60.828054468304515
  0
ARC
  8
_0-0_
  6
CONTINUOUS
 62
    7
 10
7.4158138026284632
 20
60.380840872804754
 40
0.5
 50
63.43494882292206
 51
90.000000000000057
  0
LINE
  8
_0-0_
  6
CONTINUOUS
 62
    7
 10
7.4158138026284632
 20
60.880840872804754
 11
5.6338477913784573
 21
60.880840872804754
  0
ARC
  8
_0-0_
  6
CONTINUOUS
 62
    7
 10
5.6338477913784573
 20
60.380840872804754
 40
0.5
 50
90
 51
180
  0
ARC
  8
_0-0_
  6
CONTINUOUS
 62
    7
 10
9.2338477913783663
 20
113.48084087280461
 40
0.5
 50
90
 51
180
  0
LINE
  8
_0-0_
  6
CONTINUOUS
 62
    7
 10
8.7338477913783663
 20
113.48084087280461
 11
8.7338477913783663
 21
111.98985786717924
  0
ARC
  8
_0-0_
  6
CONTINUOUS
 62
    7
 10
8.2338477913783663
 20
111.98985786717924
 40
0.5
 50
296.56505117706848
 51
0
  0
LINE
  8
_0-0_
  6
CONTINUOUS
 62
    7
 10
8.4574545891284743
 20
111.54264427167948
 11
7.6394206003785712
 21
111.13362727730475
  0
ARC
  8
_0-0_
  6
CONTINUOUS
 62
    7
 10
7.4158138026284632
 20
111.58084087280452
 40
0.5
 50
269.99999999999994
 51
296.56505117707792
  0
LINE
  8
_0-0_
  6
CONTINUOUS
 62
    7
 10
7.4158138026284632
 20
111.08084087280452
 11
5.6338477913784573
 21
111.08084087280452
  0
ARC
  8
_0-0_
  6
CONTINUOUS
 62
    7
 10
5.6338477913784573
 20
111.58084087280452
 40
0.5
 50
180
 51
270
  0
ARC
  8
_0-0_
  6
CONTINUOUS
 62
    7
 10
9.2338477913783663
 20
98.480840872804606
 40
0.5
 50
180
 51
270
  0
LINE
  8
_0-0_
  6
CONTINUOUS
 62
    7
 10
8.7338477913783663
 20
98.480840872804606
 11
8.7338477913783663
 21
99.971823878429973
  0
ARC
  8
_0-0_
  6
CONTINUOUS
 62
    7
 10
8.2338477913783663
 20
99.971823878429973
 40
0.5
 50
0
 51
63.434948822931524
  0
LINE
  8
_0-0_
  6
CONTINUOUS
 62
    7
 10
8.4574545891284743
 20
100.41903747392973
 11
7.6394206003785712
 21
100.82805446830446
  0
ARC
  8
_0-0_
  6
CONTINUOUS
 62
    7
 10
7.4158138026284632
 20
100.3808408728047
 40
0.5
 50
63.43494882292206
 51
90.000000000000057
  0
LINE
  8
_0-0_
  6
CONTINUOUS
 62
    7
 10
7.4158138026284632
 20
100.8808408728047
 11
5.6338477913784573
 21
100.8808408728047
  0
ARC
  8
_0-0_
  6
CONTINUOUS
 62
    7
 10
5.6338477913784573
 20
100.3808408728047
 40
0.5
 50
90
 51
180
  0
ARC
  8
_0-0_
  6
CONTINUOUS
 62
    7
 10
41.033847791378548
 20
18.480840872804606
 40
0.5
 50
270
 51
0
  0
LINE
  8
_0-0_
  6
CONTINUOUS
 62
    7
 10
41.533847791378548
 20
18.480840872804606
 11
41.533847791378548
 21
19.971823878429973
  0
ARC
  8
_0-0_
  6
CONTINUOUS
 62
    7
 10
42.033847791378548
 20
19.971823878429973
 40
0.5
 50
116.56505117706847
 51
180
  0
LINE
  8
_0-0_
  6
CONTINUOUS
 62
    7
 10
41.81024099362844
 20
20.419037473929734
 11
42.628274982378343
 21
20.828054468304458
  0
ARC
  8
_0-0_
  6
CONTINUOUS
 62
    7
 10
42.851881780128451
 20
20.380840872804697
 40
0.5
 50
89.999999999999943
 51
116.56505117707795
  0
LINE
  8
_0-0_
  6
CONTINUOUS
 62
    7
 10
42.851881780128451
 20
20.880840872804697
 11
44.633847791378457
 21
20.880840872804697
  0
ARC
  8
_0-0_
  6
CONTINUOUS
 62
    7
 10
44.633847791378457
 20
20.380840872804697
 40
0.5
 50
0
 51
90
  0
ARC
  8
_0-0_
  6
CONTINUOUS
 62
    7
 10
41.033847791378548
 20
33.480840872804606
 40
0.5
 50
0
 51
90
  0
LINE
  8
_0-0_
  6
CONTINUOUS
 62
    7
 10
41.533847791378548
 20
33.480840872804606
 11
41.533847791378548
 21
31.989857867179239
  0
ARC
  8
_0-0_
  6
CONTINUOUS
 62
    7
 10
42.033847791378548
 20
31.989857867179239
 40
0.5
 50
180
 51
243.43494882293152
  0
LINE
  8
_0-0_
  6
CONTINUOUS
 62
    7
 10
41.81024099362844
 20
31.542644271679478
 11
42.628274982378343
 21
31.133627277304754
  0
ARC
  8
_0-0_
  6
CONTINUOUS
 62
    7
 10
42.851881780128451
 20
31.580840872804515
 40
0.5
 50
243.43494882292205
 51
270.00000000000006
  0
LINE
  8
_0-0_
  6
CONTINUOUS
 62
    7
 10
42.851881780128451
 20
31.080840872804515
 11
44.633847791378457
 21
31.080840872804515
  0
ARC
  8
_0-0_
  6
CONTINUOUS
 62
    7
 10
44.633847791378457
 20
31.580840872804515
 40
0.5
 50
270
 51
0.0000000000000127
  0
ARC
  8
_0-0_
  6
CONTINUOUS
 62
    7
 10
41.033847791378548
 20
58.480840872804606
 40
0.5
 50
270
 51
0
  0
LINE
  8
_0-0_
  6
CONTINUOUS
 62
    7
 10
41.533847791378548
 20
58.480840872804606
 11
41.533847791378548
 21
59.971823878429973
  0
ARC
  8
_0-0_
  6
CONTINUOUS
 62
    7
 10
42.033847791378548
 20
59.971823878429973
 40
0.5
 50
116.56505117706847
 51
180
  0
LINE
  8
_0-0_
  6
CONTINUOUS
 62
    7
 10
41.81024099362844
 20
60.419037473929734
 11
42.628274982378343
 21
60.828054468304458
  0
ARC
  8
_0-0_
  6
CONTINUOUS
 62
    7
 10
42.851881780128451
 20
60.380840872804697
 40
0.5
 50
89.999999999999943
 51
116.56505117707795
  0
LINE
  8
_0-0_
  6
CONTINUOUS
 62
    7
 10
42.851881780128451
 20
60.880840872804697
 11
44.633847791378457
 21
60.880840872804697
  0
ARC
  8
_0-0_
  6
CONTINUOUS
 62
    7
 10
44.633847791378457
 20
60.380840872804697
 40
0.5
 50
0
 51
90
  0
ARC
  8
_0-0_
  6
CONTINUOUS
 62
    7
 10
41.033847791378548
 20
73.480840872804606
 40
0.5
 50
0
 51
90
  0
LINE
  8
_0-0_
  6
CONTINUOUS
 62
    7
 10
41.533847791378548
 20
73.480840872804606
 11
41.533847791378548
 21
71.989857867179239
  0
ARC
  8
_0-0_
  6
CONTINUOUS
 62
    7
 10
42.033847791378548
 20
71.989857867179239
 40
0.5
 50
180
 51
243.43494882293152
  0
LINE
  8
_0-0_
  6
CONTINUOUS
 62
    7
 10
41.81024099362844
 20
71.542644271679478
 11
42.628274982378343
 21
71.133627277304754
  0
ARC
  8
_0-0_
  6
CONTINUOUS
 62
    7
 10
42.851881780128451
 20
71.580840872804515
 40
0.5
 50
243.43494882292205
 51
270.00000000000006
  0
LINE
  8
_0-0_
  6
CONTINUOUS
 62
    7
 10
42.851881780128451
 20
71.080840872804515
 11
44.633847791378457
 21
71.080840872804515
  0
ARC
  8
_0-0_
  6
CONTINUOUS
 62
    7
 10
44.633847791378457
 20
71.580840872804515
 40
0.5
 50
270
 51
0.0000000000000127
  0
ARC
  8
_0-0_
  6
CONTINUOUS
 62
    7
 10
41.033847791378548
 20
98.480840872804606
 40
0.5
 50
270
 51
0
  0
LINE
  8
_0-0_
  6
CONTINUOUS
 62
    7
 10
41.533847791378548
 20
98.480840872804606
 11
41.533847791378548
 21
99.971823878429973
  0
ARC
  8
_0-0_
  6
CONTINUOUS
 62
    7
 10
42.033847791378548
 20
99.971823878429973
 40
0.5
 50
116.56505117706847
 51
180
  0
LINE
  8
_0-0_
  6
CONTINUOUS
 62
    7
 10
41.81024099362844
 20
100.41903747392973
 11
42.628274982378343
 21
100.82805446830446
  0
ARC
  8
_0-0_
  6
CONTINUOUS
 62
    7
 10
42.851881780128451
 20
100.3808408728047
 40
0.5
 50
89.999999999999943
 51
116.56505117707795
  0
LINE
  8
_0-0_
  6
CONTINUOUS
 62
    7
 10
42.851881780128451
 20
100.8808408728047
 11
44.633847791378457
 21
100.8808408728047
  0
ARC
  8
_0-0_
  6
CONTINUOUS
 62
    7
 10
44.633847791378457
 20
100.3808408728047
 40
0.5
 50
0
 51
90
  0
ARC
  8
_0-0_
  6
CONTINUOUS
 62
    7
 10
41.033847791378548
 20
113.48084087280461
 40
0.5
 50
0
 51
90
  0
LINE
  8
_0-0_
  6
CONTINUOUS
 62
    7
 10
41.533847791378548
 20
113.48084087280461
 11
41.533847791378548
 21
111.98985786717924
  0
ARC
  8
_0-0_
  6
CONTINUOUS
 62
    7
 10
42.033847791378548
 20
111.98985786717924
 40
0.5
 50
180
 51
243.43494882293152
  0
LINE
  8
_0-0_
  6
CONTINUOUS
 62
    7
 10
41.81024099362844
 20
111.54264427167948
 11
42.628274982378343
 21
111.13362727730475
  0
ARC
  8
_0-0_
  6
CONTINUOUS
 62
    7
 10
42.851881780128451
 20
111.58084087280452
 40
0.5
 50
243.43494882292205
 51
270.00000000000006
  0
LINE
  8
_0-0_
  6
CONTINUOUS
 62
    7
 10
42.851881780128451
 20
111.08084087280452
 11
44.633847791378457
 21
111.08084087280452
  0
ARC
  8
_0-0_
  6
CONTINUOUS
 62
    7
 10
44.633847791378457
 20
111.58084087280452
 40
0.5
 50
270
 51
0.0000000000000127
  0
LINE
  8
_0-0_
  6
CONTINUOUS
 62
    7
 10
21.033847791378548
 20
62.654229099060728
 11
21.033847791378548
 21
69.307452646548597
  0
LINE
  8
_0-0_
  6
CONTINUOUS
 62
    7
 10
29.233847791378366
 20
62.654229099060672
 11
29.233847791378366
 21
69.307452646548541
  0
LINE
  8
_0-0_
  6
CONTINUOUS
 62
    7
 10
45.133847791378457
 20
31.580840872804515
 11
45.133847791378457
 21
60.380840872804242
  0
LINE
  8
_0-0_
  6
CONTINUOUS
 62
    7
 10
45.133847791378457
 20
100.3808408728047
 11
45.133847791378457
 21
71.580840872804515
  0
LINE
  8
_0-0_
  6
CONTINUOUS
 62
    7
 10
5.1338477913784573
 20
31.580840872804572
 11
5.1338477913784573
 21
60.380840872804754
  0
LINE
  8
_0-0_
  6
CONTINUOUS
 62
    7
 10
5.1338477913784573
 20
100.3808408728047
 11
5.1338477913784573
 21
71.580840872805027
  0
LINE
  8
_0-0_
  6
CONTINUOUS
 62
    7
 10
5.1338477913784573
 20
111.58084087280452
 11
5.1338477913784573
 21
124.48084087280461
  0
LINE
  8
_0-0_
  6
CONTINUOUS
 62
    7
 10
45.133847791378457
 20
111.58084087280452
 11
45.133847791378457
 21
124.48084087280461
  0
LINE
  8
_0-0_
  6
CONTINUOUS
 62
    7
 10
15.633847791378003
 20
115.98084087280461
 11
15.633847791378003
 21
121.8808408728047
  0
LINE
  8
_0-0_
  6
CONTINUOUS
 62
    7
 10
15.133847791378457
 20
115.48084087280461
 11
9.2338477913783663
 21
115.48084087280461
  0
ARC
  8
_0-0_
  6
CONTINUOUS
 62
    7
 10
7.0338477913785482
 20
124.08084087280452
 40
0.5
 50
90
 51
180
  0
ARC
  8
_0-0_
  6
CONTINUOUS
 62
    7
 10
15.133847791378457
 20
115.98084087280461
 40
0.5
 50
270
 51
0
  0
LINE
  8
_0-0_
  6
CONTINUOUS
 62
    7
 10
30.733847791378366
 20
125.98084087280461
 11
43.633847791378457
 21
125.98084087280461
  0
LINE
  8
_0-0_
  6
CONTINUOUS
 62
    7
 10
6.6338477913784573
 20
125.98084087280461
 11
19.533847791378548
 21
125.98084087280461
  0
ARC
  8
_0-0_
  6
CONTINUOUS
 62
    7
 10
32.633847791378457
 20
121.8808408728047
 40
0.5
 50
0
 51
90
  0
LINE
  8
_0-0_
  6
CONTINUOUS
 62
    7
 10
32.633847791378457
 20
122.3808408728047
 11
31.14286478575309
 21
122.3808408728047
  0
ARC
  8
_0-0_
  6
CONTINUOUS
 62
    7
 10
31.14286478575309
 20
122.8808408728047
 40
0.5
 50
206.56505117706848
 51
270
  0
LINE
  8
_0-0_
  6
CONTINUOUS
 62
    7
 10
30.695651190253329
 20
122.65723407505459
 11
30.286634195878605
 21
123.47526806380449
  0
ARC
  8
_0-0_
  6
CONTINUOUS
 62
    7
 10
30.733847791378366
 20
123.6988748615546
 40
0.5
 50
179.99999999999994
 51
206.56505117707795
  0
LINE
  8
_0-0_
  6
CONTINUOUS
 62
    7
 10
30.233847791378366
 20
123.6988748615546
 11
30.233847791378366
 21
125.48084087280461
  0
ARC
  8
_0-0_
  6
CONTINUOUS
 62
    7
 10
30.733847791378366
 20
125.48084087280461
 40
0.5
 50
89.999999999999986
 51
180
  0
ARC
  8
_0-0_
  6
CONTINUOUS
 62
    7
 10
17.633847791378457
 20
121.8808408728047
 40
0.5
 50
90
 51
180
  0
LINE
  8
_0-0_
  6
CONTINUOUS
 62
    7
 10
17.633847791378457
 20
122.3808408728047
 11
19.124830797003824
 21
122.3808408728047
  0
ARC
  8
_0-0_
  6
CONTINUOUS
 62
    7
 10
19.124830797003824
 20
122.8808408728047
 40
0.5
 50
270
 51
333.43494882293152
  0
LINE
  8
_0-0_
  6
CONTINUOUS
 62
    7
 10
19.572044392503585
 20
122.65723407505459
 11
19.981061386878309
 21
123.47526806380449
  0
ARC
  8
_0-0_
  6
CONTINUOUS
 62
    7
 10
19.533847791378548
 20
123.6988748615546
 40
0.5
 50
333.43494882292208
 51
0.0000000000000508
  0
LINE
  8
_0-0_
  6
CONTINUOUS
 62
    7
 10
20.033847791378548
 20
123.6988748615546
 11
20.033847791378548
 21
125.48084087280461
  0
ARC
  8
_0-0_
  6
CONTINUOUS
 62
    7
 10
19.533847791378548
 20
125.48084087280461
 40
0.5
 50
0
 51
90.000000000000014
  0
ARC
  8
_0-0_
  6
CONTINUOUS
 62
    7
 10
6.6338477913784573
 20
124.48084087280461
 40
1.5
 50
90
 51
180
  0
ARC
  8
_0-0_
  6
CONTINUOUS
 62
    7
 10
43.633847791378457
 20
124.48084087280461
 40
1.5
 50
0
 51
90
  0
LINE
  8
_0-0_
  6
CONTINUOUS
 62
    7
 10
6.5338477913785482
 20
7.8808408728042423
 11
6.5338477913785482
 21
16.947869901128456
  0
LINE
  8
_0-0_
  6
CONTINUOUS
 62
    7
 10
30.733847791378366
 20
5.9808408728046061
 11
43.633847791378457
 21
5.9808408728046061
  0
LINE
  8
_0-0_
  6
CONTINUOUS
 62
    7
 10
6.6338477913784573
 20
5.9808408728046061
 11
19.533847791378548
 21
5.9808408728046061
  0
LINE
  8
_0-0_
  6
CONTINUOUS
 62
    7
 10
5.1338477913784573
 20
20.380840872804697
 11
5.1338477913784573
 21
7.4808408728046061
  0
ARC
  8
_0-0_
  6
CONTINUOUS
 62
    7
 10
17.633847791378457
 20
10.080840872804515
 40
0.5
 50
180
 51
270
  0
LINE
  8
_0-0_
  6
CONTINUOUS
 62
    7
 10
17.633847791378457
 20
9.5808408728045151
 11
19.124830797003824
 21
9.5808408728045151
  0
ARC
  8
_0-0_
  6
CONTINUOUS
 62
    7
 10
19.124830797003824
 20
9.0808408728045151
 40
0.5
 50
26.565051177068476
 51
90
  0
LINE
  8
_0-0_
  6
CONTINUOUS
 62
    7
 10
19.572044392503585
 20
9.3044476705546231
 11
19.981061386878309
 21
8.48641368180472
  0
ARC
  8
_0-0_
  6
CONTINUOUS
 62
    7
 10
19.533847791378548
 20
8.2628068840546121
 40
0.5
 50
359.99999999999994
 51
26.56505117707794
  0
LINE
  8
_0-0_
  6
CONTINUOUS
 62
    7
 10
20.033847791378548
 20
8.2628068840546121
 11
20.033847791378548
 21
6.4808408728046061
  0
ARC
  8
_0-0_
  6
CONTINUOUS
 62
    7
 10
19.533847791378548
 20
6.4808408728046061
 40
0.5
 50
270
 51
0
  0
ARC
  8
_0-0_
  6
CONTINUOUS
 62
    7
 10
32.633847791378457
 20
10.080840872804515
 40
0.5
 50
270
 51
0
  0
LINE
  8
_0-0_
  6
CONTINUOUS
 62
    7
 10
32.633847791378457
 20
9.5808408728045151
 11
31.14286478575309
 21
9.5808408728045151
  0
ARC
  8
_0-0_
  6
CONTINUOUS
 62
    7
 10
31.14286478575309
 20
9.0808408728045151
 40
0.5
 50
90
 51
153.43494882293152
  0
LINE
  8
_0-0_
  6
CONTINUOUS
 62
    7
 10
30.695651190253329
 20
9.3044476705546231
 11
30.286634195878605
 21
8.48641368180472
  0
ARC
  8
_0-0_
  6
CONTINUOUS
 62
    7
 10
30.733847791378366
 20
8.2628068840546121
 40
0.5
 50
153.43494882292205
 51
180.00000000000006
  0
LINE
  8
_0-0_
  6
CONTINUOUS
 62
    7
 10
30.233847791378366
 20
8.2628068840546121
 11
30.233847791378366
 21
6.4808408728046061
  0
ARC
  8
_0-0_
  6
CONTINUOUS
 62
    7
 10
30.733847791378366
 20
6.4808408728046061
 40
0.5
 50
180
 51
270
  0
LINE
  8
_0-0_
  6
CONTINUOUS
 62
    7
 10
45.133847791378457
 20
20.380840872804697
 11
45.133847791378457
 21
7.4808408728046061
  0
ARC
  8
_0-0_
  6
CONTINUOUS
 62
    7
 10
6.6338477913784573
 20
7.4808408728046061
 40
1.5
 50
180
 51
270
  0
ARC
  8
_0-0_
  6
CONTINUOUS
 62
    7
 10
43.633847791378457
 20
7.4808408728046061
 40
1.5
 50
270
 51
0.0000000000000127
  0
ARC
  8
_0-0_
  6
CONTINUOUS
 62
    7
 10
17.833847791378275
 20
110.38067396307645
 40
0.5
 50
180
 51
264.68545433005494
  0
LINE
  8
_0-0_
  6
CONTINUOUS
 62
    7
 10
17.787536106913421
 20
109.8828233550804
 11
20.761634802057188
 21
109.60616301134598
  0
LINE
  8
_0-0_
  6
CONTINUOUS
 62
    7
 10
17.333847791378275
 20
110.38067396307645
 11
17.333847791378275
 21
113.48084087280461
  0
ARC
  8
_0-0_
  6
CONTINUOUS
 62
    7
 10
32.433847791378639
 20
113.48084087280461
 40
0.5
 50
0
 51
90.000000000000014
  0
LINE
  8
_0-0_
  6
CONTINUOUS
 62
    7
 10
32.933847791378639
 20
113.48084087280461
 11
32.933847791378639
 21
110.38067396307645
  0
LINE
  8
_0-0_
  6
CONTINUOUS
 62
    7
 10
32.433847791378639
 20
113.98084087280461
 11
17.833847791378275
 21
113.98084087280461
  0
ARC
  8
_0-0_
  6
CONTINUOUS
 62
    7
 10
17.833847791378275
 20
113.48084087280461
 40
0.5
 50
90
 51
180
  0
ARC
  8
_0-0_
  6
CONTINUOUS
 62
    7
 10
32.433847791378639
 20
110.38067396307645
 40
0.5
 50
275.31454566994506
 51
0
  0
LINE
  8
_0-0_
  6
CONTINUOUS
 62
    7
 10
32.480159475843493
 20
109.8828233550804
 11
29.506060780699727
 21
109.60616301134598
  0
ARC
  8
_0-0_
  6
CONTINUOUS
 62
    7
 10
32.433847791378639
 20
101.58100778253277
 40
0.5
 50
0
 51
84.685454330054924
  0
LINE
  8
_0-0_
  6
CONTINUOUS
 62
    7
 10
32.480159475843493
 20
102.07885839052881
 11
29.506060780699727
 21
102.35551873426323
  0
ARC
  8
_0-0_
  6
CONTINUOUS
 62
    7
 10
17.833847791378275
 20
101.58100778253277
 40
0.5
 50
95.314545669945076
 51
180
  0
LINE
  8
_0-0_
  6
CONTINUOUS
 62
    7
 10
17.787536106913421
 20
102.07885839052881
 11
20.761634802057188
 21
102.35551873426323
  0
ARC
  8
_0-0_
  6
CONTINUOUS
 62
    7
 10
32.433847791378639
 20
70.380673963076447
 40
0.5
 50
275.31454566994506
 51
0
  0
LINE
  8
_0-0_
  6
CONTINUOUS
 62
    7
 10
32.480159475843493
 20
69.882823355080404
 11
29.506060780699727
 21
69.606163011345984
  0
ARC
  8
_0-0_
  6
CONTINUOUS
 62
    7
 10
17.833847791378275
 20
70.380673963076504
 40
0.5
 50
180
 51
264.68545433005494
  0
LINE
  8
_0-0_
  6
CONTINUOUS
 62
    7
 10
17.787536106913421
 20
69.882823355080461
 11
20.761634802057188
 21
69.606163011346041
  0
ARC
  8
_0-0_
  6
CONTINUOUS
 62
    7
 10
20.733847791378366
 20
69.307452646548597
 40
0.3
 50
0.0000000000001017
 51
84.685454330055819
  0
ARC
  8
_0-0_
  6
CONTINUOUS
 62
    7
 10
29.533847791378548
 20
69.307452646548541
 40
0.3
 50
95.314545669944266
 51
179.99999999999997
  0
LINE
  8
_0-0_
  6
CONTINUOUS
 62
    7
 10
21.033847791378548
 20
102.65422909906067
 11
21.033847791378548
 21
109.30745264654854
  0
ARC
  8
_0-0_
  6
CONTINUOUS
 62
    7
 10
20.733847791378366
 20
109.30745264654854
 40
0.3
 50
0.0000000000001017
 51
84.685454330055819
  0
ARC
  8
_0-0_
  6
CONTINUOUS
 62
    7
 10
20.733847791378366
 20
102.65422909906067
 40
0.3
 50
275.31454566994427
 51
0
  0
LINE
  8
_0-0_
  6
CONTINUOUS
 62
    7
 10
29.233847791378366
 20
102.65422909906067
 11
29.233847791378366
 21
109.30745264654854
  0
ARC
  8
_0-0_
  6
CONTINUOUS
 62
    7
 10
29.533847791378548
 20
109.30745264654854
 40
0.3
 50
95.314545669944266
 51
179.99999999999997
  0
ARC
  8
_0-0_
  6
CONTINUOUS
 62
    7
 10
29.533847791378548
 20
102.65422909906067
 40
0.3
 50
180.00000000000003
 51
264.68545433005573
  0
LINE
  8
_0-0_
  6
CONTINUOUS
 62
    7
 10
13.280294400785124
 20
113.83439426339794
 11
14.987401181971791
 21
112.12728748221173
  0
LINE
  8
_0-0_
  6
CONTINUOUS
 62
    7
 10
12.92674101019179
 20
113.98084087280461
 11
9.2338477913783663
 21
113.98084087280461
  0
LINE
  8
_0-0_
  6
CONTINUOUS
 62
    7
 10
33.133847791378457
 20
13.773734091618167
 11
33.133847791378457
 21
10.080840872804515
  0
ARC
  8
_0-0_
  6
CONTINUOUS
 62
    7
 10
32.633847791378457
 20
13.773734091618167
 40
0.5
 50
0
 51
45
  0
LINE
  8
_0-0_
  6
CONTINUOUS
 62
    7
 10
31.280294400785124
 20
15.83439426339794
 11
32.987401181971563
 21
14.127287482211273
  0
ARC
  8
_0-0_
  6
CONTINUOUS
 62
    7
 10
30.92674101019179
 20
15.480840872804606
 40
0.5
 50
44.999999999998266
 51
90.000000000000028
  0
LINE
  8
_0-0_
  6
CONTINUOUS
 62
    7
 10
19.340954572564897
 20
15.980840872804606
 11
30.92674101019179
 21
15.980840872804606
  0
ARC
  8
_0-0_
  6
CONTINUOUS
 62
    7
 10
19.340954572564897
 20
15.480840872804606
 40
0.5
 50
90
 51
135
  0
LINE
  8
_0-0_
  6
CONTINUOUS
 62
    7
 10
17.280294400785124
 20
14.127287482211273
 11
18.987401181971563
 21
15.83439426339794
  0
LINE
  8
_0-0_
  6
CONTINUOUS
 62
    7
 10
17.133847791378457
 20
13.773734091618167
 11
17.133847791378457
 21
10.080840872804515
  0
ARC
  8
_0-0_
  6
CONTINUOUS
 62
    7
 10
17.633847791378457
 20
13.773734091618167
 40
0.5
 50
135.00000000000179
 51
180.00000000000003
  0
LINE
  8
_0-0_
  6
CONTINUOUS
 62
    7
 10
6.5338477913785482
 20
124.08084087280452
 11
6.5338477913785482
 21
114.6682750815088
  0
ARC
  8
_0-0_
  6
CONTINUOUS
 62
    7
 10
9.2338477913783663
 20
113.48084087280461
 40
2
 50
90
 51
151.64236342366314
  0
LINE
  8
_0-0_
  6
CONTINUOUS
 62
    7
 10
7.0338477913780935
 20
124.58084087280452
 11
16.446413582673813
 21
124.58084087280452
  0
ARC
  8
_0-0_
  6
CONTINUOUS
 62
    7
 10
17.633847791378003
 20
121.8808408728047
 40
2
 50
118.35763657633686
 51
180.00000000000125
  0
ARC
  8
_0-0_
  6
CONTINUOUS
 62
    7
 10
16.446413582673813
 20
124.08084087280452
 40
0.5
 50
298.35763657633424
 51
90
  0
ARC
  8
_0-0_
  6
CONTINUOUS
 62
    7
 10
7.0338477913785482
 20
114.6682750815088
 40
0.5
 50
180
 51
331.64236342366132
  0
LINE
  8
_0-0_
  6
CONTINUOUS
 62
    7
 10
33.133847791378457
 20
118.18794765399127
 11
33.133847791378457
 21
121.8808408728047
  0
LINE
  8
_0-0_
  6
CONTINUOUS
 62
    7
 10
34.633847791378912
 20
115.98084087280461
 11
34.633847791378912
 21
121.8808408728047
  0
LINE
  8
_0-0_
  6
CONTINUOUS
 62
    7
 10
35.133847791378457
 20
115.48084087280461
 11
41.033847791378548
 21
115.48084087280461
  0
ARC
  8
_0-0_
  6
CONTINUOUS
 62
    7
 10
43.233847791378366
 20
124.08084087280452
 40
0.5
 50
0
 51
90
  0
ARC
  8
_0-0_
  6
CONTINUOUS
 62
    7
 10
35.133847791378457
 20
115.98084087280461
 40
0.5
 50
180
 51
270
  0
LINE
  8
_0-0_
  6
CONTINUOUS
 62
    7
 10
43.733847791378366
 20
124.08084087280452
 11
43.733847791378366
 21
114.6682750815088
  0
ARC
  8
_0-0_
  6
CONTINUOUS
 62
    7
 10
41.033847791378548
 20
113.48084087280461
 40
2
 50
28.357636576336859
 51
90
  0
LINE
  8
_0-0_
  6
CONTINUOUS
 62
    7
 10
43.233847791378821
 20
124.58084087280452
 11
33.821282000082988
 21
124.58084087280452
  0
ARC
  8
_0-0_
  6
CONTINUOUS
 62
    7
 10
32.633847791378912
 20
121.8808408728047
 40
2
 50
359.99999999999881
 51
61.642363423663177
  0
ARC
  8
_0-0_
  6
CONTINUOUS
 62
    7
 10
33.821282000082988
 20
124.08084087280452
 40
0.5
 50
90
 51
241.64236342366576
  0
ARC
  8
_0-0_
  6
CONTINUOUS
 62
    7
 10
43.233847791378366
 20
114.6682750815088
 40
0.5
 50
208.35763657633865
 51
0
  0
LINE
  8
_0-0_
  6
CONTINUOUS
 62
    7
 10
15.633847791378003
 20
15.980840872804606
 11
15.633847791378003
 21
10.080840872804515
  0
LINE
  8
_0-0_
  6
CONTINUOUS
 62
    7
 10
15.133847791378457
 20
16.480840872804606
 11
9.2338477913783663
 21
16.480840872804606
  0
ARC
  8
_0-0_
  6
CONTINUOUS
 62
    7
 10
7.0338477913785482
 20
7.880840872804697
 40
0.5
 50
180
 51
270
  0
ARC
  8
_0-0_
  6
CONTINUOUS
 62
    7
 10
15.133847791378457
 20
15.980840872804606
 40
0.5
 50
0
 51
90
  0
LINE
  8
_0-0_
  6
CONTINUOUS
 62
    7
 10
6.5338477913785482
 20
7.880840872804697
 11
6.5338477913785482
 21
17.293406664100473
  0
ARC
  8
_0-0_
  6
CONTINUOUS
 62
    7
 10
9.2338477913783663
 20
18.480840872804606
 40
2
 50
208.35763657633686
 51
270
  0
LINE
  8
_0-0_
  6
CONTINUOUS
 62
    7
 10
7.0338477913780935
 20
7.380840872804697
 11
16.446413582673813
 21
7.380840872804697
  0
ARC
  8
_0-0_
  6
CONTINUOUS
 62
    7
 10
16.446413582673813
 20
7.880840872804697
 40
0.5
 50
270
 51
61.642363423665778
  0
ARC
  8
_0-0_
  6
CONTINUOUS
 62
    7
 10
7.0338477913785482
 20
17.293406664100473
 40
0.5
 50
28.357636576338653
 51
180
  0
LINE
  8
_0-0_
  6
CONTINUOUS
 62
    7
 10
34.633847791378912
 20
15.980840872804606
 11
34.633847791378912
 21
10.080840872804515
  0
LINE
  8
_0-0_
  6
CONTINUOUS
 62
    7
 10
35.133847791378457
 20
16.480840872804606
 11
41.033847791378548
 21
16.480840872804606
  0
ARC
  8
_0-0_
  6
CONTINUOUS
 62
    7
 10
43.233847791378366
 20
7.880840872804697
 40
0.5
 50
270
 51
0.0000000000000127
  0
ARC
  8
_0-0_
  6
CONTINUOUS
 62
    7
 10
35.133847791378457
 20
15.980840872804606
 40
0.5
 50
90
 51
180
  0
LINE
  8
_0-0_
  6
CONTINUOUS
 62
    7
 10
43.733847791378366
 20
7.880840872804697
 11
43.733847791378366
 21
17.293406664100473
  0
ARC
  8
_0-0_
  6
CONTINUOUS
 62
    7
 10
41.033847791378548
 20
18.480840872804606
 40
2
 50
270
 51
331.64236342366314
  0
LINE
  8
_0-0_
  6
CONTINUOUS
 62
    7
 10
43.233847791378821
 20
7.380840872804697
 11
33.821282000082988
 21
7.380840872804697
  0
ARC
  8
_0-0_
  6
CONTINUOUS
 62
    7
 10
32.633847791378912
 20
10.080840872804515
 40
2
 50
298.3576365763368
 51
0.0000000000012213
  0
ARC
  8
_0-0_
  6
CONTINUOUS
 62
    7
 10
33.821282000082988
 20
7.880840872804697
 40
0.5
 50
118.35763657633422
 51
270
  0
ARC
  8
_0-0_
  6
CONTINUOUS
 62
    7
 10
43.233847791378366
 20
17.293406664100473
 40
0.5
 50
0
 51
151.64236342366135
  0
ARC
  8
_0-0_
  6
CONTINUOUS
 62
    7
 10
41.033847791378548
 20
98.480840872804606
 40
2
 50
270
 51
331.64236342366314
  0
ARC
  8
_0-0_
  6
CONTINUOUS
 62
    7
 10
43.233847791378366
 20
97.29340666410053
 40
0.5
 50
0
 51
151.64236342366209
  0
LINE
  8
_0-0_
  6
CONTINUOUS
 62
    7
 10
43.733847791378366
 20
97.29340666410053
 11
43.733847791378366
 21
74.668275081508796
  0
ARC
  8
_0-0_
  6
CONTINUOUS
 62
    7
 10
41.033847791378548
 20
73.480840872804606
 40
1.9999999999999996
 50
28.35763657633677
 51
90.000000000000014
  0
ARC
  8
_0-0_
  6
CONTINUOUS
 62
    7
 10
43.233847791378366
 20
74.668275081508796
 40
0.5
 50
208.35763657633791
 51
0
  0
ARC
  8
_0-0_
  6
CONTINUOUS
 62
    7
 10
41.033847791378548
 20
58.480840872804606
 40
2
 50
270
 51
331.64236342366326
  0
ARC
  8
_0-0_
  6
CONTINUOUS
 62
    7
 10
43.233847791378366
 20
57.293406664100473
 40
0.5
 50
0
 51
151.64236342366209
  0
LINE
  8
_0-0_
  6
CONTINUOUS
 62
    7
 10
43.733847791378366
 20
57.293406664100473
 11
43.733847791378366
 21
34.668275081508739
  0
ARC
  8
_0-0_
  6
CONTINUOUS
 62
    7
 10
41.033847791378548
 20
33.480840872804606
 40
1.9999999999999996
 50
28.357636576336922
 51
90.000000000000014
  0
ARC
  8
_0-0_
  6
CONTINUOUS
 62
    7
 10
43.233847791378366
 20
34.668275081508739
 40
0.5
 50
208.35763657633811
 51
0
  0
ARC
  8
_0-0_
  6
CONTINUOUS
 62
    7
 10
9.2338477913783663
 20
58.480840872804663
 40
2
 50
208.35763657633674
 51
270
  0
ARC
  8
_0-0_
  6
CONTINUOUS
 62
    7
 10
7.0338477913785482
 20
57.29340666410053
 40
0.5
 50
28.357636576337995
 51
180
  0
LINE
  8
_0-0_
  6
CONTINUOUS
 62
    7
 10
6.5338477913785482
 20
57.29340666410053
 11
6.5338477913785482
 21
34.668275081508796
  0
ARC
  8
_0-0_
  6
CONTINUOUS
 62
    7
 10
9.2338477913783663
 20
33.480840872804606
 40
1.9999999999999996
 50
90
 51
151.64236342366326
  0
ARC
  8
_0-0_
  6
CONTINUOUS
 62
    7
 10
7.0338477913785482
 20
34.668275081508796
 40
0.5
 50
180
 51
331.64236342366206
  0
ARC
  8
_0-0_
  6
CONTINUOUS
 62
    7
 10
9.2338477913783663
 20
73.480840872804606
 40
1.9999999999999996
 50
90
 51
151.64236342366314
  0
ARC
  8
_0-0_
  6
CONTINUOUS
 62
    7
 10
7.0338477913785482
 20
74.668275081508796
 40
0.5
 50
180
 51
331.64236342366206
  0
LINE
  8
_0-0_
  6
CONTINUOUS
 62
    7
 10
6.5338477913785482
 20
97.29340666410053
 11
6.5338477913785482
 21
74.668275081508796
  0
ARC
  8
_0-0_
  6
CONTINUOUS
 62
    7
 10
9.2338477913783663
 20
98.480840872804606
 40
2
 50
208.35763657633669
 51
270
  0
ARC
  8
_0-0_
  6
CONTINUOUS
 62
    7
 10
7.0338477913785482
 20
97.29340666410053
 40
0.5
 50
28.357636576337995
 51
180
  0
ARC
  8
_0-0_
  6
CONTINUOUS
 62
    7
 10
35.133847791378457
 20
25.980840872804606
 40
0.1499999999999772
 50
150.00000000000077
 51
209.99999999999568
  0
LINE
  8
_0-0_
  6
CONTINUOUS
 62
    7
 10
35.133847791378457
 20
26.414815469020141
 11
35.133847791378457
 21
33.480840872804606
  0
LINE
  8
_0-0_
  6
CONTINUOUS
 62
    7
 10
35.06686049327061
 20
26.164815469020141
 11
35.003943980810732
 21
26.055840872804595
  0
ARC
  8
_0-0_
  6
CONTINUOUS
 62
    7
 10
34.633847791378457
 20
26.414815469020141
 40
0.5
 50
329.99999999999943
 51
0
  0
LINE
  8
_0-0_
  6
CONTINUOUS
 62
    7
 10
35.06686049327061
 20
25.796866276589071
 11
35.003943980810732
 21
25.905840872804617
  0
LINE
  8
_0-0_
  6
CONTINUOUS
 62
    7
 10
35.133847791378457
 20
25.546866276589071
 11
35.133847791378457
 21
20.187947653991273
  0
ARC
  8
_0-0_
  6
CONTINUOUS
 62
    7
 10
34.633847791378457
 20
25.546866276589071
 40
0.5
 50
0
 51
30.000000000000576
  0
ARC
  8
_0-0_
  6
CONTINUOUS
 62
    7
 10
15.133847791378457
 20
25.980840872804606
 40
0.1499999999999772
 50
330.00000000000432
 51
29.999999999999229
  0
LINE
  8
_0-0_
  6
CONTINUOUS
 62
    7
 10
15.200835089486191
 20
26.164815469020141
 11
15.263751601946069
 21
26.055840872804595
  0
ARC
  8
_0-0_
  6
CONTINUOUS
 62
    7
 10
15.633847791378457
 20
26.414815469020141
 40
0.5
 50
180
 51
210.00000000000057
  0
LINE
  8
_0-0_
  6
CONTINUOUS
 62
    7
 10
15.200835089486191
 20
25.796866276589071
 11
15.263751601946069
 21
25.905840872804617
  0
ARC
  8
_0-0_
  6
CONTINUOUS
 62
    7
 10
15.633847791378457
 20
25.546866276589071
 40
0.5
 50
149.99999999999943
 51
180
  0
ARC
  8
_0-0_
  6
CONTINUOUS
 62
    7
 10
35.133847791378457
 20
65.980840872804606
 40
0.1499999999999772
 50
150.00000000000077
 51
209.99999999999568
  0
LINE
  8
_0-0_
  6
CONTINUOUS
 62
    7
 10
35.06686049327061
 20
66.164815469020141
 11
35.003943980810732
 21
66.055840872804595
  0
ARC
  8
_0-0_
  6
CONTINUOUS
 62
    7
 10
34.633847791378457
 20
66.414815469020141
 40
0.5
 50
329.99999999999943
 51
0
  0
LINE
  8
_0-0_
  6
CONTINUOUS
 62
    7
 10
35.06686049327061
 20
65.796866276589071
 11
35.003943980810732
 21
65.905840872804617
  0
ARC
  8
_0-0_
  6
CONTINUOUS
 62
    7
 10
34.633847791378457
 20
65.546866276589071
 40
0.5
 50
0
 51
30.000000000000576
  0
ARC
  8
_0-0_
  6
CONTINUOUS
 62
    7
 10
15.133847791378457
 20
65.980840872804606
 40
0.1499999999999772
 50
330.00000000000432
 51
29.999999999999229
  0
LINE
  8
_0-0_
  6
CONTINUOUS
 62
    7
 10
15.200835089486191
 20
66.164815469020198
 11
15.263751601946069
 21
66.055840872804595
  0
ARC
  8
_0-0_
  6
CONTINUOUS
 62
    7
 10
15.633847791378457
 20
66.414815469020198
 40
0.5
 50
180
 51
210.00000000000057
  0
LINE
  8
_0-0_
  6
CONTINUOUS
 62
    7
 10
15.200835089486191
 20
65.796866276589071
 11
15.263751601946069
 21
65.905840872804617
  0
ARC
  8
_0-0_
  6
CONTINUOUS
 62
    7
 10
15.633847791378457
 20
65.546866276589071
 40
0.5
 50
149.99999999999943
 51
180
  0
ARC
  8
_0-0_
  6
CONTINUOUS
 62
    7
 10
35.133847791378457
 20
105.98084087280461
 40
0.1499999999999772
 50
150.00000000000077
 51
209.99999999999568
  0
LINE
  8
_0-0_
  6
CONTINUOUS
 62
    7
 10
35.06686049327061
 20
106.16481546902014
 11
35.003943980810732
 21
106.05584087280465
  0
ARC
  8
_0-0_
  6
CONTINUOUS
 62
    7
 10
34.633847791378457
 20
106.41481546902014
 40
0.5
 50
329.99999999999943
 51
0
  0
LINE
  8
_0-0_
  6
CONTINUOUS
 62
    7
 10
35.06686049327061
 20
105.79686627658907
 11
35.003943980810732
 21
105.90584087280467
  0
ARC
  8
_0-0_
  6
CONTINUOUS
 62
    7
 10
34.633847791378457
 20
105.54686627658907
 40
0.5
 50
0
 51
30.000000000000576
  0
ARC
  8
_0-0_
  6
CONTINUOUS
 62
    7
 10
15.133847791378457
 20
105.98084087280461
 40
0.1499999999999772
 50
330.00000000000432
 51
29.999999999999229
  0
LINE
  8
_0-0_
  6
CONTINUOUS
 62
    7
 10
15.200835089486191
 20
106.16481546902014
 11
15.263751601946069
 21
106.05584087280465
  0
ARC
  8
_0-0_
  6
CONTINUOUS
 62
    7
 10
15.633847791378457
 20
106.41481546902014
 40
0.5
 50
180
 51
210.00000000000057
  0
LINE
  8
_0-0_
  6
CONTINUOUS
 62
    7
 10
15.200835089486191
 20
105.79686627658907
 11
15.263751601946069
 21
105.90584087280467
  0
ARC
  8
_0-0_
  6
CONTINUOUS
 62
    7
 10
15.633847791378457
 20
105.54686627658907
 40
0.5
 50
149.99999999999943
 51
180
  0
LINE
  8
_0-0_
  6
CONTINUOUS
 62
    7
 10
35.133847791378457
 20
111.98084087280461
 11
35.133847791378457
 21
106.41481546902014
  0
LINE
  8
_0-0_
  6
CONTINUOUS
 62
    7
 10
35.133847791378457
 20
105.54686627658907
 11
35.133847791378457
 21
98.480840872804606
  0
LINE
  8
_0-0_
  6
CONTINUOUS
 62
    7
 10
35.133847791378457
 20
73.480840872804606
 11
35.133847791378457
 21
66.414815469020141
  0
LINE
  8
_0-0_
  6
CONTINUOUS
 62
    7
 10
35.133847791378457
 20
65.546866276589071
 11
35.133847791378457
 21
58.480840872804606
  0
LINE
  8
_0-0_
  6
CONTINUOUS
 62
    7
 10
15.133847791378457
 20
33.480840872804606
 11
15.133847791378457
 21
26.414815469020141
  0
LINE
  8
_0-0_
  6
CONTINUOUS
 62
    7
 10
15.133847791378457
 20
25.546866276589071
 11
15.133847791378457
 21
20.187947653991273
  0
LINE
  8
_0-0_
  6
CONTINUOUS
 62
    7
 10
15.133847791378457
 20
73.480840872804606
 11
15.133847791378457
 21
66.414815469020198
  0
LINE
  8
_0-0_
  6
CONTINUOUS
 62
    7
 10
15.133847791378457
 20
65.546866276589071
 11
15.133847791378457
 21
58.480840872804663
  0
LINE
  8
_0-0_
  6
CONTINUOUS
 62
    7
 10
15.133847791378457
 20
98.480840872804606
 11
15.133847791378457
 21
105.54686627658907
  0
LINE
  8
_0-0_
  6
CONTINUOUS
 62
    7
 10
15.133847791378457
 20
106.41481546902014
 11
15.133847791378457
 21
111.77373409161839
  0
LINE
  8
_0-0_
  6
CONTINUOUS
 62
    7
 10
32.933847791378639
 20
101.58100778253277
 11
32.933847791378639
 21
79.180840872804652
  0
LINE
  8
_0-0_
  6
CONTINUOUS
 62
    7
 10
17.333847791378275
 20
101.58100778253277
 11
17.333847791378275
 21
79.180840872804652
  0
ARC
  8
_0-0_
  6
CONTINUOUS
 62
    7
 10
32.433847791378639
 20
79.180840872804652
 40
0.5
 50
270
 51
0
  0
LINE
  8
_0-0_
  6
CONTINUOUS
 62
    7
 10
32.433847791378639
 20
78.680840872804652
 11
17.833847791378275
 21
78.680840872804652
  0
ARC
  8
_0-0_
  6
CONTINUOUS
 62
    7
 10
32.433847791378639
 20
76.780840872804561
 40
0.5
 50
0
 51
90.000000000000014
  0
LINE
  8
_0-0_
  6
CONTINUOUS
 62
    7
 10
32.933847791378639
 20
76.780840872804561
 11
32.933847791378639
 21
70.380673963076447
  0
LINE
  8
_0-0_
  6
CONTINUOUS
 62
    7
 10
32.433847791378639
 20
77.280840872804561
 11
17.833847791378275
 21
77.280840872804561
  0
ARC
  8
_0-0_
  6
CONTINUOUS
 62
    7
 10
17.833847791378275
 20
76.780840872804561
 40
0.5
 50
90
 51
180
  0
LINE
  8
_0-0_
  6
CONTINUOUS
 62
    7
 10
17.333847791378275
 20
76.780840872804561
 11
17.333847791378275
 21
70.380673963076504
  0
ARC
  8
_0-0_
  6
CONTINUOUS
 62
    7
 10
17.833847791378275
 20
79.180840872804652
 40
0.5
 50
180
 51
270
  0
ARC
  8
_0-0_
  6
CONTINUOUS
 62
    7
 10
17.633847791378003
 20
10.080840872804515
 40
2
 50
179.99999999999878
 51
241.64236342366314
  0
LINE
  8
_0-1_
  6
CENTER1
 62
  152
 10
47.298443365174535
 20
105.98084087280461
 11
3.3482253753525129
 21
105.98084087280461
  0
LINE
  8
_0-1_
  6
CENTER1
 62
  152
 10
47.298443365174535
 20
65.980840872804606
 11
5.0085669438569766
 21
65.980840872804663
  0
LINE
  8
_0-1_
  6
CENTER1
 62
  152
 10
25.133847791378457
 20
127.26916828594062
 11
25.133847791378457
 21
2.9388849502886387
  0
LINE
  8
_0-1_
  6
CENTER1
 62
  152
 10
47.298443365174535
 20
25.980840872804606
 11
3.3482253753525129
 21
25.980840872804606
  0
TEXT
  8
_0-f_
 62
    7
 10
0.3579117787556924
 20
0.7333550033058031
 40
4.2999999999999998
 41
0.744186046511628
 50
0
  1
F412
  0
ENDSEC
  0
EOF
