  0
SECTION
  2
HEADER
  9
$ACADVER
  1
AC1009
  9
$INSBASE
 10
0
 20
0
 30
0
  9
$EXTMIN
 10
0
 20
0
  9
$EXTMAX
 10
1189
 20
841
  9
$LIMMIN
 10
0
 20
0
  9
$LIMMAX
 10
1189
 20
841
  9
$LTSCALE
 40
1
  0
ENDSEC
  0
SECTION
  2
TABLES
  0
TABLE
  2
LTYPE
 70
     9
  0
LTYPE
  2
CONTINUOUS
 70
    64
  3
実線
 72
    65
 73
     0
 40
0.0
  0
LTYPE
  2
DASHED1
 70
    64
  3
--  --  --  --  --  --  --  --  
 72
    65
 73
     2
 40
2.5
 49
1.25
 49
-1.25
  0
LTYPE
  2
DASHED2
 70
    64
  3
----    ----    ----    ----    
 72
    65
 73
     2
 40
5.0
 49
2.5
 49
-2.5
  0
LTYPE
  2
DASHED3
 70
    64
  3
------  ------  ------  ------  
 72
    65
 73
     2
 40
5.0
 49
3.75
 49
-1.25
  0
LTYPE
  2
CENTER1
 70
    64
  3
----- - ----- - ----- - ----- - 
 72
    65
 73
     4
 40
10.0
 49
6.25
 49
-1.25
 49
1.25
 49
-1.25
  0
LTYPE
  2
CENTER2
 70
    64
  3
----------  --  ----------  --  
 72
    65
 73
     4
 40
20.0
 49
12.5
 49
-2.5
 49
2.5
 49
-2.5
  0
LTYPE
  2
PHANTOM1
 70
    64
  3
--- - - --- - - --- - - --- - - 
 72
    65
 73
     6
 40
10.0
 49
3.25
 49
-1.25
 49
1.25
 49
-1.25
 49
1.25
 49
-1.25
  0
LTYPE
  2
PHANTOM2
 70
    64
  3
--------  -  -  --------  -  -  
 72
    65
 73
     6
 40
20.0
 49
10.0
 49
-2.5
 49
1.25
 49
-2.5
 49
1.25
 49
-2.5
  0
LTYPE
  2
DOT
 70
    64
  3
-   -   -   -   -   -   -   -   
 72
    65
 73
     2
 40
2.5
 49
0.625
 49
-1.875
  0
LTYPE
  2
DUMMY
 70
    64
  3
ダミー
 72
    65
 73
     0
 40
0.0
  0
LTYPE
  2
RAND1
 70
    64
  3
ランダム線1
 72
    65
 73
     4
 40
10.0
 49
1.0
 49
-2.0
 49
3.0
 49
-4.0
  0
LTYPE
  2
RAND2
 70
    64
  3
ランダム線2
 72
    65
 73
     4
 40
14.0
 49
2.0
 49
-3.0
 49
4.0
 49
-5.0
  0
LTYPE
  2
RAND3
 70
    64
  3
ランダム線3
 72
    65
 73
     4
 40
18.0
 49
3.0
 49
-4.0
 49
5.0
 49
-6.0
  0
LTYPE
  2
RAND4
 70
    64
  3
ランダム線4
 72
    65
 73
     4
 40
22.0
 49
4.0
 49
-5.0
 49
6.0
 49
-7.0
  0
LTYPE
  2
RAND5
 70
    64
  3
ランダム線5
 72
    65
 73
     4
 40
26.0
 49
5.0
 49
-6.0
 49
7.0
 49
-8.0
  0
LTYPE
  2
LONG1
 70
    64
  3
----------  --  ----------  --  
 72
    65
 73
     4
 40
40.0
 49
32.5
 49
-2.5
 49
2.5
 49
-2.5
  0
LTYPE
  2
LONG2
 70
    64
  3
--------  -  -  --------  -  -  
 72
    65
 73
     6
 40
40.0
 49
30.0
 49
-2.5
 49
1.25
 49
-2.5
 49
1.25
 49
-2.5
  0
LTYPE
  2
LONG3
 70
    64
  3
+++++++++++++++..+++++++++++++++
 72
    65
 73
     2
 40
40.0
 49
37.5
 49
-2.5
  0
LTYPE
  2
LONG4
 70
    64
  3
+++++++++++++++..+++++++++++++++
 72
    65
 73
     2
 40
80.0
 49
75.0
 49
-5.0
  0
LTYPE
  2
LONG5
 70
    64
  3
----------  --  ----------  --  
 72
    65
 73
     4
 40
60.0
 49
37.5
 49
-7.5
 49
7.5
 49
-7.5
  0
LTYPE
  2
dashed
 70
   64
  3
-------   -------------   ------
 72
   65
 73
    2
 40
7.5
 49
6
 49
-1.5
  0
LTYPE
  2
dashed_spaced
 70
   64
  3
----        --------        ----
 72
   65
 73
    2
 40
12
 49
6
 49
-6
  0
LTYPE
  2
long_dashed_dotted
 70
   64
  3
------------- --- --------------
 72
   65
 73
    4
 40
15.25
 49
12
 49
-1.5
 49
0.25
 49
-1.5
  0
LTYPE
  2
long_dashed_double-dotted
 70
   64
  3
----------- --- --- ------------
 72
   65
 73
    6
 40
17
 49
12
 49
-1.5
 49
0.25
 49
-1.5
 49
0.25
 49
-1.5
  0
LTYPE
  2
long_dashed_triplicate-dotted
 70
   64
  3
--------- --- --- --- ----------
 72
   65
 73
    8
 40
18.75
 49
12
 49
-1.5
 49
0.25
 49
-1.5
 49
0.25
 49
-1.5
 49
0.25
 49
-1.5
  0
LTYPE
  2
dotted
 70
   64
  3
   -       -       -       -    
 72
   65
 73
    2
 40
1.75
 49
0.25
 49
-1.5
  0
LTYPE
  2
chain
 70
   64
  3
-------------- -- --------------
 72
   65
 73
    4
 40
18.5
 49
12
 49
-1.5
 49
3.5
 49
-1.5
  0
LTYPE
  2
chain_double_dash
 70
   64
  3
------------ -- -- -------------
 72
   65
 73
    6
 40
23.5
 49
12
 49
-1.5
 49
3.5
 49
-1.5
 49
3.5
 49
-1.5
  0
LTYPE
  2
dashed_dotted
 70
   64
  3
-----------     -     ----------
 72
   65
 73
    4
 40
9.25
 49
6
 49
-1.5
 49
0.25
 49
-1.5
  0
LTYPE
  2
double-dashed_dotted
 70
   64
  3
------   -----------   -   -----
 72
   65
 73
    6
 40
16.75
 49
6
 49
-1.5
 49
6
 49
-1.5
 49
0.25
 49
-1.5
  0
LTYPE
  2
dashed_double-dotted
 70
   64
  3
---------    -    -    ---------
 72
   65
 73
    6
 40
11
 49
6
 49
-1.5
 49
0.25
 49
-1.5
 49
0.25
 49
-1.5
  0
LTYPE
  2
double-dashed_double-dotted
 70
   64
  3
-----   ---------   -   -   ----
 72
   65
 73
    8
 40
18.5
 49
6
 49
-1.5
 49
6
 49
-1.5
 49
0.25
 49
-1.5
 49
0.25
 49
-1.5
  0
LTYPE
  2
dashed_triplicate-dotted
 70
   64
  3
-------    -    -    -    ------
 72
   65
 73
    8
 40
12.75
 49
6
 49
-1.5
 49
0.25
 49
-1.5
 49
0.25
 49
-1.5
 49
0.25
 49
-1.5
  0
LTYPE
  2
double-dashed_triplicate-dotted
 70
   64
  3
-----  ---------  -  -  -  -----
 72
   65
 73
   10
 40
20.25
 49
6
 49
-1.5
 49
6
 49
-1.5
 49
0.25
 49
-1.5
 49
0.25
 49
-1.5
 49
0.25
 49
-1.5
  0
LTYPE
  2
undefined
 70
   64
  3
--------------------------------
 72
   65
 73
    0
 40
0
  0
ENDTAB
  0
TABLE
  2
STYLE
  5
3
100
AcDbSymbolTable
 70
     1
  0
STYLE
  5
10
100
AcDbSymbolTableRecord
100
AcDbTextStyleTableRecord
  2
STANDARD
 70
     0
 40
0.0
 41
1.0
 50
0.0
 71
     0
 42
0.2
  3
txt
  4
bigfont.shx
  0
STYLE
  5
26
100
AcDbSymbolTableRecord
100
AcDbTextStyleTableRecord
  2
TATEGAKI
 70
    68
 40
0.0
 41
1.0
 50
0.0
 71
     0
 42
1.0
  3
txt
  4
bigfont.shx
  0
ENDTAB
  0
TABLE
  2
LAYER
 70
    4
  0
LAYER
  2
_0-0_
 70
   64
 62
    7
  6
CONTINUOUS
  0
LAYER
  2
_0-1_
 70
   64
 62
    7
  6
CONTINUOUS
  0
LAYER
  2
_0-f_
 70
   64
 62
    7
  6
CONTINUOUS
  0
LAYER
  2
ADD_LINE
 70
   64
 62
    7
  6
CONTINUOUS
  0
ENDTAB
  0
ENDSEC
  0
SECTION
  2
BLOCKS
  0
ENDSEC
  0
SECTION
  2
ENTITIES
  0
TEXT
  8
_0-f_
 62
    7
 10
0.7309234127689023
 20
1.2897891904676726
 40
4.2999999999999998
 41
0.744186046511628
 50
0
  1
F40A
  0
LINE
  8
_0-0_
  6
CONTINUOUS
 62
    7
 10
3.0208912201064777
 20
16.146078333011133
 11
3.468532330241942
 21
14.916194490895009
  0
LINE
  8
_0-0_
  6
CONTINUOUS
 62
    7
 10
4.3026039842181945
 20
17.427791097122622
 11
5.5324878263345454
 21
16.980149986987612
  0
LINE
  8
_0-0_
  6
CONTINUOUS
 62
    7
 10
9.1886798554505731
 20
16.980149986987612
 11
10.418563697566697
 21
17.427791097122622
  0
LINE
  8
_0-0_
  6
CONTINUOUS
 62
    7
 10
10.860583840892559
 20
19.088098476336995
 11
3.8605838408925592
 21
19.088098476336995
  0
LINE
  8
_0-0_
  6
CONTINUOUS
 62
    7
 10
3.3605838408925592
 20
19.588098476336995
 11
3.3605838408925592
 21
33.052564570404115
  0
LINE
  8
_0-0_
  6
CONTINUOUS
 62
    7
 10
3.5070304502994532
 20
33.406117960997449
 11
9.4923118245378646
 21
39.391399335235633
  0
LINE
  8
_0-0_
  6
CONTINUOUS
 62
    7
 10
10.199418605724304
 20
39.391399335235633
 11
11.214137231485665
 21
38.376680709474272
  0
LINE
  8
_0-0_
  6
CONTINUOUS
 62
    7
 10
11.360583840892559
 20
38.023127318881393
 11
11.360583840892559
 21
19.588098476336995
  0
LINE
  8
_0-0_
  6
CONTINUOUS
 62
    7
 10
12.960583840892468
 20
19.188098476336904
 11
12.960583840892468
 21
22.632451432576886
  0
LINE
  8
_0-0_
  6
CONTINUOUS
 62
    7
 10
13.414272156427614
 20
23.130302040572928
 11
16.806895525357504
 21
23.445894912101153
  0
LINE
  8
_0-0_
  6
CONTINUOUS
 62
    7
 10
17.26058384089265
 20
23.943745520097195
 11
17.26058384089265
 21
30.23245143257634
  0
LINE
  8
_0-0_
  6
CONTINUOUS
 62
    7
 10
16.806895525357504
 20
30.730302040572383
 11
13.414272156427614
 21
31.045894912101062
  0
LINE
  8
_0-0_
  6
CONTINUOUS
 62
    7
 10
12.960583840892468
 20
31.543745520097104
 11
12.960583840892468
 21
34.488098476337086
  0
LINE
  8
_0-0_
  6
CONTINUOUS
 62
    7
 10
13.460583840892468
 20
34.988098476337086
 11
29.26058384089265
 21
34.988098476337086
  0
LINE
  8
_0-0_
  6
CONTINUOUS
 62
    7
 10
29.76058384089265
 20
34.488098476337086
 11
29.76058384089265
 21
31.543745520097104
  0
LINE
  8
_0-0_
  6
CONTINUOUS
 62
    7
 10
29.306895525357504
 20
31.045894912101062
 11
25.914272156427842
 21
30.730302040572383
  0
LINE
  8
_0-0_
  6
CONTINUOUS
 62
    7
 10
25.460583840892468
 20
30.23245143257634
 11
25.460583840892468
 21
23.943745520097195
  0
LINE
  8
_0-0_
  6
CONTINUOUS
 62
    7
 10
25.914272156427842
 20
23.445894912101153
 11
29.306895525357504
 21
23.130302040572928
  0
LINE
  8
_0-0_
  6
CONTINUOUS
 62
    7
 10
29.76058384089265
 20
22.632451432576886
 11
29.76058384089265
 21
19.188098476336904
  0
LINE
  8
_0-0_
  6
CONTINUOUS
 62
    7
 10
29.26058384089265
 20
18.688098476336904
 11
13.460583840892468
 21
18.688098476336904
  0
LINE
  8
_0-0_
  6
CONTINUOUS
 62
    7
 10
13.507030450299226
 20
15.734545085743662
 11
14.714137231485893
 21
16.941651866929874
  0
LINE
  8
_0-0_
  6
CONTINUOUS
 62
    7
 10
15.067690622079226
 20
17.088098476336995
 11
27.65347705970612
 21
17.088098476336995
  0
LINE
  8
_0-0_
  6
CONTINUOUS
 62
    7
 10
28.007030450299226
 20
16.941651866929874
 11
29.214137231485893
 21
15.734545085743662
  0
LINE
  8
_0-0_
  6
CONTINUOUS
 62
    7
 10
29.360583840892559
 20
15.380991695150328
 11
29.360583840892559
 21
11.188098476336904
  0
LINE
  8
_0-0_
  6
CONTINUOUS
 62
    7
 10
28.860583840892559
 20
10.688098476336904
 11
27.36960083526742
 21
10.688098476336904
  0
LINE
  8
_0-0_
  6
CONTINUOUS
 62
    7
 10
26.922387239767431
 20
10.411705274087012
 11
26.513370245392707
 21
9.5936712853371091
  0
LINE
  8
_0-0_
  6
CONTINUOUS
 62
    7
 10
26.460583840892468
 20
9.3700644875870012
 11
26.460583840892468
 21
7.5880984763369952
  0
LINE
  8
_0-0_
  6
CONTINUOUS
 62
    7
 10
26.960583840892468
 20
7.0880984763369952
 11
39.860583840892559
 21
7.0880984763369952
  0
LINE
  8
_0-0_
  6
CONTINUOUS
 62
    7
 10
41.360583840892559
 20
8.5880984763369952
 11
41.360583840892559
 21
21.488098476337086
  0
LINE
  8
_0-0_
  6
CONTINUOUS
 62
    7
 10
40.860583840892559
 20
21.988098476337086
 11
39.078617829642553
 21
21.988098476337086
  0
LINE
  8
_0-0_
  6
CONTINUOUS
 62
    7
 10
38.855011031892445
 20
21.935312071836847
 11
38.036977043142542
 21
21.526295077462123
  0
LINE
  8
_0-0_
  6
CONTINUOUS
 62
    7
 10
37.76058384089265
 20
21.079081481961907
 11
37.76058384089265
 21
19.588098476336995
  0
LINE
  8
_0-0_
  6
CONTINUOUS
 62
    7
 10
37.26058384089265
 20
19.088098476336995
 11
33.067690622079226
 21
19.088098476336995
  0
LINE
  8
_0-0_
  6
CONTINUOUS
 62
    7
 10
32.714137231485893
 20
19.234545085743662
 11
31.507030450299226
 21
20.441651866930329
  0
LINE
  8
_0-0_
  6
CONTINUOUS
 62
    7
 10
31.360583840892559
 20
20.795205257523662
 11
31.360583840892559
 21
26.667521339742848
  0
LINE
  8
_0-0_
  6
CONTINUOUS
 62
    7
 10
31.320391462028056
 20
26.817521339742939
 11
31.250776219757199
 21
26.938098476336904
  0
LINE
  8
_0-0_
  6
CONTINUOUS
 62
    7
 10
31.250776219757199
 20
27.238098476336631
 11
31.320391462028056
 21
27.358675612930597
  0
LINE
  8
_0-0_
  6
CONTINUOUS
 62
    7
 10
31.360583840892559
 20
27.508675612930688
 11
31.360583840892559
 21
33.380991695150328
  0
LINE
  8
_0-0_
  6
CONTINUOUS
 62
    7
 10
31.507030450299226
 20
33.734545085743662
 11
32.714137231485893
 21
34.941651866930329
  0
LINE
  8
_0-0_
  6
CONTINUOUS
 62
    7
 10
33.067690622079226
 20
35.088098476336995
 11
37.26058384089265
 21
35.088098476336995
  0
LINE
  8
_0-0_
  6
CONTINUOUS
 62
    7
 10
37.76058384089265
 20
34.588098476336995
 11
37.76058384089265
 21
33.097115470711628
  0
LINE
  8
_0-0_
  6
CONTINUOUS
 62
    7
 10
38.036977043142542
 20
32.649901875211867
 11
38.855011031892445
 21
32.240884880836688
  0
LINE
  8
_0-0_
  6
CONTINUOUS
 62
    7
 10
39.078617829642553
 20
32.188098476336904
 11
40.860583840892559
 21
32.188098476336904
  0
LINE
  8
_0-0_
  6
CONTINUOUS
 62
    7
 10
41.360583840892559
 20
32.688098476336904
 11
41.360583840892559
 21
50.035320627700798
  0
LINE
  8
_0-0_
  6
CONTINUOUS
 62
    7
 10
40.921244012672332
 20
51.095980799480799
 11
30.705515260134234
 21
61.311709552018669
  0
LINE
  8
_0-0_
  6
CONTINUOUS
 62
    7
 10
28.584194916574688
 20
61.311709552018669
 11
19.46251743926814
 21
52.190032074712121
  0
LINE
  8
_0-0_
  6
CONTINUOUS
 62
    7
 10
19.46251743926814
 20
51.482925293525909
 11
20.722557689667156
 21
50.222885043126894
  0
LINE
  8
_0-0_
  6
CONTINUOUS
 62
    7
 10
20.917997197251907
 20
50.102096784694709
 11
21.785653268281067
 21
49.812878094351959
  0
LINE
  8
_0-0_
  6
CONTINUOUS
 62
    7
 10
22.297320541882755
 20
49.933666352783689
 11
23.351604735794126
 21
50.98795054669506
  0
LINE
  8
_0-0_
  6
CONTINUOUS
 62
    7
 10
24.058711516980793
 20
50.98795054669506
 11
27.023534744794915
 21
48.023127318880938
  0
LINE
  8
_0-0_
  6
CONTINUOUS
 62
    7
 10
27.169981354201582
 20
47.66957392828806
 11
27.169981354201582
 21
45.962467147101393
  0
LINE
  8
_0-0_
  6
CONTINUOUS
 62
    7
 10
27.023534744794915
 20
45.608913756508059
 11
18.12403980818317
 21
36.709418819896541
  0
LINE
  8
_0-0_
  6
CONTINUOUS
 62
    7
 10
17.770486417589836
 20
36.562972210489875
 11
16.063379636403397
 21
36.562972210489875
  0
LINE
  8
_0-0_
  6
CONTINUOUS
 62
    7
 10
15.709826245810063
 20
36.709418819896541
 11
12.745003017995941
 21
39.674242047710663
  0
LINE
  8
_0-0_
  6
CONTINUOUS
 62
    7
 10
12.745003017995941
 20
40.381348828896876
 11
13.799287211907313
 21
41.435633022808247
  0
LINE
  8
_0-0_
  6
CONTINUOUS
 62
    7
 10
13.92007547033927
 20
41.947300296409935
 11
13.630856779996293
 21
42.814956367439095
  0
LINE
  8
_0-0_
  6
CONTINUOUS
 62
    7
 10
13.510068521564335
 20
43.010395875024074
 11
12.25002827116532
 21
44.270436125423089
  0
LINE
  8
_0-0_
  6
CONTINUOUS
 62
    7
 10
11.54292148997888
 20
44.270436125423089
 11
1.7999236691127862
 21
34.527438304556995
  0
LINE
  8
_0-0_
  6
CONTINUOUS
 62
    7
 10
1.3605838408925592
 20
33.466778132776994
 11
1.3605838408925592
 21
8.5880984763369952
  0
LINE
  8
_0-0_
  6
CONTINUOUS
 62
    7
 10
2.8605838408925592
 20
7.0880984763369952
 11
15.76058384089265
 21
7.0880984763369952
  0
LINE
  8
_0-0_
  6
CONTINUOUS
 62
    7
 10
16.26058384089265
 20
7.5880984763369952
 11
16.26058384089265
 21
9.3700644875870012
  0
LINE
  8
_0-0_
  6
CONTINUOUS
 62
    7
 10
16.207797436392639
 20
9.5936712853371091
 11
15.798780442017687
 21
10.411705274087012
  0
LINE
  8
_0-0_
  6
CONTINUOUS
 62
    7
 10
15.351566846517699
 20
10.688098476336904
 11
13.860583840892559
 21
10.688098476336904
  0
LINE
  8
_0-0_
  6
CONTINUOUS
 62
    7
 10
13.360583840892559
 20
11.188098476336904
 11
13.360583840892559
 21
15.380991695150328
  0
LINE
  8
_0-1_
  6
CENTER1
 62
    7
 10
13.360583840892559
 20
13.088098476336995
 11
1.3605838408925592
 21
13.088098476336995
  0
LINE
  8
_0-0_
  6
CONTINUOUS
 62
    7
 10
3.468532330241942
 20
11.260002461778981
 11
3.0208912201064777
 21
10.030118619662403
  0
LINE
  8
_0-0_
  6
CONTINUOUS
 62
    7
 10
4.3026039842181945
 20
8.7484058555509137
 11
5.5324878263345454
 21
9.1960469656863779
  0
LINE
  8
_0-0_
  6
CONTINUOUS
 62
    7
 10
9.1886798554503457
 20
9.1960469656863779
 11
10.418563697566697
 21
8.7484058555509137
  0
LINE
  8
_0-0_
  6
CONTINUOUS
 62
    7
 10
11.700276461678413
 20
10.030118619662403
 11
11.252635351543177
 21
11.260002461778981
  0
LINE
  8
_0-0_
  6
CONTINUOUS
 62
    7
 10
11.252635351543177
 20
14.916194490895009
 11
11.700276461678413
 21
16.146078333011133
  0
LINE
  8
_0-1_
  6
CENTER1
 62
    7
 10
7.3605838408925592
 20
19.088098476336995
 11
7.3605838408925592
 21
7.0880984763369952
  0
LINE
  8
_0-0_
  6
CONTINUOUS
 62
    7
 10
23.245360151742943
 20
36.588098476336995
 11
38.860583840892559
 21
36.588098476336995
  0
LINE
  8
_0-0_
  6
CONTINUOUS
 62
    7
 10
39.360583840892559
 20
37.088098476336995
 11
39.360583840892559
 21
49.621107065327919
  0
LINE
  8
_0-0_
  6
CONTINUOUS
 62
    7
 10
39.214137231485893
 20
49.974660455921253
 11
29.998408478947795
 21
59.190389208459123
  0
LINE
  8
_0-0_
  6
CONTINUOUS
 62
    7
 10
29.291301697761128
 20
59.190389208459123
 11
24.341554229455369
 21
54.240641740153364
  0
LINE
  8
_0-0_
  6
CONTINUOUS
 62
    7
 10
24.341554229455369
 20
53.533534958966698
 11
29.023534744794915
 21
48.851554443627151
  0
LINE
  8
_0-0_
  6
CONTINUOUS
 62
    7
 10
29.169981354201582
 20
48.498001053034272
 11
29.169981354201582
 21
45.13404002235518
  0
LINE
  8
_0-0_
  6
CONTINUOUS
 62
    7
 10
29.023534744794915
 20
44.780486631761846
 11
22.538253370556504
 21
38.295205257523662
  0
LINE
  8
_0-0_
  6
CONTINUOUS
 62
    7
 10
39.700276461678413
 20
16.146078333011133
 11
39.252635351543177
 21
14.916194490895009
  0
LINE
  8
_0-0_
  6
CONTINUOUS
 62
    7
 10
38.418563697566697
 20
17.427791097122622
 11
37.188679855450573
 21
16.980149986987612
  0
LINE
  8
_0-0_
  6
CONTINUOUS
 62
    7
 10
33.532487826334545
 20
16.980149986987612
 11
32.302603984218194
 21
17.427791097122622
  0
LINE
  8
_0-0_
  6
CONTINUOUS
 62
    7
 10
31.020891220106478
 20
16.146078333011133
 11
31.468532330241942
 21
14.916194490895009
  0
LINE
  8
_0-0_
  6
CONTINUOUS
 62
    7
 10
31.468532330241942
 20
11.260002461778981
 11
31.020891220106478
 21
10.030118619662403
  0
LINE
  8
_0-0_
  6
CONTINUOUS
 62
    7
 10
32.302603984218194
 20
8.7484058555509137
 11
33.532487826334545
 21
9.1960469656863779
  0
LINE
  8
_0-0_
  6
CONTINUOUS
 62
    7
 10
37.188679855450346
 20
9.1960469656863779
 11
38.418563697566697
 21
8.7484058555509137
  0
LINE
  8
_0-0_
  6
CONTINUOUS
 62
    7
 10
39.700276461678413
 20
10.030118619662403
 11
39.252635351543177
 21
11.260002461778981
  0
LINE
  8
_0-1_
  6
CENTER1
 62
    7
 10
41.360583840892559
 20
13.088098476336995
 11
29.360583840892559
 21
13.088098476336995
  0
LINE
  8
_0-1_
  6
CENTER1
 62
    7
 10
35.360583840892559
 20
19.088098476336995
 11
35.360583840892559
 21
7.0880984763369952
  0
ARC
  8
_0-0_
  6
CONTINUOUS
 62
    7
 10
37.26058384089265
 20
34.588098476336995
 40
0.5
 50
0
 51
90
  0
ARC
  8
_0-0_
  6
CONTINUOUS
 62
    7
 10
33.067690622079226
 20
34.588098476336995
 40
0.5
 50
90
 51
135
  0
ARC
  8
_0-0_
  6
CONTINUOUS
 62
    7
 10
29.26058384089265
 20
34.488098476337086
 40
0.5
 50
0
 51
90
  0
ARC
  8
_0-0_
  6
CONTINUOUS
 62
    7
 10
13.460583840892468
 20
34.488098476337086
 40
0.5
 50
90
 51
180
  0
ARC
  8
_0-0_
  6
CONTINUOUS
 62
    7
 10
40.860583840892559
 20
32.688098476336904
 40
0.5
 50
270
 51
0
  0
ARC
  8
_0-0_
  6
CONTINUOUS
 62
    7
 10
39.078617829642553
 20
32.688098476336904
 40
0.5
 50
243.43494882292254
 51
270
  0
ARC
  8
_0-0_
  6
CONTINUOUS
 62
    7
 10
38.26058384089265
 20
33.097115470711628
 40
0.5
 50
179.99999999999994
 51
243.43494882292288
  0
ARC
  8
_0-0_
  6
CONTINUOUS
 62
    7
 10
31.860583840892559
 20
33.380991695150328
 40
0.5
 50
134.99999999999966
 51
179.99999999999997
  0
ARC
  8
_0-0_
  6
CONTINUOUS
 62
    7
 10
13.460583840892468
 20
31.543745520097104
 40
0.5
 50
180.00000000000006
 51
264.68545433005431
  0
ARC
  8
_0-0_
  6
CONTINUOUS
 62
    7
 10
29.26058384089265
 20
31.543745520097104
 40
0.5
 50
275.31454566994483
 51
359.99999999999994
  0
ARC
  8
_0-0_
  6
CONTINUOUS
 62
    7
 10
25.960583840892468
 20
30.23245143257634
 40
0.5
 50
95.314545669945076
 51
179.99999999999991
  0
ARC
  8
_0-0_
  6
CONTINUOUS
 62
    7
 10
16.76058384089265
 20
30.23245143257634
 40
0.5
 50
0
 51
84.685454330054924
  0
ARC
  8
_0-0_
  6
CONTINUOUS
 62
    7
 10
40.860583840892559
 20
21.488098476337086
 40
0.5
 50
0
 51
90
  0
ARC
  8
_0-0_
  6
CONTINUOUS
 62
    7
 10
39.078617829642553
 20
21.488098476337086
 40
0.5
 50
90
 51
116.56505117707746
  0
ARC
  8
_0-0_
  6
CONTINUOUS
 62
    7
 10
13.460583840892468
 20
22.632451432576886
 40
0.5
 50
95.314545669945687
 51
179.99999999999994
  0
ARC
  8
_0-0_
  6
CONTINUOUS
 62
    7
 10
29.26058384089265
 20
22.632451432576886
 40
0.5
 50
0.0000000000000636
 51
84.685454330055222
  0
ARC
  8
_0-0_
  6
CONTINUOUS
 62
    7
 10
25.960583840892468
 20
23.943745520097195
 40
0.5
 50
179.99999999999997
 51
264.68545433005482
  0
ARC
  8
_0-0_
  6
CONTINUOUS
 62
    7
 10
16.76058384089265
 20
23.943745520097195
 40
0.5
 50
275.31454566994506
 51
0.0000000000000127
  0
ARC
  8
_0-0_
  6
CONTINUOUS
 62
    7
 10
38.26058384089265
 20
21.079081481961907
 40
0.5
 50
116.56505117707712
 51
180.00000000000006
  0
ARC
  8
_0-0_
  6
CONTINUOUS
 62
    7
 10
37.26058384089265
 20
19.588098476336995
 40
0.5
 50
270
 51
0
  0
ARC
  8
_0-0_
  6
CONTINUOUS
 62
    7
 10
33.067690622079226
 20
19.588098476336995
 40
0.5
 50
225
 51
270
  0
ARC
  8
_0-0_
  6
CONTINUOUS
 62
    7
 10
31.860583840892559
 20
20.795205257523662
 40
0.5
 50
180
 51
225.00000000000031
  0
ARC
  8
_0-0_
  6
CONTINUOUS
 62
    7
 10
13.460583840892468
 20
19.188098476336904
 40
0.5
 50
180
 51
270
  0
ARC
  8
_0-0_
  6
CONTINUOUS
 62
    7
 10
29.26058384089265
 20
19.188098476336904
 40
0.5
 50
270
 51
0
  0
ARC
  8
_0-0_
  6
CONTINUOUS
 62
    7
 10
28.860583840892559
 20
15.380991695150328
 40
0.5
 50
0
 51
45
  0
ARC
  8
_0-0_
  6
CONTINUOUS
 62
    7
 10
27.65347705970612
 20
16.588098476336995
 40
0.5
 50
44.999999999999694
 51
90
  0
ARC
  8
_0-0_
  6
CONTINUOUS
 62
    7
 10
13.860583840892559
 20
15.380991695150328
 40
0.5
 50
135
 51
180
  0
ARC
  8
_0-0_
  6
CONTINUOUS
 62
    7
 10
15.067690622079226
 20
16.588098476336995
 40
0.5
 50
90
 51
135.00000000000031
  0
ARC
  8
_0-0_
  6
CONTINUOUS
 62
    7
 10
28.860583840892559
 20
11.188098476336904
 40
0.5
 50
270
 51
0
  0
ARC
  8
_0-0_
  6
CONTINUOUS
 62
    7
 10
13.860583840892559
 20
11.188098476336904
 40
0.5
 50
180
 51
270
  0
ARC
  8
_0-0_
  6
CONTINUOUS
 62
    7
 10
26.960583840892468
 20
9.3700644875870012
 40
0.5
 50
153.43494882292254
 51
180
  0
ARC
  8
_0-0_
  6
CONTINUOUS
 62
    7
 10
27.36960083526742
 20
10.188098476336904
 40
0.5
 50
89.999999999999929
 51
153.43494882292288
  0
ARC
  8
_0-0_
  6
CONTINUOUS
 62
    7
 10
15.76058384089265
 20
9.3700644875870012
 40
0.5
 50
0
 51
26.565051177077439
  0
ARC
  8
_0-0_
  6
CONTINUOUS
 62
    7
 10
15.351566846517699
 20
10.188098476336904
 40
0.5
 50
26.565051177077127
 51
90.000000000000057
  0
ARC
  8
_0-0_
  6
CONTINUOUS
 62
    7
 10
39.860583840892559
 20
8.5880984763369952
 40
1.5
 50
270
 51
0
  0
ARC
  8
_0-0_
  6
CONTINUOUS
 62
    7
 10
2.8605838408925592
 20
8.5880984763369952
 40
1.5
 50
180
 51
270
  0
ARC
  8
_0-0_
  6
CONTINUOUS
 62
    7
 10
26.960583840892468
 20
7.5880984763369952
 40
0.5
 50
180
 51
270
  0
ARC
  8
_0-0_
  6
CONTINUOUS
 62
    7
 10
15.76058384089265
 20
7.5880984763369952
 40
0.5
 50
270
 51
0
  0
ARC
  8
_0-0_
  6
CONTINUOUS
 62
    7
 10
35.360583840892559
 20
13.088098476336995
 40
4.2999999999999989
 50
64.840562836470582
 51
115.15943716352932
  0
ARC
  8
_0-0_
  6
CONTINUOUS
 62
    7
 10
38.76058384089265
 20
16.488098476337086
 40
1
 50
340
 51
110.00000000000009
  0
ARC
  8
_0-0_
  6
CONTINUOUS
 62
    7
 10
38.76058384089265
 20
9.6880984763369042
 40
1
 50
249.99999999999997
 51
20.000000000000103
  0
ARC
  8
_0-0_
  6
CONTINUOUS
 62
    7
 10
31.960583840892468
 20
9.6880984763369042
 40
1
 50
159.99999999999994
 51
290.00000000000011
  0
ARC
  8
_0-0_
  6
CONTINUOUS
 62
    7
 10
31.960583840892468
 20
16.488098476337086
 40
1
 50
69.999999999999915
 51
200.00000000000014
  0
ARC
  8
_0-0_
  6
CONTINUOUS
 62
    7
 10
35.360583840892559
 20
13.088098476336995
 40
4.2999999999999989
 50
334.84056283647055
 51
25.159437163529311
  0
ARC
  8
_0-0_
  6
CONTINUOUS
 62
    7
 10
35.360583840892559
 20
13.088098476336995
 40
4.2999999999999989
 50
244.84056283647055
 51
295.15943716352933
  0
ARC
  8
_0-0_
  6
CONTINUOUS
 62
    7
 10
35.360583840892559
 20
13.088098476336995
 40
4.2999999999999989
 50
154.84056283647061
 51
205.15943716352933
  0
ARC
  8
_0-0_
  6
CONTINUOUS
 62
    7
 10
7.3605838408925592
 20
13.088098476336995
 40
4.2999999999999989
 50
64.840562836470582
 51
115.15943716352932
  0
ARC
  8
_0-0_
  6
CONTINUOUS
 62
    7
 10
10.76058384089265
 20
16.488098476337086
 40
1
 50
340
 51
110.00000000000009
  0
ARC
  8
_0-0_
  6
CONTINUOUS
 62
    7
 10
10.76058384089265
 20
9.6880984763369042
 40
1
 50
249.99999999999997
 51
20.000000000000103
  0
ARC
  8
_0-0_
  6
CONTINUOUS
 62
    7
 10
3.9605838408924683
 20
9.6880984763369042
 40
1
 50
159.99999999999994
 51
290.00000000000011
  0
ARC
  8
_0-0_
  6
CONTINUOUS
 62
    7
 10
3.9605838408924683
 20
16.488098476337086
 40
1
 50
69.999999999999915
 51
200.00000000000014
  0
ARC
  8
_0-0_
  6
CONTINUOUS
 62
    7
 10
7.3605838408925592
 20
13.088098476336995
 40
4.2999999999999989
 50
334.84056283647055
 51
25.159437163529311
  0
ARC
  8
_0-0_
  6
CONTINUOUS
 62
    7
 10
7.3605838408925592
 20
13.088098476336995
 40
4.2999999999999989
 50
244.84056283647055
 51
295.15943716352933
  0
ARC
  8
_0-0_
  6
CONTINUOUS
 62
    7
 10
7.3605838408925592
 20
13.088098476336995
 40
4.2999999999999989
 50
154.84056283647061
 51
205.15943716352933
  0
ARC
  8
_0-0_
  6
CONTINUOUS
 62
    7
 10
29.644855088354461
 20
60.251049380239124
 40
1.5
 50
45.000000000000028
 51
135
  0
ARC
  8
_0-0_
  6
CONTINUOUS
 62
    7
 10
16.063379636403397
 20
37.062972210489875
 40
0.5
 50
225
 51
270
  0
ARC
  8
_0-0_
  6
CONTINUOUS
 62
    7
 10
17.770486417589836
 20
37.062972210489875
 40
0.5
 50
269.99999999999977
 51
315
  0
ARC
  8
_0-0_
  6
CONTINUOUS
 62
    7
 10
26.669981354201582
 20
47.66957392828806
 40
0.5
 50
0
 51
45
  0
ARC
  8
_0-0_
  6
CONTINUOUS
 62
    7
 10
26.669981354201582
 20
45.962467147101393
 40
0.5
 50
315
 51
0.0000000000002289
  0
ARC
  8
_0-0_
  6
CONTINUOUS
 62
    7
 10
13.098556408589275
 20
40.027795438303542
 40
0.5
 50
135
 51
225
  0
ARC
  8
_0-0_
  6
CONTINUOUS
 62
    7
 10
23.70515812638746
 20
50.634397156101727
 40
0.5
 50
45
 51
135
  0
ARC
  8
_0-0_
  6
CONTINUOUS
 62
    7
 10
13.156515130971002
 20
42.65684248443074
 40
0.5
 50
18.434948822922543
 51
45.000000000000007
  0
ARC
  8
_0-0_
  6
CONTINUOUS
 62
    7
 10
13.445733821314207
 20
41.78918641340158
 40
0.5
 50
314.99999999999994
 51
18.434948822922884
  0
ARC
  8
_0-0_
  6
CONTINUOUS
 62
    7
 10
21.076111080260262
 20
50.576438433720227
 40
0.5
 50
225
 51
251.56505117707746
  0
ARC
  8
_0-0_
  6
CONTINUOUS
 62
    7
 10
21.943767151289649
 20
50.287219743377022
 40
0.5
 50
251.56505117707712
 51
315.00000000000006
  0
ARC
  8
_0-0_
  6
CONTINUOUS
 62
    7
 10
11.896474880572214
 20
43.916882734829755
 40
0.5
 50
45
 51
135
  0
ARC
  8
_0-0_
  6
CONTINUOUS
 62
    7
 10
19.816070829861474
 20
51.836478684119243
 40
0.5
 50
135
 51
225
  0
ARC
  8
_0-0_
  6
CONTINUOUS
 62
    7
 10
23.245360151742943
 20
37.588098476336995
 40
1
 50
135.00000000000003
 51
270
  0
ARC
  8
_0-0_
  6
CONTINUOUS
 62
    7
 10
38.860583840892559
 20
37.088098476336995
 40
0.5
 50
270
 51
0
  0
ARC
  8
_0-0_
  6
CONTINUOUS
 62
    7
 10
38.860583840892559
 20
49.621107065327919
 40
0.5
 50
0
 51
45.000000000000057
  0
ARC
  8
_0-0_
  6
CONTINUOUS
 62
    7
 10
29.644855088354461
 20
58.83683581786579
 40
0.5
 50
44.99999999999995
 51
134.99999999999986
  0
ARC
  8
_0-0_
  6
CONTINUOUS
 62
    7
 10
24.695107620048702
 20
53.887088349560031
 40
0.5
 50
134.9999999999998
 51
225.00000000000006
  0
ARC
  8
_0-0_
  6
CONTINUOUS
 62
    7
 10
28.669981354201582
 20
48.498001053034272
 40
0.5
 50
0.0000000000000127
 51
45.000000000000149
  0
ARC
  8
_0-0_
  6
CONTINUOUS
 62
    7
 10
28.669981354201582
 20
45.13404002235518
 40
0.5
 50
315.00000000000011
 51
0
  0
ARC
  8
_0-0_
  6
CONTINUOUS
 62
    7
 10
9.8458652151311981
 20
39.037845944642754
 40
0.5
 50
45
 51
135.00000000000006
  0
ARC
  8
_0-0_
  6
CONTINUOUS
 62
    7
 10
10.860583840892559
 20
38.023127318881393
 40
0.5
 50
0
 51
45.000000000000433
  0
ARC
  8
_0-0_
  6
CONTINUOUS
 62
    7
 10
10.860583840892559
 20
19.588098476336995
 40
0.5
 50
270
 51
0
  0
ARC
  8
_0-0_
  6
CONTINUOUS
 62
    7
 10
3.8605838408925592
 20
19.588098476336995
 40
0.5
 50
180
 51
270
  0
ARC
  8
_0-0_
  6
CONTINUOUS
 62
    7
 10
3.8605838408925592
 20
33.052564570404115
 40
0.5
 50
134.99999999999994
 51
180
  0
ARC
  8
_0-0_
  6
CONTINUOUS
 62
    7
 10
2.8605838408925592
 20
33.466778132776994
 40
1.5
 50
135
 51
180
  0
ARC
  8
_0-0_
  6
CONTINUOUS
 62
    7
 10
39.860583840892559
 20
50.035320627700798
 40
1.5
 50
0
 51
45
  0
ARC
  8
_0-0_
  6
CONTINUOUS
 62
    7
 10
31.060583840892605
 20
26.667521339742848
 40
0.2999999999999998
 50
0
 51
29.999999999998039
  0
ARC
  8
_0-0_
  6
CONTINUOUS
 62
    7
 10
31.060583840892605
 20
27.508675612930688
 40
0.2999999999999998
 50
329.99999999999864
 51
359.99999999999994
  0
ARC
  8
_0-0_
  6
CONTINUOUS
 62
    7
 10
31.51058384089265
 20
27.088098476336995
 40
0.2999999999999922
 50
149.99999999999758
 51
209.99999999999733
  0
LINE
  8
_0-1_
  6
CENTER2
 62
  152
 10
21.360583840892559
 20
7.0880984763369952
 11
21.360583840892559
 21
27.088098476336995
  0
LINE
  8
_0-1_
  6
CENTER2
 62
  152
 10
1.360583840893014
 20
27.088098476336995
 11
41.360583840892559
 21
27.088098476336995
  0
LINE
  8
_0-1_
  6
CENTER2
 62
  152
 10
22.573787277528481
 20
41.159166289241398
 11
15.502719465662949
 21
48.230234101106703
  0
ENDSEC
  0
EOF
