  0
SECTION
  2
HEADER
  9
$ACADVER
  1
AC1009
  9
$INSBASE
 10
0
 20
0
 30
0
  9
$EXTMIN
 10
0
 20
0
  9
$EXTMAX
 10
420
 20
297
  9
$LIMMIN
 10
0
 20
0
  9
$LIMMAX
 10
420
 20
297
  9
$LTSCALE
 40
1
  0
ENDSEC
  0
SECTION
  2
TABLES
  0
TABLE
  2
LTYPE
 70
     9
  0
LTYPE
  2
CONTINUOUS
 70
    64
  3
実線
 72
    65
 73
     0
 40
0.0
  0
LTYPE
  2
DASHED1
 70
    64
  3
--  --  --  --  --  --  --  --  
 72
    65
 73
     2
 40
2.5
 49
1.25
 49
-1.25
  0
LTYPE
  2
DASHED2
 70
    64
  3
----    ----    ----    ----    
 72
    65
 73
     2
 40
5.0
 49
2.5
 49
-2.5
  0
LTYPE
  2
DASHED3
 70
    64
  3
------  ------  ------  ------  
 72
    65
 73
     2
 40
5.0
 49
3.75
 49
-1.25
  0
LTYPE
  2
CENTER1
 70
    64
  3
----- - ----- - ----- - ----- - 
 72
    65
 73
     4
 40
10.0
 49
6.25
 49
-1.25
 49
1.25
 49
-1.25
  0
LTYPE
  2
CENTER2
 70
    64
  3
----------  --  ----------  --  
 72
    65
 73
     4
 40
20.0
 49
12.5
 49
-2.5
 49
2.5
 49
-2.5
  0
LTYPE
  2
PHANTOM1
 70
    64
  3
--- - - --- - - --- - - --- - - 
 72
    65
 73
     6
 40
10.0
 49
3.25
 49
-1.25
 49
1.25
 49
-1.25
 49
1.25
 49
-1.25
  0
LTYPE
  2
PHANTOM2
 70
    64
  3
--------  -  -  --------  -  -  
 72
    65
 73
     6
 40
20.0
 49
10.0
 49
-2.5
 49
1.25
 49
-2.5
 49
1.25
 49
-2.5
  0
LTYPE
  2
DOT
 70
    64
  3
-   -   -   -   -   -   -   -   
 72
    65
 73
     2
 40
2.5
 49
0.625
 49
-1.875
  0
LTYPE
  2
DUMMY
 70
    64
  3
ダミー
 72
    65
 73
     0
 40
0.0
  0
LTYPE
  2
RAND1
 70
    64
  3
ランダム線1
 72
    65
 73
     4
 40
10.0
 49
1.0
 49
-2.0
 49
3.0
 49
-4.0
  0
LTYPE
  2
RAND2
 70
    64
  3
ランダム線2
 72
    65
 73
     4
 40
14.0
 49
2.0
 49
-3.0
 49
4.0
 49
-5.0
  0
LTYPE
  2
RAND3
 70
    64
  3
ランダム線3
 72
    65
 73
     4
 40
18.0
 49
3.0
 49
-4.0
 49
5.0
 49
-6.0
  0
LTYPE
  2
RAND4
 70
    64
  3
ランダム線4
 72
    65
 73
     4
 40
22.0
 49
4.0
 49
-5.0
 49
6.0
 49
-7.0
  0
LTYPE
  2
RAND5
 70
    64
  3
ランダム線5
 72
    65
 73
     4
 40
26.0
 49
5.0
 49
-6.0
 49
7.0
 49
-8.0
  0
LTYPE
  2
LONG1
 70
    64
  3
----------  --  ----------  --  
 72
    65
 73
     4
 40
40.0
 49
32.5
 49
-2.5
 49
2.5
 49
-2.5
  0
LTYPE
  2
LONG2
 70
    64
  3
--------  -  -  --------  -  -  
 72
    65
 73
     6
 40
40.0
 49
30.0
 49
-2.5
 49
1.25
 49
-2.5
 49
1.25
 49
-2.5
  0
LTYPE
  2
LONG3
 70
    64
  3
+++++++++++++++..+++++++++++++++
 72
    65
 73
     2
 40
40.0
 49
37.5
 49
-2.5
  0
LTYPE
  2
LONG4
 70
    64
  3
+++++++++++++++..+++++++++++++++
 72
    65
 73
     2
 40
80.0
 49
75.0
 49
-5.0
  0
LTYPE
  2
LONG5
 70
    64
  3
----------  --  ----------  --  
 72
    65
 73
     4
 40
60.0
 49
37.5
 49
-7.5
 49
7.5
 49
-7.5
  0
LTYPE
  2
dashed
 70
   64
  3
-------   -------------   ------
 72
   65
 73
    2
 40
7.5
 49
6
 49
-1.5
  0
LTYPE
  2
dashed_spaced
 70
   64
  3
----        --------        ----
 72
   65
 73
    2
 40
12
 49
6
 49
-6
  0
LTYPE
  2
long_dashed_dotted
 70
   64
  3
------------- --- --------------
 72
   65
 73
    4
 40
15.25
 49
12
 49
-1.5
 49
0.25
 49
-1.5
  0
LTYPE
  2
long_dashed_double-dotted
 70
   64
  3
----------- --- --- ------------
 72
   65
 73
    6
 40
17
 49
12
 49
-1.5
 49
0.25
 49
-1.5
 49
0.25
 49
-1.5
  0
LTYPE
  2
long_dashed_triplicate-dotted
 70
   64
  3
--------- --- --- --- ----------
 72
   65
 73
    8
 40
18.75
 49
12
 49
-1.5
 49
0.25
 49
-1.5
 49
0.25
 49
-1.5
 49
0.25
 49
-1.5
  0
LTYPE
  2
dotted
 70
   64
  3
   -       -       -       -    
 72
   65
 73
    2
 40
1.75
 49
0.25
 49
-1.5
  0
LTYPE
  2
chain
 70
   64
  3
-------------- -- --------------
 72
   65
 73
    4
 40
18.5
 49
12
 49
-1.5
 49
3.5
 49
-1.5
  0
LTYPE
  2
chain_double_dash
 70
   64
  3
------------ -- -- -------------
 72
   65
 73
    6
 40
23.5
 49
12
 49
-1.5
 49
3.5
 49
-1.5
 49
3.5
 49
-1.5
  0
LTYPE
  2
dashed_dotted
 70
   64
  3
-----------     -     ----------
 72
   65
 73
    4
 40
9.25
 49
6
 49
-1.5
 49
0.25
 49
-1.5
  0
LTYPE
  2
double-dashed_dotted
 70
   64
  3
------   -----------   -   -----
 72
   65
 73
    6
 40
16.75
 49
6
 49
-1.5
 49
6
 49
-1.5
 49
0.25
 49
-1.5
  0
LTYPE
  2
dashed_double-dotted
 70
   64
  3
---------    -    -    ---------
 72
   65
 73
    6
 40
11
 49
6
 49
-1.5
 49
0.25
 49
-1.5
 49
0.25
 49
-1.5
  0
LTYPE
  2
double-dashed_double-dotted
 70
   64
  3
-----   ---------   -   -   ----
 72
   65
 73
    8
 40
18.5
 49
6
 49
-1.5
 49
6
 49
-1.5
 49
0.25
 49
-1.5
 49
0.25
 49
-1.5
  0
LTYPE
  2
dashed_triplicate-dotted
 70
   64
  3
-------    -    -    -    ------
 72
   65
 73
    8
 40
12.75
 49
6
 49
-1.5
 49
0.25
 49
-1.5
 49
0.25
 49
-1.5
 49
0.25
 49
-1.5
  0
LTYPE
  2
double-dashed_triplicate-dotted
 70
   64
  3
-----  ---------  -  -  -  -----
 72
   65
 73
   10
 40
20.25
 49
6
 49
-1.5
 49
6
 49
-1.5
 49
0.25
 49
-1.5
 49
0.25
 49
-1.5
 49
0.25
 49
-1.5
  0
LTYPE
  2
undefined
 70
   64
  3
--------------------------------
 72
   65
 73
    0
 40
0
  0
LTYPE
  2
_
 70
   64
  3
                                
 72
   65
 73
    0
 40
0
  0
LTYPE
  2
__18
 70
   64
  3
                                
 72
   65
 73
    0
 40
0
  0
LTYPE
  2
__19
 70
   64
  3
                                
 72
   65
 73
    0
 40
0
  0
LTYPE
  2
__20
 70
   64
  3
                                
 72
   65
 73
    0
 40
0
  0
LTYPE
  2
__21
 70
   64
  3
                                
 72
   65
 73
    0
 40
0
  0
LTYPE
  2
__22
 70
   64
  3
                                
 72
   65
 73
    0
 40
0
  0
LTYPE
  2
__23
 70
   64
  3
                                
 72
   65
 73
    0
 40
0
  0
LTYPE
  2
__24
 70
   64
  3
                                
 72
   65
 73
    0
 40
0
  0
LTYPE
  2
__25
 70
   64
  3
                                
 72
   65
 73
    0
 40
0
  0
LTYPE
  2
__26
 70
   64
  3
                                
 72
   65
 73
    0
 40
0
  0
LTYPE
  2
__27
 70
   64
  3
                                
 72
   65
 73
    0
 40
0
  0
LTYPE
  2
__28
 70
   64
  3
                                
 72
   65
 73
    0
 40
0
  0
LTYPE
  2
__29
 70
   64
  3
                                
 72
   65
 73
    0
 40
0
  0
LTYPE
  2
__30
 70
   64
  3
                                
 72
   65
 73
    0
 40
0
  0
LTYPE
  2
__31
 70
   64
  3
                                
 72
   65
 73
    0
 40
0
  0
LTYPE
  2
__32
 70
   64
  3
                                
 72
   65
 73
    0
 40
0
  0
ENDTAB
  0
TABLE
  2
STYLE
  5
3
100
AcDbSymbolTable
 70
     1
  0
STYLE
  5
10
100
AcDbSymbolTableRecord
100
AcDbTextStyleTableRecord
  2
STANDARD
 70
     0
 40
0.0
 41
1.0
 50
0.0
 71
     0
 42
0.2
  3
txt
  4
bigfont.shx
  0
STYLE
  5
26
100
AcDbSymbolTableRecord
100
AcDbTextStyleTableRecord
  2
TATEGAKI
 70
    68
 40
0.0
 41
1.0
 50
0.0
 71
     0
 42
1.0
  3
txt
  4
bigfont.shx
  0
ENDTAB
  0
TABLE
  2
LAYER
 70
    2
  0
LAYER
  2
_0-0_フレ__ム
 70
   64
 62
    7
  6
CONTINUOUS
  0
LAYER
  2
ADD_LINE
 70
   64
 62
    7
  6
CONTINUOUS
  0
ENDTAB
  0
ENDSEC
  0
SECTION
  2
BLOCKS
  0
ENDSEC
  0
SECTION
  2
ENTITIES
  0
LINE
  8
_0-0_フレ__ム
  6
CONTINUOUS
 62
    7
 10
21.118106105387909
 20
33.536580860203372
 11
23.820387507229583
 21
33.536580860203372
  0
LINE
  8
_0-0_フレ__ム
  6
CONTINUOUS
 62
    7
 10
31.820387507229583
 20
18.229474079016825
 11
31.820387507229583
 21
13.536580860203372
  0
LINE
  8
_0-0_フレ__ム
  6
CONTINUOUS
 62
    7
 10
33.820387507229583
 20
47.936580860203378
 11
33.820387507229583
 21
29.436580860203378
  0
ARC
  8
_0-0_フレ__ム
  6
CONTINUOUS
 62
    7
 10
32.320387507229583
 20
47.936580860203378
 40
1.5
 50
0
 51
90
  0
LINE
  8
_0-0_フレ__ム
  6
CONTINUOUS
 62
    7
 10
29.420387507229606
 20
49.436580860203378
 11
32.320387507229583
 21
49.436580860203378
  0
ARC
  8
_0-0_フレ__ム
  6
CONTINUOUS
 62
    7
 10
29.420387507229606
 20
48.936580860203378
 40
0.5
 50
90
 51
180
  0
LINE
  8
_0-0_フレ__ム
  6
CONTINUOUS
 62
    7
 10
28.920387507229606
 20
47.154614848953258
 11
28.920387507229606
 21
48.936580860203378
  0
ARC
  8
_0-0_フレ__ム
  6
CONTINUOUS
 62
    7
 10
29.420387507229606
 20
47.154614848953258
 40
0.5
 50
180
 51
206.565051177078
  0
LINE
  8
_0-0_フレ__ム
  6
CONTINUOUS
 62
    7
 10
29.382190906104569
 20
46.112974062453389
 11
28.973173911729617
 21
46.931008051203293
  0
ARC
  8
_0-0_フレ__ム
  6
CONTINUOUS
 62
    7
 10
29.829404501604557
 20
46.33658086020337
 40
0.5
 50
206.56505117707803
 51
270.00000000000006
  0
LINE
  8
_0-0_フレ__ム
  6
CONTINUOUS
 62
    7
 10
31.320387507229583
 20
45.83658086020337
 11
29.829404501604557
 21
45.83658086020337
  0
ARC
  8
_0-0_フレ__ム
  6
CONTINUOUS
 62
    7
 10
31.320387507229583
 20
45.33658086020337
 40
0.5
 50
0
 51
90
  0
LINE
  8
_0-0_フレ__ム
  6
CONTINUOUS
 62
    7
 10
31.820387507229583
 20
40.643687641389917
 11
31.820387507229583
 21
45.33658086020337
  0
ARC
  8
_0-0_フレ__ム
  6
CONTINUOUS
 62
    7
 10
31.320387507229583
 20
40.643687641389917
 40
0.5
 50
314.99999999999994
 51
359.99999999999994
  0
LINE
  8
_0-0_フレ__ム
  6
CONTINUOUS
 62
    7
 10
30.966834116636306
 20
39.583027469610101
 11
31.67394089782286
 21
40.29013425079664
  0
ARC
  8
_0-0_フレ__ム
  6
CONTINUOUS
 62
    7
 10
30.61328072604303
 20
39.936580860203378
 40
0.5
 50
270
 51
315
  0
ARC
  8
_0-0_フレ__ム
  6
CONTINUOUS
 62
    7
 10
18.220387507229589
 20
48.936580860203378
 40
0.5
 50
0
 51
90
  0
LINE
  8
_0-0_フレ__ム
  6
CONTINUOUS
 62
    7
 10
18.720387507229589
 20
47.154614848953258
 11
18.720387507229589
 21
48.936580860203378
  0
ARC
  8
_0-0_フレ__ム
  6
CONTINUOUS
 62
    7
 10
18.220387507229589
 20
47.154614848953258
 40
0.5
 50
333.43494882292202
 51
0
  0
LINE
  8
_0-0_フレ__ム
  6
CONTINUOUS
 62
    7
 10
18.258584108354626
 20
46.112974062453389
 11
18.667601102729577
 21
46.931008051203293
  0
ARC
  8
_0-0_フレ__ム
  6
CONTINUOUS
 62
    7
 10
17.811370512854637
 20
46.33658086020337
 40
0.5
 50
269.99999999999994
 51
333.43494882292197
  0
LINE
  8
_0-0_フレ__ム
  6
CONTINUOUS
 62
    7
 10
16.320387507229611
 20
45.83658086020337
 11
17.811370512854637
 21
45.83658086020337
  0
ARC
  8
_0-0_フレ__ム
  6
CONTINUOUS
 62
    7
 10
16.320387507229611
 20
45.33658086020337
 40
0.5
 50
90
 51
180
  0
LINE
  8
_0-0_フレ__ム
  6
CONTINUOUS
 62
    7
 10
15.820387507229611
 20
40.643687641389917
 11
15.820387507229611
 21
45.33658086020337
  0
ARC
  8
_0-0_フレ__ム
  6
CONTINUOUS
 62
    7
 10
16.320387507229611
 20
40.643687641389917
 40
0.5
 50
180.00000000000006
 51
225.00000000000006
  0
LINE
  8
_0-0_フレ__ム
  6
CONTINUOUS
 62
    7
 10
16.673940897822888
 20
39.583027469610101
 11
15.966834116636335
 21
40.29013425079664
  0
ARC
  8
_0-0_フレ__ム
  6
CONTINUOUS
 62
    7
 10
17.027494288416165
 20
39.936580860203378
 40
0.5
 50
225
 51
270
  0
LINE
  8
_0-0_フレ__ム
  6
CONTINUOUS
 62
    7
 10
6.1023535184797311
 20
34.536580860203372
 11
4.3203875072296114
 21
34.536580860203372
  0
ARC
  8
_0-0_フレ__ム
  6
CONTINUOUS
 62
    7
 10
6.1023535184797311
 20
35.036580860203372
 40
0.5
 50
270
 51
296.56505117707798
  0
LINE
  8
_0-0_フレ__ム
  6
CONTINUOUS
 62
    7
 10
7.1439943049795716
 20
34.998384259078364
 11
6.3259603162296685
 21
34.589367264703412
  0
ARC
  8
_0-0_フレ__ム
  6
CONTINUOUS
 62
    7
 10
6.9203875072296057
 20
35.445597854578324
 40
0.5
 50
296.56505117707803
 51
0.0000000000000508
  0
LINE
  8
_0-0_フレ__ム
  6
CONTINUOUS
 62
    7
 10
7.4203875072296057
 20
36.936580860203378
 11
7.4203875072296057
 21
35.445597854578324
  0
ARC
  8
_0-0_フレ__ム
  6
CONTINUOUS
 62
    7
 10
7.9203875072296057
 20
36.936580860203378
 40
0.5
 50
90
 51
180
  0
LINE
  8
_0-0_フレ__ム
  6
CONTINUOUS
 62
    7
 10
12.613280726043058
 20
37.436580860203378
 11
7.9203875072296057
 21
37.436580860203378
  0
ARC
  8
_0-0_フレ__ム
  6
CONTINUOUS
 62
    7
 10
12.613280726043058
 20
36.936580860203378
 40
0.5
 50
44.99999999999995
 51
89.999999999999943
  0
LINE
  8
_0-0_フレ__ム
  6
CONTINUOUS
 62
    7
 10
13.673940897822888
 20
36.583027469610101
 11
12.966834116636335
 21
37.29013425079664
  0
LINE
  8
_0-0_フレ__ム
  6
CONTINUOUS
 62
    7
 10
13.820387507229611
 20
36.229474079016825
 11
13.820387507229611
 21
29.436580860203378
  0
ARC
  8
_0-0_フレ__ム
  6
CONTINUOUS
 62
    7
 10
13.320387507229611
 20
36.229474079016825
 40
0.5
 50
0
 51
45
  0
LINE
  8
_0-0_フレ__ム
  6
CONTINUOUS
 62
    7
 10
3.8203875072296114
 20
47.936580860203378
 11
3.8203875072296114
 21
35.036580860203372
  0
ARC
  8
_0-0_フレ__ム
  6
CONTINUOUS
 62
    7
 10
4.3203875072296114
 20
35.036580860203372
 40
0.5
 50
180
 51
270
  0
ARC
  8
_0-0_フレ__ム
  6
CONTINUOUS
 62
    7
 10
5.3203875072296114
 20
47.936580860203378
 40
1.5
 50
90.000000000000014
 51
180
  0
LINE
  8
_0-0_フレ__ム
  6
CONTINUOUS
 62
    7
 10
18.220387507229589
 20
49.436580860203378
 11
5.3203875072296114
 21
49.436580860203378
  0
LINE
  8
_0-0_フレ__ム
  6
CENTER1
 62
  152
 10
14.529398857655679
 20
43.436580860203378
 11
5.1654695476718189
 21
43.436580860203378
  0
LINE
  8
_0-0_フレ__ム
  6
CENTER1
 62
  152
 10
9.8203875072296114
 20
48.151463513629082
 11
9.8203875072296114
 21
38.667211604801906
  0
LINE
  8
_0-0_フレ__ム
  6
CONTINUOUS
 62
    7
 10
33.820387507229583
 20
10.936580860203378
 11
33.820387507229583
 21
29.436580860203378
  0
ARC
  8
_0-0_フレ__ム
  6
CONTINUOUS
 62
    7
 10
32.320387507229583
 20
10.936580860203378
 40
1.5
 50
270
 51
0.0000000000000127
  0
LINE
  8
_0-0_フレ__ム
  6
CONTINUOUS
 62
    7
 10
29.420387507229606
 20
9.4365808602033781
 11
32.320387507229583
 21
9.4365808602033781
  0
ARC
  8
_0-0_フレ__ム
  6
CONTINUOUS
 62
    7
 10
29.420387507229606
 20
9.9365808602033781
 40
0.5
 50
180
 51
270
  0
LINE
  8
_0-0_フレ__ム
  6
CONTINUOUS
 62
    7
 10
28.920387507229606
 20
11.718546871453498
 11
28.920387507229606
 21
9.9365808602033781
  0
ARC
  8
_0-0_フレ__ム
  6
CONTINUOUS
 62
    7
 10
29.420387507229606
 20
11.718546871453498
 40
0.5
 50
153.434948822922
 51
180
  0
LINE
  8
_0-0_フレ__ム
  6
CONTINUOUS
 62
    7
 10
29.382190906104569
 20
12.760187657953338
 11
28.973173911729617
 21
11.942153669203464
  0
ARC
  8
_0-0_フレ__ム
  6
CONTINUOUS
 62
    7
 10
29.829404501604557
 20
12.536580860203372
 40
0.5
 50
89.999999999999943
 51
153.43494882292197
  0
LINE
  8
_0-0_フレ__ム
  6
CONTINUOUS
 62
    7
 10
31.320387507229583
 20
13.036580860203372
 11
29.829404501604557
 21
13.036580860203372
  0
ARC
  8
_0-0_フレ__ム
  6
CONTINUOUS
 62
    7
 10
31.320387507229583
 20
13.536580860203372
 40
0.5
 50
270
 51
0
  0
ARC
  8
_0-0_フレ__ム
  6
CONTINUOUS
 62
    7
 10
31.320387507229583
 20
18.229474079016825
 40
0.5
 50
0.0000000000000508
 51
45.00000000000005
  0
LINE
  8
_0-0_フレ__ム
  6
CONTINUOUS
 62
    7
 10
30.966834116636306
 20
19.290134250796655
 11
31.67394089782286
 21
18.583027469610101
  0
ARC
  8
_0-0_フレ__ム
  6
CONTINUOUS
 62
    7
 10
30.61328072604303
 20
18.936580860203378
 40
0.5
 50
45
 51
90
  0
ARC
  8
_0-0_フレ__ム
  6
CONTINUOUS
 62
    7
 10
18.220387507229589
 20
9.9365808602033781
 40
0.5
 50
270
 51
0
  0
LINE
  8
_0-0_フレ__ム
  6
CONTINUOUS
 62
    7
 10
18.720387507229589
 20
11.718546871453498
 11
18.720387507229589
 21
9.9365808602033781
  0
ARC
  8
_0-0_フレ__ム
  6
CONTINUOUS
 62
    7
 10
18.220387507229589
 20
11.718546871453498
 40
0.5
 50
0
 51
26.565051177077994
  0
LINE
  8
_0-0_フレ__ム
  6
CONTINUOUS
 62
    7
 10
18.258584108354626
 20
12.760187657953338
 11
18.667601102729577
 21
11.942153669203464
  0
ARC
  8
_0-0_フレ__ム
  6
CONTINUOUS
 62
    7
 10
17.811370512854637
 20
12.536580860203372
 40
0.5
 50
26.565051177078043
 51
90.000000000000057
  0
LINE
  8
_0-0_フレ__ム
  6
CONTINUOUS
 62
    7
 10
16.320387507229611
 20
13.036580860203372
 11
17.811370512854637
 21
13.036580860203372
  0
ARC
  8
_0-0_フレ__ム
  6
CONTINUOUS
 62
    7
 10
16.320387507229611
 20
13.536580860203372
 40
0.5
 50
180
 51
270
  0
LINE
  8
_0-0_フレ__ム
  6
CONTINUOUS
 62
    7
 10
15.820387507229611
 20
18.229474079016825
 11
15.820387507229611
 21
13.536580860203372
  0
ARC
  8
_0-0_フレ__ム
  6
CONTINUOUS
 62
    7
 10
16.320387507229611
 20
18.229474079016825
 40
0.5
 50
134.99999999999994
 51
179.99999999999994
  0
LINE
  8
_0-0_フレ__ム
  6
CONTINUOUS
 62
    7
 10
16.673940897822888
 20
19.290134250796655
 11
15.966834116636335
 21
18.583027469610101
  0
ARC
  8
_0-0_フレ__ム
  6
CONTINUOUS
 62
    7
 10
17.027494288416165
 20
18.936580860203378
 40
0.5
 50
90
 51
135
  0
LINE
  8
_0-0_フレ__ム
  6
CONTINUOUS
 62
    7
 10
6.1023535184797311
 20
24.33658086020337
 11
4.3203875072296114
 21
24.33658086020337
  0
ARC
  8
_0-0_フレ__ム
  6
CONTINUOUS
 62
    7
 10
6.1023535184797311
 20
23.83658086020337
 40
0.5
 50
63.43494882292201
 51
90
  0
LINE
  8
_0-0_フレ__ム
  6
CONTINUOUS
 62
    7
 10
7.1439943049795716
 20
23.874777461328378
 11
6.3259603162296685
 21
24.28379445570333
  0
ARC
  8
_0-0_フレ__ム
  6
CONTINUOUS
 62
    7
 10
6.9203875072296057
 20
23.427563865828418
 40
0.5
 50
359.99999999999994
 51
63.434948822921953
  0
LINE
  8
_0-0_フレ__ム
  6
CONTINUOUS
 62
    7
 10
7.4203875072296057
 20
21.936580860203378
 11
7.4203875072296057
 21
23.427563865828432
  0
ARC
  8
_0-0_フレ__ム
  6
CONTINUOUS
 62
    7
 10
7.9203875072296057
 20
21.936580860203378
 40
0.5
 50
180
 51
270
  0
LINE
  8
_0-0_フレ__ム
  6
CONTINUOUS
 62
    7
 10
12.613280726043058
 20
21.436580860203378
 11
7.9203875072296057
 21
21.436580860203378
  0
ARC
  8
_0-0_フレ__ム
  6
CONTINUOUS
 62
    7
 10
12.613280726043058
 20
21.936580860203378
 40
0.5
 50
270.00000000000006
 51
315.00000000000006
  0
LINE
  8
_0-0_フレ__ム
  6
CONTINUOUS
 62
    7
 10
13.673940897822888
 20
22.29013425079664
 11
12.966834116636335
 21
21.583027469610101
  0
LINE
  8
_0-0_フレ__ム
  6
CONTINUOUS
 62
    7
 10
13.820387507229611
 20
22.643687641389917
 11
13.820387507229611
 21
29.436580860203378
  0
ARC
  8
_0-0_フレ__ム
  6
CONTINUOUS
 62
    7
 10
13.320387507229611
 20
22.643687641389917
 40
0.5
 50
315
 51
0.0000000000000127
  0
LINE
  8
_0-0_フレ__ム
  6
CONTINUOUS
 62
    7
 10
3.8203875072296114
 20
10.936580860203378
 11
3.8203875072296114
 21
23.83658086020337
  0
ARC
  8
_0-0_フレ__ム
  6
CONTINUOUS
 62
    7
 10
4.3203875072296114
 20
23.83658086020337
 40
0.5
 50
90
 51
180
  0
ARC
  8
_0-0_フレ__ム
  6
CONTINUOUS
 62
    7
 10
5.3203875072296114
 20
10.936580860203378
 40
1.5
 50
180
 51
270
  0
LINE
  8
_0-0_フレ__ム
  6
CONTINUOUS
 62
    7
 10
18.220387507229589
 20
9.4365808602033781
 11
5.3203875072296114
 21
9.4365808602033781
  0
LINE
  8
_0-0_フレ__ム
  6
CENTER1
 62
  152
 10
14.529398857655679
 20
15.436580860203378
 11
5.1654695476718189
 21
15.436580860203378
  0
LINE
  8
_0-0_フレ__ム
  6
CENTER1
 62
  152
 10
9.8203875072296114
 20
10.72169820677766
 11
9.8203875072296114
 21
20.20595011560485
  0
LINE
  8
_0-0_フレ__ム
  6
CENTER1
 62
  152
 10
23.820387507229583
 20
51.369335147085451
 11
23.820387507229583
 21
7.8191100807644602
  0
LINE
  8
_0-0_フレ__ム
  6
CENTER1
 62
  152
 10
1.4316300301929061
 20
29.436580860203378
 11
35.347203109714286
 21
29.436580860203378
  0
LINE
  8
_0-0_フレ__ム
  6
CONTINUOUS
 62
    7
 10
15.420387507229577
 20
36.736580860203375
 11
15.420387507229577
 21
29.436580860203378
  0
ARC
  8
_0-0_フレ__ム
  6
CONTINUOUS
 62
    7
 10
15.920387507229577
 20
36.736580860203375
 40
0.5
 50
90
 51
180
  0
LINE
  8
_0-0_フレ__ム
  6
CONTINUOUS
 62
    7
 10
19.371528208150437
 20
37.236580860203375
 11
15.920387507229577
 21
37.236580860203375
  0
ARC
  8
_0-0_フレ__ム
  6
CONTINUOUS
 62
    7
 10
19.371528208150437
 20
36.736580860203375
 40
0.5
 50
6.1701750950296592
 51
90
  0
LINE
  8
_0-0_フレ__ム
  6
CONTINUOUS
 62
    7
 10
15.420387507229577
 20
22.136580860203367
 11
15.420387507229577
 21
29.436580860203378
  0
ARC
  8
_0-0_フレ__ム
  6
CONTINUOUS
 62
    7
 10
15.920387507229577
 20
22.136580860203367
 40
0.5
 50
180
 51
270
  0
ARC
  8
_0-0_フレ__ム
  6
CONTINUOUS
 62
    7
 10
19.371528208150437
 20
22.136580860203367
 40
0.5
 50
270
 51
353.82982490497034
  0
LINE
  8
_0-0_フレ__ム
  6
CONTINUOUS
 62
    7
 10
32.22038750722956
 20
36.736580860203375
 11
32.22038750722956
 21
29.436580860203378
  0
ARC
  8
_0-0_フレ__ム
  6
CONTINUOUS
 62
    7
 10
31.720387507229617
 20
36.736580860203375
 40
0.5
 50
0
 51
90
  0
LINE
  8
_0-0_フレ__ム
  6
CONTINUOUS
 62
    7
 10
28.269246806308757
 20
37.236580860203375
 11
31.720387507229617
 21
37.236580860203375
  0
ARC
  8
_0-0_フレ__ム
  6
CONTINUOUS
 62
    7
 10
28.269246806308757
 20
36.736580860203375
 40
0.5
 50
90
 51
173.82982490497034
  0
LINE
  8
_0-0_フレ__ム
  6
CONTINUOUS
 62
    7
 10
32.22038750722956
 20
22.136580860203367
 11
32.22038750722956
 21
29.436580860203378
  0
ARC
  8
_0-0_フレ__ム
  6
CONTINUOUS
 62
    7
 10
31.72038750722956
 20
22.136580860203367
 40
0.5
 50
270
 51
0
  0
LINE
  8
_0-0_フレ__ム
  6
CONTINUOUS
 62
    7
 10
28.269246806308757
 20
21.636580860203367
 11
31.72038750722956
 21
21.636580860203367
  0
ARC
  8
_0-0_フレ__ム
  6
CONTINUOUS
 62
    7
 10
28.269246806308757
 20
22.136580860203367
 40
0.5
 50
186.17017509502966
 51
270
  0
LINE
  8
_0-0_フレ__ム
  6
CONTINUOUS
 62
    7
 10
20.12389905782203
 20
34.42909901722328
 11
19.868631731933363
 21
36.790321781693422
  0
ARC
  8
_0-0_フレ__ム
  6
CONTINUOUS
 62
    7
 10
21.118106105387909
 20
34.536580860203372
 40
1
 50
186.17017509502966
 51
270
  0
LINE
  8
_0-0_フレ__ム
  6
CONTINUOUS
 62
    7
 10
26.522668909071314
 20
33.536580860203372
 11
23.820387507229583
 21
33.536580860203372
  0
LINE
  8
_0-0_フレ__ム
  6
CONTINUOUS
 62
    7
 10
27.516875956637165
 20
34.42909901722328
 11
27.772143282525832
 21
36.790321781693422
  0
ARC
  8
_0-0_フレ__ム
  6
CONTINUOUS
 62
    7
 10
26.522668909071314
 20
34.536580860203372
 40
1
 50
270
 51
353.82982490497034
  0
LINE
  8
_0-0_フレ__ム
  6
CONTINUOUS
 62
    7
 10
20.12389905782203
 20
24.444062703183477
 11
19.868631731933363
 21
22.082839938713335
  0
LINE
  8
_0-0_フレ__ム
  6
CONTINUOUS
 62
    7
 10
21.118106105387909
 20
25.336580860203384
 11
23.820387507229583
 21
25.336580860203384
  0
ARC
  8
_0-0_フレ__ム
  6
CONTINUOUS
 62
    7
 10
21.118106105387909
 20
24.336580860203384
 40
1
 50
90
 51
173.82982490497034
  0
LINE
  8
_0-0_フレ__ム
  6
CONTINUOUS
 62
    7
 10
26.522668909071314
 20
25.336580860203384
 11
23.820387507229583
 21
25.336580860203384
  0
LINE
  8
_0-0_フレ__ム
  6
CONTINUOUS
 62
    7
 10
27.516875956637165
 20
24.444062703183477
 11
27.772143282525832
 21
22.082839938713335
  0
ARC
  8
_0-0_フレ__ム
  6
CONTINUOUS
 62
    7
 10
26.522668909071314
 20
24.336580860203384
 40
1
 50
6.1701750950296592
 51
90
  0
LINE
  8
_0-0_フレ__ム
  6
CONTINUOUS
 62
    7
 10
23.549823107598769
 20
19.476763820742946
 11
23.670412522217447
 21
19.546392562033049
  0
LINE
  8
_0-0_フレ__ム
  6
CONTINUOUS
 62
    7
 10
23.970397516759618
 20
19.546392562033049
 11
24.090986931378239
 21
19.476763820742946
  0
ARC
  8
_0-0_フレ__ム
  6
CONTINUOUS
 62
    7
 10
23.82038750722964
 20
19.286580689351894
 40
0.3000000099360252
 50
59.999984741210938
 51
119.99999999999999
  0
LINE
  8
_0-0_フレ__ム
  6
CONTINUOUS
 62
    7
 10
24.090951906860397
 20
39.396397899663796
 11
23.970362492241719
 21
39.326769158373693
  0
LINE
  8
_0-0_フレ__ム
  6
CONTINUOUS
 62
    7
 10
23.670377497699548
 20
39.326769158373693
 11
23.549788083080927
 21
39.396397899663796
  0
ARC
  8
_0-0_フレ__ム
  6
CONTINUOUS
 62
    7
 10
23.820387507229526
 20
39.586581031054848
 40
0.3000000099360252
 50
239.99998474121094
 51
300
  0
ARC
  8
_0-0_フレ__ム
  6
CONTINUOUS
 62
    7
 10
23.39981309806879
 20
19.736575693424101
 40
0.3000000099360252
 50
270.3365927525108
 51
299.99998474121099
  0
LINE
  8
_0-0_フレ__ム
  6
CONTINUOUS
 62
    7
 10
17.027494288416165
 20
19.436580860203378
 11
23.401575483520929
 21
19.436580860203378
  0
ARC
  8
_0-0_フレ__ム
  6
CONTINUOUS
 62
    7
 10
24.240961916390489
 20
19.736575693424101
 40
0.3000000099360252
 50
239.9999694824219
 51
269.66340724748926
  0
LINE
  8
_0-0_フレ__ム
  6
CONTINUOUS
 62
    7
 10
30.61328072604303
 20
19.436580860203378
 11
24.23919953093835
 21
19.436580860203378
  0
LINE
  8
_0-0_フレ__ム
  6
CONTINUOUS
 62
    7
 10
17.027494288416165
 20
39.436580860203378
 11
23.401575483520816
 21
39.436580860203378
  0
ARC
  8
_0-0_フレ__ム
  6
CONTINUOUS
 62
    7
 10
23.399813098068677
 20
39.136586026982641
 40
0.3000000099360252
 50
59.999969482421875
 51
89.663407247489246
  0
ARC
  8
_0-0_フレ__ム
  6
CONTINUOUS
 62
    7
 10
24.240961916390376
 20
39.136586026982641
 40
0.3000000099360252
 50
90.336592752510754
 51
119.99998474121095
  0
LINE
  8
_0-0_フレ__ム
  6
CONTINUOUS
 62
    7
 10
30.61328072604303
 20
39.436580860203378
 11
24.239199530938237
 21
39.436580860203378
  0
LINE
  8
_0-0_フレ__ム
  6
CONTINUOUS
 62
    7
 10
17.590951906860425
 20
21.596397899663799
 11
17.470362492241748
 21
21.526769158373696
  0
LINE
  8
_0-0_フレ__ム
  6
CONTINUOUS
 62
    7
 10
17.170377497699576
 20
21.526769158373696
 11
17.049788083080955
 21
21.596397899663799
  0
ARC
  8
_0-0_フレ__ム
  6
CONTINUOUS
 62
    7
 10
17.320387507229555
 20
21.786581031054851
 40
0.3000000099360252
 50
239.99998474121094
 51
300
  0
ARC
  8
_0-0_フレ__ム
  6
CONTINUOUS
 62
    7
 10
17.740961916390404
 20
21.336586026982644
 40
0.3000000099360252
 50
90.33659274997305
 51
119.99998474121095
  0
ARC
  8
_0-0_フレ__ム
  6
CONTINUOUS
 62
    7
 10
16.899813098068705
 20
21.336586026982644
 40
0.3000000099360252
 50
59.999969482421875
 51
89.66340725002695
  0
LINE
  8
_0-0_フレ__ム
  6
CONTINUOUS
 62
    7
 10
19.371528208150437
 20
21.636580860203367
 11
17.739199530938265
 21
21.636580860203367
  0
LINE
  8
_0-0_フレ__ム
  6
CONTINUOUS
 62
    7
 10
16.901575483507543
 20
21.636580860203367
 11
15.920387507229577
 21
21.636580860203367
  0
LINE
  8
_0-0_フレ__ム
  6
CENTER1
 62
  152
 10
17.320387507229611
 20
22.332451070618447
 11
17.320387507229611
 21
20.430119749804277
  0
LINE
  8
_0-0_フレ__ム
  6
CONTINUOUS
 62
    7
 10
6.7624076505551898
 20
39.096888239417439
 11
7.9922914926716544
 21
39.544529349552789
  0
LINE
  8
_0-0_フレ__ム
  6
CENTER1
 62
  152
 10
13.220387507229532
 20
38.72169820677766
 11
13.220387507229532
 21
48.205950115604821
  0
LINE
  8
_0-0_フレ__ム
  6
CENTER1
 62
  152
 10
6.4203875072295205
 20
38.72169820677766
 11
6.4203875072295205
 21
48.205950115604821
  0
LINE
  8
_0-0_フレ__ム
  6
CENTER1
 62
  152
 10
14.529398857655593
 20
40.036580860203344
 11
5.165469547671762
 21
40.036580860203344
  0
ARC
  8
_0-0_フレ__ム
  6
CONTINUOUS
 62
    7
 10
6.4203875072295205
 20
40.036580860203344
 40
1
 50
155.00000000000014
 51
294.99999999999966
  0
LINE
  8
_0-0_フレ__ム
  6
CONTINUOUS
 62
    7
 10
5.4806948864436151
 20
40.378601003529013
 11
5.9283359965789657
 21
41.608484845645449
  0
ARC
  8
_0-0_フレ__ム
  6
CONTINUOUS
 62
    7
 10
13.22038750722956
 20
40.036580860203287
 40
1
 50
245.00000000000011
 51
24.999999999999666
  0
ARC
  8
_0-0_フレ__ム
  6
CONTINUOUS
 62
    7
 10
13.220387507229532
 20
46.83658086020337
 40
1
 50
335.00000000000011
 51
114.99999999999966
  0
ARC
  8
_0-0_フレ__ム
  6
CONTINUOUS
 62
    7
 10
6.4203875072293783
 20
46.836580860203384
 40
1
 50
65.000000000000128
 51
204.99999999999966
  0
LINE
  8
_0-0_フレ__ム
  6
CONTINUOUS
 62
    7
 10
6.7624076505550477
 20
47.776273480989289
 11
7.9922914926715407
 21
47.328632370853924
  0
LINE
  8
_0-0_フレ__ム
  6
CONTINUOUS
 62
    7
 10
5.480694886443473
 20
46.494560716877714
 11
5.9283359965788804
 21
45.264676874761108
  0
ARC
  8
_0-0_フレ__ム
  6
CONTINUOUS
 62
    7
 10
9.8203875072295261
 20
43.436580860203378
 40
4.2999999999999998
 50
154.84056283647342
 51
205.15943716352953
  0
ARC
  8
_0-0_フレ__ム
  6
CONTINUOUS
 62
    7
 10
9.8203875072295261
 20
43.436580860203378
 40
4.2999999999999998
 50
64.840562836470298
 51
115.15943716353048
  0
LINE
  8
_0-0_フレ__ム
  6
CONTINUOUS
 62
    7
 10
12.878367363903862
 20
47.776273480989275
 11
11.648483521787483
 21
47.328632370853938
  0
LINE
  8
_0-0_フレ__ム
  6
CONTINUOUS
 62
    7
 10
14.160080128015437
 20
46.4945607168777
 11
13.712439017880115
 21
45.264676874761278
  0
ARC
  8
_0-0_フレ__ム
  6
CONTINUOUS
 62
    7
 10
9.8203875072295261
 20
43.436580860203378
 40
4.2999999999999998
 50
334.84056283647055
 51
25.159437163529251
  0
LINE
  8
_0-0_フレ__ム
  6
CONTINUOUS
 62
    7
 10
14.160080128015466
 20
40.378601003528956
 11
13.712439017880115
 21
41.608484845645449
  0
LINE
  8
_0-0_フレ__ム
  6
CONTINUOUS
 62
    7
 10
12.878367363903891
 20
39.096888239417382
 11
11.648483521787369
 21
39.544529349552761
  0
ARC
  8
_0-0_フレ__ム
  6
CONTINUOUS
 62
    7
 10
9.8203875072295261
 20
43.436580860203378
 40
4.2999999999999998
 50
244.84056283647112
 51
295.15943716352797
  0
LINE
  8
_0-0_フレ__ム
  6
CENTER1
 62
  152
 10
14.529398857655593
 20
46.836580860203355
 11
5.165469547671762
 21
46.836580860203355
  0
LINE
  8
_0-0_フレ__ム
  6
CONTINUOUS
 62
    7
 10
6.7624076505551898
 20
11.096888239417439
 11
7.9922914926716544
 21
11.544529349552789
  0
LINE
  8
_0-0_フレ__ム
  6
CENTER1
 62
  152
 10
13.220387507229532
 20
10.72169820677766
 11
13.220387507229532
 21
20.205950115604821
  0
LINE
  8
_0-0_フレ__ム
  6
CENTER1
 62
  152
 10
6.4203875072295205
 20
10.72169820677766
 11
6.4203875072295205
 21
20.205950115604821
  0
LINE
  8
_0-0_フレ__ム
  6
CENTER1
 62
  152
 10
14.529398857655622
 20
12.036580860203344
 11
5.165469547671762
 21
12.036580860203344
  0
ARC
  8
_0-0_フレ__ム
  6
CONTINUOUS
 62
    7
 10
6.4203875072295205
 20
12.036580860203344
 40
1
 50
155.00000000000014
 51
294.99999999999966
  0
LINE
  8
_0-0_フレ__ム
  6
CONTINUOUS
 62
    7
 10
5.4806948864436436
 20
12.378601003529013
 11
5.9283359965789657
 21
13.608484845645449
  0
ARC
  8
_0-0_フレ__ム
  6
CONTINUOUS
 62
    7
 10
13.220387507229589
 20
12.036580860203287
 40
1
 50
245.00000000000011
 51
24.999999999999666
  0
ARC
  8
_0-0_フレ__ム
  6
CONTINUOUS
 62
    7
 10
13.220387507229532
 20
18.836580860203355
 40
1
 50
335.00000000000011
 51
114.99999999999966
  0
ARC
  8
_0-0_フレ__ム
  6
CONTINUOUS
 62
    7
 10
6.4203875072293783
 20
18.836580860203384
 40
1
 50
65.000000000000128
 51
204.99999999999966
  0
LINE
  8
_0-0_フレ__ム
  6
CONTINUOUS
 62
    7
 10
6.7624076505550477
 20
19.776273480989289
 11
7.9922914926715407
 21
19.328632370853938
  0
LINE
  8
_0-0_フレ__ム
  6
CONTINUOUS
 62
    7
 10
5.480694886443473
 20
18.494560716877714
 11
5.9283359965788804
 21
17.264676874761108
  0
ARC
  8
_0-0_フレ__ム
  6
CONTINUOUS
 62
    7
 10
9.8203875072295546
 20
15.436580860203378
 40
4.2999999999999998
 50
154.84056283647342
 51
205.15943716352953
  0
ARC
  8
_0-0_フレ__ム
  6
CONTINUOUS
 62
    7
 10
9.8203875072295546
 20
15.436580860203378
 40
4.2999999999999998
 50
64.840562836470298
 51
115.15943716353048
  0
LINE
  8
_0-0_フレ__ム
  6
CONTINUOUS
 62
    7
 10
12.878367363903891
 20
19.776273480989261
 11
11.648483521787483
 21
19.328632370853938
  0
LINE
  8
_0-0_フレ__ム
  6
CONTINUOUS
 62
    7
 10
14.160080128015466
 20
18.494560716877686
 11
13.712439017880115
 21
17.264676874761278
  0
ARC
  8
_0-0_フレ__ム
  6
CONTINUOUS
 62
    7
 10
9.8203875072295546
 20
15.436580860203378
 40
4.2999999999999998
 50
334.84056283647055
 51
25.159437163529251
  0
LINE
  8
_0-0_フレ__ム
  6
CONTINUOUS
 62
    7
 10
14.160080128015466
 20
12.378601003528956
 11
13.712439017880115
 21
13.608484845645449
  0
LINE
  8
_0-0_フレ__ム
  6
CONTINUOUS
 62
    7
 10
12.878367363903919
 20
11.096888239417382
 11
11.648483521787369
 21
11.544529349552761
  0
ARC
  8
_0-0_フレ__ム
  6
CONTINUOUS
 62
    7
 10
9.8203875072295546
 20
15.436580860203378
 40
4.2999999999999998
 50
244.84056283647112
 51
295.15943716352797
  0
LINE
  8
_0-0_フレ__ム
  6
CENTER1
 62
  152
 10
14.529398857655622
 20
18.836580860203355
 11
5.165469547671762
 21
18.836580860203355
  0
TEXT
  8
_0-0_フレ__ム
 62
    7
 10
11.084429021271006
 20
1.2831620567846187
 40
4.2999999999999998
 41
0.744186046511628
 50
0
  1
F34K,F34KB
  0
ENDSEC
  0
EOF
