  0
SECTION
  2
HEADER
  9
$ACADVER
  1
AC1009
  9
$INSBASE
 10
0
 20
0
 30
0
  9
$EXTMIN
 10
0
 20
0
  9
$EXTMAX
 10
1189
 20
841
  9
$LIMMIN
 10
0
 20
0
  9
$LIMMAX
 10
1189
 20
841
  9
$LTSCALE
 40
1
  0
ENDSEC
  0
SECTION
  2
TABLES
  0
TABLE
  2
LTYPE
 70
     9
  0
LTYPE
  2
CONTINUOUS
 70
    64
  3
実線
 72
    65
 73
     0
 40
0.0
  0
LTYPE
  2
DASHED1
 70
    64
  3
--  --  --  --  --  --  --  --  
 72
    65
 73
     2
 40
2.5
 49
1.25
 49
-1.25
  0
LTYPE
  2
DASHED2
 70
    64
  3
----    ----    ----    ----    
 72
    65
 73
     2
 40
5.0
 49
2.5
 49
-2.5
  0
LTYPE
  2
DASHED3
 70
    64
  3
------  ------  ------  ------  
 72
    65
 73
     2
 40
5.0
 49
3.75
 49
-1.25
  0
LTYPE
  2
CENTER1
 70
    64
  3
----- - ----- - ----- - ----- - 
 72
    65
 73
     4
 40
10.0
 49
6.25
 49
-1.25
 49
1.25
 49
-1.25
  0
LTYPE
  2
CENTER2
 70
    64
  3
----------  --  ----------  --  
 72
    65
 73
     4
 40
20.0
 49
12.5
 49
-2.5
 49
2.5
 49
-2.5
  0
LTYPE
  2
PHANTOM1
 70
    64
  3
--- - - --- - - --- - - --- - - 
 72
    65
 73
     6
 40
10.0
 49
3.25
 49
-1.25
 49
1.25
 49
-1.25
 49
1.25
 49
-1.25
  0
LTYPE
  2
PHANTOM2
 70
    64
  3
--------  -  -  --------  -  -  
 72
    65
 73
     6
 40
20.0
 49
10.0
 49
-2.5
 49
1.25
 49
-2.5
 49
1.25
 49
-2.5
  0
LTYPE
  2
DOT
 70
    64
  3
-   -   -   -   -   -   -   -   
 72
    65
 73
     2
 40
2.5
 49
0.625
 49
-1.875
  0
LTYPE
  2
DUMMY
 70
    64
  3
ダミー
 72
    65
 73
     0
 40
0.0
  0
LTYPE
  2
RAND1
 70
    64
  3
ランダム線1
 72
    65
 73
     4
 40
10.0
 49
1.0
 49
-2.0
 49
3.0
 49
-4.0
  0
LTYPE
  2
RAND2
 70
    64
  3
ランダム線2
 72
    65
 73
     4
 40
14.0
 49
2.0
 49
-3.0
 49
4.0
 49
-5.0
  0
LTYPE
  2
RAND3
 70
    64
  3
ランダム線3
 72
    65
 73
     4
 40
18.0
 49
3.0
 49
-4.0
 49
5.0
 49
-6.0
  0
LTYPE
  2
RAND4
 70
    64
  3
ランダム線4
 72
    65
 73
     4
 40
22.0
 49
4.0
 49
-5.0
 49
6.0
 49
-7.0
  0
LTYPE
  2
RAND5
 70
    64
  3
ランダム線5
 72
    65
 73
     4
 40
26.0
 49
5.0
 49
-6.0
 49
7.0
 49
-8.0
  0
LTYPE
  2
LONG1
 70
    64
  3
----------  --  ----------  --  
 72
    65
 73
     4
 40
40.0
 49
32.5
 49
-2.5
 49
2.5
 49
-2.5
  0
LTYPE
  2
LONG2
 70
    64
  3
--------  -  -  --------  -  -  
 72
    65
 73
     6
 40
40.0
 49
30.0
 49
-2.5
 49
1.25
 49
-2.5
 49
1.25
 49
-2.5
  0
LTYPE
  2
LONG3
 70
    64
  3
+++++++++++++++..+++++++++++++++
 72
    65
 73
     2
 40
40.0
 49
37.5
 49
-2.5
  0
LTYPE
  2
LONG4
 70
    64
  3
+++++++++++++++..+++++++++++++++
 72
    65
 73
     2
 40
80.0
 49
75.0
 49
-5.0
  0
LTYPE
  2
LONG5
 70
    64
  3
----------  --  ----------  --  
 72
    65
 73
     4
 40
60.0
 49
37.5
 49
-7.5
 49
7.5
 49
-7.5
  0
LTYPE
  2
dashed
 70
   64
  3
-------   -------------   ------
 72
   65
 73
    2
 40
7.5
 49
6
 49
-1.5
  0
LTYPE
  2
dashed_spaced
 70
   64
  3
----        --------        ----
 72
   65
 73
    2
 40
12
 49
6
 49
-6
  0
LTYPE
  2
long_dashed_dotted
 70
   64
  3
------------- --- --------------
 72
   65
 73
    4
 40
15.25
 49
12
 49
-1.5
 49
0.25
 49
-1.5
  0
LTYPE
  2
long_dashed_double-dotted
 70
   64
  3
----------- --- --- ------------
 72
   65
 73
    6
 40
17
 49
12
 49
-1.5
 49
0.25
 49
-1.5
 49
0.25
 49
-1.5
  0
LTYPE
  2
long_dashed_triplicate-dotted
 70
   64
  3
--------- --- --- --- ----------
 72
   65
 73
    8
 40
18.75
 49
12
 49
-1.5
 49
0.25
 49
-1.5
 49
0.25
 49
-1.5
 49
0.25
 49
-1.5
  0
LTYPE
  2
dotted
 70
   64
  3
   -       -       -       -    
 72
   65
 73
    2
 40
1.75
 49
0.25
 49
-1.5
  0
LTYPE
  2
chain
 70
   64
  3
-------------- -- --------------
 72
   65
 73
    4
 40
18.5
 49
12
 49
-1.5
 49
3.5
 49
-1.5
  0
LTYPE
  2
chain_double_dash
 70
   64
  3
------------ -- -- -------------
 72
   65
 73
    6
 40
23.5
 49
12
 49
-1.5
 49
3.5
 49
-1.5
 49
3.5
 49
-1.5
  0
LTYPE
  2
dashed_dotted
 70
   64
  3
-----------     -     ----------
 72
   65
 73
    4
 40
9.25
 49
6
 49
-1.5
 49
0.25
 49
-1.5
  0
LTYPE
  2
double-dashed_dotted
 70
   64
  3
------   -----------   -   -----
 72
   65
 73
    6
 40
16.75
 49
6
 49
-1.5
 49
6
 49
-1.5
 49
0.25
 49
-1.5
  0
LTYPE
  2
dashed_double-dotted
 70
   64
  3
---------    -    -    ---------
 72
   65
 73
    6
 40
11
 49
6
 49
-1.5
 49
0.25
 49
-1.5
 49
0.25
 49
-1.5
  0
LTYPE
  2
double-dashed_double-dotted
 70
   64
  3
-----   ---------   -   -   ----
 72
   65
 73
    8
 40
18.5
 49
6
 49
-1.5
 49
6
 49
-1.5
 49
0.25
 49
-1.5
 49
0.25
 49
-1.5
  0
LTYPE
  2
dashed_triplicate-dotted
 70
   64
  3
-------    -    -    -    ------
 72
   65
 73
    8
 40
12.75
 49
6
 49
-1.5
 49
0.25
 49
-1.5
 49
0.25
 49
-1.5
 49
0.25
 49
-1.5
  0
LTYPE
  2
double-dashed_triplicate-dotted
 70
   64
  3
-----  ---------  -  -  -  -----
 72
   65
 73
   10
 40
20.25
 49
6
 49
-1.5
 49
6
 49
-1.5
 49
0.25
 49
-1.5
 49
0.25
 49
-1.5
 49
0.25
 49
-1.5
  0
LTYPE
  2
undefined
 70
   64
  3
--------------------------------
 72
   65
 73
    0
 40
0
  0
ENDTAB
  0
TABLE
  2
STYLE
  5
3
100
AcDbSymbolTable
 70
     1
  0
STYLE
  5
10
100
AcDbSymbolTableRecord
100
AcDbTextStyleTableRecord
  2
STANDARD
 70
     0
 40
0.0
 41
1.0
 50
0.0
 71
     0
 42
0.2
  3
txt
  4
bigfont.shx
  0
STYLE
  5
26
100
AcDbSymbolTableRecord
100
AcDbTextStyleTableRecord
  2
TATEGAKI
 70
    68
 40
0.0
 41
1.0
 50
0.0
 71
     0
 42
1.0
  3
txt
  4
bigfont.shx
  0
ENDTAB
  0
TABLE
  2
LAYER
 70
    4
  0
LAYER
  2
_0-0_
 70
   64
 62
    7
  6
CONTINUOUS
  0
LAYER
  2
_0-1_
 70
   64
 62
    7
  6
CONTINUOUS
  0
LAYER
  2
_0-f_
 70
   64
 62
    7
  6
CONTINUOUS
  0
LAYER
  2
ADD_LINE
 70
   64
 62
    7
  6
CONTINUOUS
  0
ENDTAB
  0
ENDSEC
  0
SECTION
  2
BLOCKS
  0
ENDSEC
  0
SECTION
  2
ENTITIES
  0
TEXT
  8
_0-f_
 62
    7
 10
0.9119589229305802
 20
0.855130362953048
 40
4.2999999999999998
 41
0.744186046511628
 50
0
  1
F34E
  0
LINE
  8
_0-0_
  6
CONTINUOUS
 62
    7
 10
2.5598164245495809
 20
46.189702297649717
 11
15.459816424549672
 21
46.189702297649717
  0
LINE
  8
_0-0_
  6
CONTINUOUS
 62
    7
 10
15.959816424549672
 20
45.689702297649717
 11
15.959816424549672
 21
43.907736286399711
  0
LINE
  8
_0-0_
  6
CONTINUOUS
 62
    7
 10
15.90703002004966
 20
43.684129488649603
 11
15.498013025674709
 21
42.8660954998997
  0
LINE
  8
_0-0_
  6
CONTINUOUS
 62
    7
 10
15.05079943017472
 20
42.589702297649808
 11
13.559816424549581
 21
42.589702297649808
  0
LINE
  8
_0-0_
  6
CONTINUOUS
 62
    7
 10
13.059816424549581
 20
42.089702297649808
 11
13.059816424549581
 21
37.896809078836384
  0
LINE
  8
_0-0_
  6
CONTINUOUS
 62
    7
 10
13.206263033956475
 20
37.54325568824305
 11
14.413369815142914
 21
36.336148907056383
  0
LINE
  8
_0-0_
  6
CONTINUOUS
 62
    7
 10
14.766923205736248
 20
36.189702297649717
 11
27.352709643363141
 21
36.189702297649717
  0
LINE
  8
_0-0_
  6
CONTINUOUS
 62
    7
 10
27.706263033956475
 20
36.336148907056383
 11
28.913369815142914
 21
37.54325568824305
  0
LINE
  8
_0-0_
  6
CONTINUOUS
 62
    7
 10
29.059816424549581
 20
37.896809078836384
 11
29.059816424549581
 21
42.089702297649808
  0
LINE
  8
_0-0_
  6
CONTINUOUS
 62
    7
 10
28.559816424549581
 20
42.589702297649808
 11
27.068833418924669
 21
42.589702297649808
  0
LINE
  8
_0-0_
  6
CONTINUOUS
 62
    7
 10
26.62161982342468
 20
42.8660954998997
 11
26.212602829049729
 21
43.684129488649603
  0
LINE
  8
_0-0_
  6
CONTINUOUS
 62
    7
 10
26.159816424549717
 20
43.907736286399711
 11
26.159816424549717
 21
45.689702297649717
  0
LINE
  8
_0-0_
  6
CONTINUOUS
 62
    7
 10
26.659816424549717
 20
46.189702297649717
 11
29.559816424549581
 21
46.189702297649717
  0
LINE
  8
_0-0_
  6
CONTINUOUS
 62
    7
 10
31.059816424549581
 20
44.689702297649717
 11
31.059816424549581
 21
7.6897022976497169
  0
LINE
  8
_0-0_
  6
CONTINUOUS
 62
    7
 10
29.559816424549581
 20
6.1897022976497169
 11
26.659816424549717
 21
6.1897022976497169
  0
LINE
  8
_0-0_
  6
CONTINUOUS
 62
    7
 10
26.159816424549717
 20
6.6897022976497169
 11
26.159816424549717
 21
8.4716683088997229
  0
LINE
  8
_0-0_
  6
CONTINUOUS
 62
    7
 10
26.212602829049729
 20
8.6952751066498308
 11
26.62161982342468
 21
9.5133090953997339
  0
LINE
  8
_0-0_
  6
CONTINUOUS
 62
    7
 10
27.068833418924669
 20
9.789702297649626
 11
28.559816424549581
 21
9.789702297649626
  0
LINE
  8
_0-0_
  6
CONTINUOUS
 62
    7
 10
29.059816424549581
 20
10.289702297649626
 11
29.059816424549581
 21
14.48259551646305
  0
LINE
  8
_0-0_
  6
CONTINUOUS
 62
    7
 10
28.913369815142914
 20
14.836148907056383
 11
27.706263033956247
 21
16.04325568824305
  0
LINE
  8
_0-0_
  6
CONTINUOUS
 62
    7
 10
27.352709643363141
 20
16.189702297649717
 11
14.766923205736248
 21
16.189702297649717
  0
LINE
  8
_0-0_
  6
CONTINUOUS
 62
    7
 10
14.413369815142914
 20
16.04325568824305
 11
13.206263033956247
 21
14.836148907056383
  0
LINE
  8
_0-0_
  6
CONTINUOUS
 62
    7
 10
13.059816424549581
 20
14.48259551646305
 11
13.059816424549581
 21
10.289702297649626
  0
LINE
  8
_0-0_
  6
CONTINUOUS
 62
    7
 10
13.559816424549581
 20
9.789702297649626
 11
15.05079943017472
 21
9.789702297649626
  0
LINE
  8
_0-0_
  6
CONTINUOUS
 62
    7
 10
15.498013025674709
 20
9.5133090953997339
 11
15.90703002004966
 21
8.6952751066498308
  0
LINE
  8
_0-0_
  6
CONTINUOUS
 62
    7
 10
15.959816424549672
 20
8.4716683088997229
 11
15.959816424549672
 21
6.6897022976497169
  0
LINE
  8
_0-0_
  6
CONTINUOUS
 62
    7
 10
15.459816424549672
 20
6.1897022976497169
 11
2.5598164245495809
 21
6.1897022976497169
  0
LINE
  8
_0-0_
  6
CONTINUOUS
 62
    7
 10
1.0598164245495809
 20
7.6897022976497169
 11
1.0598164245495809
 21
10.589702297649808
  0
LINE
  8
_0-0_
  6
CONTINUOUS
 62
    7
 10
1.5598164245495809
 20
11.089702297649808
 11
3.3417824357998143
 21
11.089702297649808
  0
LINE
  8
_0-0_
  6
CONTINUOUS
 62
    7
 10
3.5653892335496948
 20
11.036915893149569
 11
4.3834232222995979
 21
10.627898898774845
  0
LINE
  8
_0-0_
  6
CONTINUOUS
 62
    7
 10
4.6598164245497173
 20
10.180685303274629
 11
4.6598164245497173
 21
8.6897022976497169
  0
LINE
  8
_0-0_
  6
CONTINUOUS
 62
    7
 10
5.1598164245497173
 20
8.1897022976497169
 11
9.3527096433631414
 21
8.1897022976497169
  0
LINE
  8
_0-0_
  6
CONTINUOUS
 62
    7
 10
9.7062630339564748
 20
8.3361489070563835
 11
10.913369815142914
 21
9.5432556882430504
  0
LINE
  8
_0-0_
  6
CONTINUOUS
 62
    7
 10
11.059816424549581
 20
9.8968090788363838
 11
11.059816424549581
 21
22.48259551646305
  0
LINE
  8
_0-0_
  6
CONTINUOUS
 62
    7
 10
10.913369815142914
 20
22.836148907056383
 11
9.7062630339564748
 21
24.04325568824305
  0
LINE
  8
_0-0_
  6
CONTINUOUS
 62
    7
 10
9.3527096433631414
 20
24.189702297649717
 11
5.1598164245497173
 21
24.189702297649717
  0
LINE
  8
_0-0_
  6
CONTINUOUS
 62
    7
 10
4.6598164245497173
 20
23.689702297649717
 11
4.6598164245497173
 21
22.198719292024805
  0
LINE
  8
_0-0_
  6
CONTINUOUS
 62
    7
 10
4.3834232222995979
 20
21.751505696524589
 11
3.5653892335496948
 21
21.342488702149865
  0
LINE
  8
_0-0_
  6
CONTINUOUS
 62
    7
 10
3.3417824357998143
 20
21.289702297649626
 11
1.5598164245495809
 21
21.289702297649626
  0
LINE
  8
_0-0_
  6
CONTINUOUS
 62
    7
 10
1.0598164245495809
 20
21.789702297649626
 11
1.0598164245495809
 21
30.589702297649808
  0
LINE
  8
_0-0_
  6
CONTINUOUS
 62
    7
 10
1.5598164245495809
 20
31.089702297649808
 11
3.3417824357998143
 21
31.089702297649808
  0
LINE
  8
_0-0_
  6
CONTINUOUS
 62
    7
 10
3.5653892335496948
 20
31.036915893149569
 11
4.3834232222995979
 21
30.627898898774845
  0
LINE
  8
_0-0_
  6
CONTINUOUS
 62
    7
 10
4.6598164245497173
 20
30.180685303274629
 11
4.6598164245497173
 21
28.689702297649717
  0
LINE
  8
_0-0_
  6
CONTINUOUS
 62
    7
 10
5.1598164245497173
 20
28.189702297649717
 11
9.3527096433631414
 21
28.189702297649717
  0
LINE
  8
_0-0_
  6
CONTINUOUS
 62
    7
 10
9.7062630339564748
 20
28.336148907056383
 11
10.913369815142914
 21
29.54325568824305
  0
LINE
  8
_0-0_
  6
CONTINUOUS
 62
    7
 10
11.059816424549581
 20
29.896809078836384
 11
11.059816424549581
 21
42.836148907056383
  0
LINE
  8
_0-0_
  6
CONTINUOUS
 62
    7
 10
10.913369815142914
 20
42.836148907056383
 11
9.7062630339564748
 21
44.04325568824305
  0
LINE
  8
_0-0_
  6
CONTINUOUS
 62
    7
 10
9.3527096433631414
 20
44.189702297649717
 11
5.1598164245497173
 21
44.189702297649717
  0
LINE
  8
_0-0_
  6
CONTINUOUS
 62
    7
 10
4.6598164245497173
 20
43.689702297649717
 11
4.6598164245497173
 21
42.198719292024805
  0
LINE
  8
_0-0_
  6
CONTINUOUS
 62
    7
 10
4.3834232222995979
 20
41.751505696524589
 11
3.5653892335496948
 21
41.342488702149865
  0
LINE
  8
_0-0_
  6
CONTINUOUS
 62
    7
 10
3.3417824357998143
 20
41.289702297649626
 11
1.5598164245495809
 21
41.289702297649626
  0
LINE
  8
_0-0_
  6
CONTINUOUS
 62
    7
 10
1.0598164245495809
 20
41.789702297649626
 11
1.0598164245495809
 21
44.689702297649717
  0
LINE
  8
_0-0_
  6
CONTINUOUS
 62
    7
 10
13.159816424549717
 20
33.189702297649717
 11
13.159816424549717
 21
19.189702297649717
  0
LINE
  8
_0-0_
  6
CONTINUOUS
 62
    7
 10
13.659816424549717
 20
18.689702297649717
 11
15.765125676294247
 21
18.689702297649717
  0
LINE
  8
_0-0_
  6
CONTINUOUS
 62
    7
 10
16.248088589438794
 20
19.060292775098503
 11
16.960517005394649
 21
21.719111820201022
  0
LINE
  8
_0-0_
  6
CONTINUOUS
 62
    7
 10
17.443479918539197
 20
22.089702297649808
 11
24.676152930560193
 21
22.089702297649808
  0
LINE
  8
_0-0_
  6
CONTINUOUS
 62
    7
 10
25.15911584370474
 20
21.719111820201022
 11
25.871544259660368
 21
19.060292775098503
  0
LINE
  8
_0-0_
  6
CONTINUOUS
 62
    7
 10
26.354507172804915
 20
18.689702297649717
 11
28.459816424549672
 21
18.689702297649717
  0
LINE
  8
_0-0_
  6
CONTINUOUS
 62
    7
 10
28.959816424549672
 20
19.189702297649717
 11
28.959816424549672
 21
33.189702297649717
  0
LINE
  8
_0-0_
  6
CONTINUOUS
 62
    7
 10
28.459816424549672
 20
33.689702297649717
 11
26.354507172804915
 21
33.689702297649717
  0
LINE
  8
_0-0_
  6
CONTINUOUS
 62
    7
 10
25.871544259660368
 20
33.319111820200931
 11
25.15911584370474
 21
30.660292775098412
  0
LINE
  8
_0-0_
  6
CONTINUOUS
 62
    7
 10
24.676152930560193
 20
30.289702297649626
 11
17.443479918539197
 21
30.289702297649626
  0
LINE
  8
_0-0_
  6
CONTINUOUS
 62
    7
 10
16.960517005394649
 20
30.660292775098412
 11
16.248088589438794
 21
33.319111820200931
  0
LINE
  8
_0-0_
  6
CONTINUOUS
 62
    7
 10
15.765125676294247
 20
33.689702297649717
 11
13.659816424549717
 21
33.689702297649717
  0
ARC
  8
_0-0_
  6
CONTINUOUS
 62
    7
 10
29.559816424549581
 20
7.6897022976497169
 40
1.5
 50
270
 51
0
  0
ARC
  8
_0-0_
  6
CONTINUOUS
 62
    7
 10
28.559816424549581
 20
10.289702297649626
 40
0.5
 50
270
 51
0
  0
ARC
  8
_0-0_
  6
CONTINUOUS
 62
    7
 10
13.559816424549581
 20
10.289702297649626
 40
0.5
 50
180
 51
270
  0
ARC
  8
_0-0_
  6
CONTINUOUS
 62
    7
 10
15.459816424549672
 20
6.6897022976497169
 40
0.5
 50
270
 51
0
  0
ARC
  8
_0-0_
  6
CONTINUOUS
 62
    7
 10
15.459816424549672
 20
8.4716683088997229
 40
0.5
 50
0.0000000000000254
 51
26.565051177077834
  0
ARC
  8
_0-0_
  6
CONTINUOUS
 62
    7
 10
15.05079943017472
 20
9.289702297649626
 40
0.5
 50
26.565051177077688
 51
90
  0
ARC
  8
_0-0_
  6
CONTINUOUS
 62
    7
 10
26.659816424549717
 20
6.6897022976497169
 40
0.5
 50
180
 51
270
  0
ARC
  8
_0-0_
  6
CONTINUOUS
 62
    7
 10
26.659816424549717
 20
8.4716683088997229
 40
0.5
 50
153.43494882292217
 51
180
  0
ARC
  8
_0-0_
  6
CONTINUOUS
 62
    7
 10
27.068833418924669
 20
9.289702297649626
 40
0.5
 50
90
 51
153.43494882292231
  0
ARC
  8
_0-0_
  6
CONTINUOUS
 62
    7
 10
28.559816424549581
 20
14.48259551646305
 40
0.5
 50
0
 51
45.000000000000057
  0
ARC
  8
_0-0_
  6
CONTINUOUS
 62
    7
 10
27.352709643363141
 20
15.689702297649717
 40
0.5
 50
44.99999999999995
 51
90
  0
ARC
  8
_0-0_
  6
CONTINUOUS
 62
    7
 10
14.766923205736248
 20
15.689702297649717
 40
0.5
 50
90
 51
134.99999999999994
  0
ARC
  8
_0-0_
  6
CONTINUOUS
 62
    7
 10
13.559816424549581
 20
14.48259551646305
 40
0.5
 50
135
 51
180
  0
ARC
  8
_0-0_
  6
CONTINUOUS
 62
    7
 10
28.459816424549672
 20
33.189702297649717
 40
0.5
 50
0
 51
90
  0
ARC
  8
_0-0_
  6
CONTINUOUS
 62
    7
 10
28.459816424549672
 20
19.189702297649717
 40
0.5
 50
270
 51
0
  0
ARC
  8
_0-0_
  6
CONTINUOUS
 62
    7
 10
26.354507172804915
 20
33.189702297649717
 40
0.5
 50
90
 51
164.99999999999997
  0
ARC
  8
_0-0_
  6
CONTINUOUS
 62
    7
 10
24.676152930560193
 20
30.789702297649626
 40
0.5
 50
270
 51
345
  0
ARC
  8
_0-0_
  6
CONTINUOUS
 62
    7
 10
26.354507172804915
 20
19.189702297649717
 40
0.5
 50
194.99999999999997
 51
270
  0
ARC
  8
_0-0_
  6
CONTINUOUS
 62
    7
 10
24.676152930560193
 20
21.589702297649808
 40
0.5
 50
14.999999999999982
 51
90
  0
ARC
  8
_0-0_
  6
CONTINUOUS
 62
    7
 10
13.659816424549717
 20
33.189702297649717
 40
0.5
 50
90
 51
180
  0
ARC
  8
_0-0_
  6
CONTINUOUS
 62
    7
 10
13.659816424549717
 20
19.189702297649717
 40
0.5
 50
180
 51
270
  0
ARC
  8
_0-0_
  6
CONTINUOUS
 62
    7
 10
15.765125676294247
 20
33.189702297649717
 40
0.5
 50
15.000000000000009
 51
89.999999999999986
  0
ARC
  8
_0-0_
  6
CONTINUOUS
 62
    7
 10
17.443479918539197
 20
30.789702297649626
 40
0.5
 50
194.99999999999997
 51
270
  0
ARC
  8
_0-0_
  6
CONTINUOUS
 62
    7
 10
15.765125676294247
 20
19.189702297649717
 40
0.5
 50
270
 51
345
  0
ARC
  8
_0-0_
  6
CONTINUOUS
 62
    7
 10
17.443479918539197
 20
21.589702297649808
 40
0.5
 50
90
 51
165.00000000000003
  0
ARC
  8
_0-0_
  6
CONTINUOUS
 62
    7
 10
13.559816424549581
 20
42.089702297649808
 40
0.5
 50
90
 51
180
  0
ARC
  8
_0-0_
  6
CONTINUOUS
 62
    7
 10
29.559816424549581
 20
44.689702297649717
 40
1.5
 50
0
 51
90
  0
ARC
  8
_0-0_
  6
CONTINUOUS
 62
    7
 10
28.559816424549581
 20
42.089702297649808
 40
0.5
 50
0
 51
90
  0
ARC
  8
_0-0_
  6
CONTINUOUS
 62
    7
 10
26.659816424549717
 20
45.689702297649717
 40
0.5
 50
90
 51
180
  0
ARC
  8
_0-0_
  6
CONTINUOUS
 62
    7
 10
26.659816424549717
 20
43.907736286399711
 40
0.5
 50
180
 51
206.56505117707786
  0
ARC
  8
_0-0_
  6
CONTINUOUS
 62
    7
 10
27.068833418924669
 20
43.089702297649808
 40
0.5
 50
206.56505117707772
 51
270
  0
ARC
  8
_0-0_
  6
CONTINUOUS
 62
    7
 10
15.459816424549672
 20
45.689702297649717
 40
0.5
 50
0
 51
90
  0
ARC
  8
_0-0_
  6
CONTINUOUS
 62
    7
 10
15.459816424549672
 20
43.907736286399711
 40
0.5
 50
333.43494882292214
 51
359.99999999999994
  0
ARC
  8
_0-0_
  6
CONTINUOUS
 62
    7
 10
15.05079943017472
 20
43.089702297649808
 40
0.5
 50
270
 51
333.43494882292231
  0
ARC
  8
_0-0_
  6
CONTINUOUS
 62
    7
 10
13.559816424549581
 20
37.896809078836384
 40
0.5
 50
180
 51
225.00000000000006
  0
ARC
  8
_0-0_
  6
CONTINUOUS
 62
    7
 10
14.766923205736248
 20
36.689702297649717
 40
0.5
 50
224.99999999999994
 51
270
  0
ARC
  8
_0-0_
  6
CONTINUOUS
 62
    7
 10
27.352709643363141
 20
36.689702297649717
 40
0.5
 50
270
 51
314.99999999999994
  0
ARC
  8
_0-0_
  6
CONTINUOUS
 62
    7
 10
28.559816424549581
 20
37.896809078836384
 40
0.5
 50
315
 51
0
  0
ARC
  8
_0-0_
  6
CONTINUOUS
 62
    7
 10
2.5598164245495809
 20
7.6897022976497169
 40
1.5
 50
180
 51
270
  0
ARC
  8
_0-0_
  6
CONTINUOUS
 62
    7
 10
5.1598164245497173
 20
8.6897022976497169
 40
0.5
 50
180
 51
270
  0
ARC
  8
_0-0_
  6
CONTINUOUS
 62
    7
 10
5.1598164245497173
 20
23.689702297649717
 40
0.5
 50
90
 51
180
  0
ARC
  8
_0-0_
  6
CONTINUOUS
 62
    7
 10
1.5598164245495809
 20
21.789702297649626
 40
0.5
 50
180
 51
270
  0
ARC
  8
_0-0_
  6
CONTINUOUS
 62
    7
 10
3.3417824357998143
 20
21.789702297649626
 40
0.5
 50
270
 51
296.56505117707786
  0
ARC
  8
_0-0_
  6
CONTINUOUS
 62
    7
 10
4.1598164245497173
 20
22.198719292024805
 40
0.5
 50
296.56505117707769
 51
0
  0
ARC
  8
_0-0_
  6
CONTINUOUS
 62
    7
 10
1.5598164245495809
 20
10.589702297649808
 40
0.5
 50
90
 51
180
  0
ARC
  8
_0-0_
  6
CONTINUOUS
 62
    7
 10
3.3417824357998143
 20
10.589702297649808
 40
0.5
 50
63.434948822922159
 51
89.999999999999972
  0
ARC
  8
_0-0_
  6
CONTINUOUS
 62
    7
 10
4.1598164245497173
 20
10.180685303274629
 40
0.5
 50
0
 51
63.434948822922316
  0
ARC
  8
_0-0_
  6
CONTINUOUS
 62
    7
 10
9.3527096433631414
 20
8.6897022976497169
 40
0.5
 50
270
 51
315.00000000000006
  0
ARC
  8
_0-0_
  6
CONTINUOUS
 62
    7
 10
10.559816424549581
 20
9.8968090788363838
 40
0.5
 50
314.99999999999994
 51
0.0000000000000063
  0
ARC
  8
_0-0_
  6
CONTINUOUS
 62
    7
 10
10.559816424549581
 20
22.48259551646305
 40
0.5
 50
0
 51
44.999999999999943
  0
ARC
  8
_0-0_
  6
CONTINUOUS
 62
    7
 10
9.3527096433631414
 20
23.689702297649717
 40
0.5
 50
45
 51
90
  0
ARC
  8
_0-0_
  6
CONTINUOUS
 62
    7
 10
5.1598164245497173
 20
28.689702297649717
 40
0.5
 50
180
 51
270
  0
ARC
  8
_0-0_
  6
CONTINUOUS
 62
    7
 10
2.5598164245495809
 20
44.689702297649717
 40
1.5
 50
90
 51
180
  0
ARC
  8
_0-0_
  6
CONTINUOUS
 62
    7
 10
5.1598164245497173
 20
43.689702297649717
 40
0.5
 50
90
 51
180
  0
ARC
  8
_0-0_
  6
CONTINUOUS
 62
    7
 10
1.5598164245495809
 20
41.789702297649626
 40
0.5
 50
180
 51
270
  0
ARC
  8
_0-0_
  6
CONTINUOUS
 62
    7
 10
3.3417824357998143
 20
41.789702297649626
 40
0.5
 50
270
 51
296.56505117707786
  0
ARC
  8
_0-0_
  6
CONTINUOUS
 62
    7
 10
4.1598164245497173
 20
42.198719292024805
 40
0.5
 50
296.56505117707769
 51
0
  0
ARC
  8
_0-0_
  6
CONTINUOUS
 62
    7
 10
1.5598164245495809
 20
30.589702297649808
 40
0.5
 50
90
 51
180
  0
ARC
  8
_0-0_
  6
CONTINUOUS
 62
    7
 10
3.3417824357998143
 20
30.589702297649808
 40
0.5
 50
63.434948822922159
 51
89.999999999999972
  0
ARC
  8
_0-0_
  6
CONTINUOUS
 62
    7
 10
4.1598164245497173
 20
30.180685303274629
 40
0.5
 50
0
 51
63.434948822922316
  0
ARC
  8
_0-0_
  6
CONTINUOUS
 62
    7
 10
9.3527096433631414
 20
28.689702297649717
 40
0.5
 50
270
 51
315.00000000000006
  0
ARC
  8
_0-0_
  6
CONTINUOUS
 62
    7
 10
10.559816424549581
 20
29.896809078836384
 40
0.5
 50
314.99999999999994
 51
0.0000000000000063
  0
ARC
  8
_0-0_
  6
CONTINUOUS
 62
    7
 10
10.559816424549581
 20
42.48259551646305
 40
0.5
 50
0
 51
44.999999999999943
  0
ARC
  8
_0-0_
  6
CONTINUOUS
 62
    7
 10
9.3527096433631414
 20
43.689702297649717
 40
0.5
 50
45
 51
90
  0
LINE
  8
_0-1_
  6
CENTER2
 62
  152
 10
21.059816424549581
 20
46.189702297649717
 11
21.059816424549581
 21
6.1897022976497169
  0
LINE
  8
_0-1_
  6
CENTER2
 62
  152
 10
1.0598164245495809
 20
26.189702297649717
 11
31.059816424549581
 21
26.189702297649717
  0
LINE
  8
_0-1_
  6
CENTER2
 62
  152
 10
1.0598164245495809
 20
36.189702297649717
 11
11.059816424549581
 21
36.189702297649717
  0
LINE
  8
_0-1_
  6
CENTER2
 62
  152
 10
11.059816424549581
 20
16.189702297649717
 11
1.0598164245495809
 21
16.189702297649717
  0
ENDSEC
  0
EOF
