  0
SECTION
  2
HEADER
  9
$ACADVER
  1
AC1009
  9
$INSBASE
 10
0
 20
0
 30
0
  9
$EXTMIN
 10
0
 20
0
  9
$EXTMAX
 10
1189
 20
841
  9
$LIMMIN
 10
0
 20
0
  9
$LIMMAX
 10
1189
 20
841
  9
$LTSCALE
 40
1
  0
ENDSEC
  0
SECTION
  2
TABLES
  0
TABLE
  2
LTYPE
 70
     9
  0
LTYPE
  2
CONTINUOUS
 70
    64
  3
実線
 72
    65
 73
     0
 40
0.0
  0
LTYPE
  2
DASHED1
 70
    64
  3
--  --  --  --  --  --  --  --  
 72
    65
 73
     2
 40
2.5
 49
1.25
 49
-1.25
  0
LTYPE
  2
DASHED2
 70
    64
  3
----    ----    ----    ----    
 72
    65
 73
     2
 40
5.0
 49
2.5
 49
-2.5
  0
LTYPE
  2
DASHED3
 70
    64
  3
------  ------  ------  ------  
 72
    65
 73
     2
 40
5.0
 49
3.75
 49
-1.25
  0
LTYPE
  2
CENTER1
 70
    64
  3
----- - ----- - ----- - ----- - 
 72
    65
 73
     4
 40
10.0
 49
6.25
 49
-1.25
 49
1.25
 49
-1.25
  0
LTYPE
  2
CENTER2
 70
    64
  3
----------  --  ----------  --  
 72
    65
 73
     4
 40
20.0
 49
12.5
 49
-2.5
 49
2.5
 49
-2.5
  0
LTYPE
  2
PHANTOM1
 70
    64
  3
--- - - --- - - --- - - --- - - 
 72
    65
 73
     6
 40
10.0
 49
3.25
 49
-1.25
 49
1.25
 49
-1.25
 49
1.25
 49
-1.25
  0
LTYPE
  2
PHANTOM2
 70
    64
  3
--------  -  -  --------  -  -  
 72
    65
 73
     6
 40
20.0
 49
10.0
 49
-2.5
 49
1.25
 49
-2.5
 49
1.25
 49
-2.5
  0
LTYPE
  2
DOT
 70
    64
  3
-   -   -   -   -   -   -   -   
 72
    65
 73
     2
 40
2.5
 49
0.625
 49
-1.875
  0
LTYPE
  2
DUMMY
 70
    64
  3
ダミー
 72
    65
 73
     0
 40
0.0
  0
LTYPE
  2
RAND1
 70
    64
  3
ランダム線1
 72
    65
 73
     4
 40
10.0
 49
1.0
 49
-2.0
 49
3.0
 49
-4.0
  0
LTYPE
  2
RAND2
 70
    64
  3
ランダム線2
 72
    65
 73
     4
 40
14.0
 49
2.0
 49
-3.0
 49
4.0
 49
-5.0
  0
LTYPE
  2
RAND3
 70
    64
  3
ランダム線3
 72
    65
 73
     4
 40
18.0
 49
3.0
 49
-4.0
 49
5.0
 49
-6.0
  0
LTYPE
  2
RAND4
 70
    64
  3
ランダム線4
 72
    65
 73
     4
 40
22.0
 49
4.0
 49
-5.0
 49
6.0
 49
-7.0
  0
LTYPE
  2
RAND5
 70
    64
  3
ランダム線5
 72
    65
 73
     4
 40
26.0
 49
5.0
 49
-6.0
 49
7.0
 49
-8.0
  0
LTYPE
  2
LONG1
 70
    64
  3
----------  --  ----------  --  
 72
    65
 73
     4
 40
40.0
 49
32.5
 49
-2.5
 49
2.5
 49
-2.5
  0
LTYPE
  2
LONG2
 70
    64
  3
--------  -  -  --------  -  -  
 72
    65
 73
     6
 40
40.0
 49
30.0
 49
-2.5
 49
1.25
 49
-2.5
 49
1.25
 49
-2.5
  0
LTYPE
  2
LONG3
 70
    64
  3
+++++++++++++++..+++++++++++++++
 72
    65
 73
     2
 40
40.0
 49
37.5
 49
-2.5
  0
LTYPE
  2
LONG4
 70
    64
  3
+++++++++++++++..+++++++++++++++
 72
    65
 73
     2
 40
80.0
 49
75.0
 49
-5.0
  0
LTYPE
  2
LONG5
 70
    64
  3
----------  --  ----------  --  
 72
    65
 73
     4
 40
60.0
 49
37.5
 49
-7.5
 49
7.5
 49
-7.5
  0
LTYPE
  2
dashed
 70
   64
  3
-------   -------------   ------
 72
   65
 73
    2
 40
7.5
 49
6
 49
-1.5
  0
LTYPE
  2
dashed_spaced
 70
   64
  3
----        --------        ----
 72
   65
 73
    2
 40
12
 49
6
 49
-6
  0
LTYPE
  2
long_dashed_dotted
 70
   64
  3
------------- --- --------------
 72
   65
 73
    4
 40
15.25
 49
12
 49
-1.5
 49
0.25
 49
-1.5
  0
LTYPE
  2
long_dashed_double-dotted
 70
   64
  3
----------- --- --- ------------
 72
   65
 73
    6
 40
17
 49
12
 49
-1.5
 49
0.25
 49
-1.5
 49
0.25
 49
-1.5
  0
LTYPE
  2
long_dashed_triplicate-dotted
 70
   64
  3
--------- --- --- --- ----------
 72
   65
 73
    8
 40
18.75
 49
12
 49
-1.5
 49
0.25
 49
-1.5
 49
0.25
 49
-1.5
 49
0.25
 49
-1.5
  0
LTYPE
  2
dotted
 70
   64
  3
   -       -       -       -    
 72
   65
 73
    2
 40
1.75
 49
0.25
 49
-1.5
  0
LTYPE
  2
chain
 70
   64
  3
-------------- -- --------------
 72
   65
 73
    4
 40
18.5
 49
12
 49
-1.5
 49
3.5
 49
-1.5
  0
LTYPE
  2
chain_double_dash
 70
   64
  3
------------ -- -- -------------
 72
   65
 73
    6
 40
23.5
 49
12
 49
-1.5
 49
3.5
 49
-1.5
 49
3.5
 49
-1.5
  0
LTYPE
  2
dashed_dotted
 70
   64
  3
-----------     -     ----------
 72
   65
 73
    4
 40
9.25
 49
6
 49
-1.5
 49
0.25
 49
-1.5
  0
LTYPE
  2
double-dashed_dotted
 70
   64
  3
------   -----------   -   -----
 72
   65
 73
    6
 40
16.75
 49
6
 49
-1.5
 49
6
 49
-1.5
 49
0.25
 49
-1.5
  0
LTYPE
  2
dashed_double-dotted
 70
   64
  3
---------    -    -    ---------
 72
   65
 73
    6
 40
11
 49
6
 49
-1.5
 49
0.25
 49
-1.5
 49
0.25
 49
-1.5
  0
LTYPE
  2
double-dashed_double-dotted
 70
   64
  3
-----   ---------   -   -   ----
 72
   65
 73
    8
 40
18.5
 49
6
 49
-1.5
 49
6
 49
-1.5
 49
0.25
 49
-1.5
 49
0.25
 49
-1.5
  0
LTYPE
  2
dashed_triplicate-dotted
 70
   64
  3
-------    -    -    -    ------
 72
   65
 73
    8
 40
12.75
 49
6
 49
-1.5
 49
0.25
 49
-1.5
 49
0.25
 49
-1.5
 49
0.25
 49
-1.5
  0
LTYPE
  2
double-dashed_triplicate-dotted
 70
   64
  3
-----  ---------  -  -  -  -----
 72
   65
 73
   10
 40
20.25
 49
6
 49
-1.5
 49
6
 49
-1.5
 49
0.25
 49
-1.5
 49
0.25
 49
-1.5
 49
0.25
 49
-1.5
  0
LTYPE
  2
undefined
 70
   64
  3
--------------------------------
 72
   65
 73
    0
 40
0
  0
ENDTAB
  0
TABLE
  2
STYLE
  5
3
100
AcDbSymbolTable
 70
     1
  0
STYLE
  5
10
100
AcDbSymbolTableRecord
100
AcDbTextStyleTableRecord
  2
STANDARD
 70
     0
 40
0.0
 41
1.0
 50
0.0
 71
     0
 42
0.2
  3
txt
  4
bigfont.shx
  0
STYLE
  5
26
100
AcDbSymbolTableRecord
100
AcDbTextStyleTableRecord
  2
TATEGAKI
 70
    68
 40
0.0
 41
1.0
 50
0.0
 71
     0
 42
1.0
  3
txt
  4
bigfont.shx
  0
ENDTAB
  0
TABLE
  2
LAYER
 70
    4
  0
LAYER
  2
_0-0_
 70
   64
 62
    7
  6
CONTINUOUS
  0
LAYER
  2
_0-1_
 70
   64
 62
    7
  6
CONTINUOUS
  0
LAYER
  2
_0-f_
 70
   64
 62
    7
  6
CONTINUOUS
  0
LAYER
  2
ADD_LINE
 70
   64
 62
    7
  6
CONTINUOUS
  0
ENDTAB
  0
ENDSEC
  0
SECTION
  2
BLOCKS
  0
ENDSEC
  0
SECTION
  2
ENTITIES
  0
TEXT
  8
_0-f_
 62
    7
 10
1.1576615976456424
 20
1.4609238973318952
 40
4.2999999999999998
 41
0.744186046511628
 50
0
  1
F33M,F33MB
  0
LINE
  8
_0-0_
  6
CONTINUOUS
 62
    7
 10
30.079908288357274
 20
36.843725892989823
 11
3.0799082883572737
 21
36.843725892989823
  0
LINE
  8
_0-0_
  6
CONTINUOUS
 62
    7
 10
1.5799082883572737
 20
35.343725892989823
 11
1.5799082883572737
 21
32.443725892989733
  0
LINE
  8
_0-0_
  6
CONTINUOUS
 62
    7
 10
2.0799082883572737
 20
31.943725892989733
 11
3.8618742996075071
 21
31.943725892989733
  0
LINE
  8
_0-0_
  6
CONTINUOUS
 62
    7
 10
4.0854810973573876
 20
31.996512297489971
 11
4.9035150861072907
 21
32.40552929186515
  0
LINE
  8
_0-0_
  6
CONTINUOUS
 62
    7
 10
5.1799082883574101
 20
32.852742887364911
 11
5.1799082883574101
 21
34.343725892989823
  0
LINE
  8
_0-0_
  6
CONTINUOUS
 62
    7
 10
5.6799082883574101
 20
34.843725892989823
 11
9.8728015071708342
 21
34.843725892989823
  0
LINE
  8
_0-0_
  6
CONTINUOUS
 62
    7
 10
10.22635489776394
 20
34.697279283583157
 11
11.433461678950607
 21
33.49017250239649
  0
LINE
  8
_0-0_
  6
CONTINUOUS
 62
    7
 10
11.579908288357274
 20
33.136619111803611
 11
11.579908288357274
 21
20.55083267417649
  0
LINE
  8
_0-0_
  6
CONTINUOUS
 62
    7
 10
11.433461678950607
 20
20.197279283583157
 11
10.226354897764168
 21
18.99017250239649
  0
LINE
  8
_0-0_
  6
CONTINUOUS
 62
    7
 10
9.8728015071708342
 20
18.843725892989823
 11
5.6799082883574101
 21
18.843725892989823
  0
LINE
  8
_0-0_
  6
CONTINUOUS
 62
    7
 10
5.1799082883574101
 20
19.343725892989823
 11
5.1799082883574101
 21
20.83470889861519
  0
LINE
  8
_0-0_
  6
CONTINUOUS
 62
    7
 10
4.9035150861072907
 20
21.281922494114951
 11
4.0854810973573876
 21
21.69093948849013
  0
LINE
  8
_0-0_
  6
CONTINUOUS
 62
    7
 10
3.8618742996075071
 20
21.743725892989914
 11
2.0799082883572737
 21
21.743725892989914
  0
LINE
  8
_0-0_
  6
CONTINUOUS
 62
    7
 10
1.5799082883572737
 20
21.243725892989914
 11
1.5799082883572737
 21
8.3437258929898235
  0
LINE
  8
_0-0_
  6
CONTINUOUS
 62
    7
 10
3.0799082883572737
 20
6.8437258929898235
 11
15.979908288357365
 21
6.8437258929898235
  0
LINE
  8
_0-0_
  6
CONTINUOUS
 62
    7
 10
16.479908288357365
 20
7.3437258929898235
 11
16.479908288357365
 21
9.1256919042402842
  0
LINE
  8
_0-0_
  6
CONTINUOUS
 62
    7
 10
16.427121883857353
 20
9.3492987019899374
 11
16.018104889482402
 21
10.16733269073984
  0
LINE
  8
_0-0_
  6
CONTINUOUS
 62
    7
 10
15.570891293982413
 20
10.443725892989733
 11
14.079908288357274
 21
10.443725892989733
  0
LINE
  8
_0-0_
  6
CONTINUOUS
 62
    7
 10
13.579908288357274
 20
10.943725892989733
 11
13.579908288357274
 21
15.136619111803611
  0
LINE
  8
_0-0_
  6
CONTINUOUS
 62
    7
 10
13.72635489776394
 20
15.49017250239649
 11
14.933461678950607
 21
16.697279283583157
  0
LINE
  8
_0-0_
  6
CONTINUOUS
 62
    7
 10
15.287015069543941
 20
16.843725892989823
 11
27.872801507170834
 21
16.843725892989823
  0
LINE
  8
_0-0_
  6
CONTINUOUS
 62
    7
 10
28.226354897764168
 20
16.697279283583157
 11
29.433461678950607
 21
15.490172502396945
  0
LINE
  8
_0-0_
  6
CONTINUOUS
 62
    7
 10
29.579908288357274
 20
15.136619111803611
 11
29.579908288357274
 21
10.943725892989733
  0
LINE
  8
_0-0_
  6
CONTINUOUS
 62
    7
 10
29.079908288357274
 20
10.443725892989733
 11
27.588925282732362
 21
10.443725892989733
  0
LINE
  8
_0-0_
  6
CONTINUOUS
 62
    7
 10
27.141711687232373
 20
10.16733269073984
 11
26.732694692857422
 21
9.3492987019899374
  0
LINE
  8
_0-0_
  6
CONTINUOUS
 62
    7
 10
26.67990828835741
 20
9.1256919042402842
 11
26.67990828835741
 21
7.3437258929898235
  0
LINE
  8
_0-0_
  6
CONTINUOUS
 62
    7
 10
27.17990828835741
 20
6.8437258929898235
 11
30.079908288357274
 21
6.8437258929898235
  0
LINE
  8
_0-0_
  6
CONTINUOUS
 62
    7
 10
31.579908288357274
 20
8.3437258929898235
 11
31.579908288357274
 21
35.343725892989823
  0
LINE
  8
_0-0_
  6
CONTINUOUS
 62
    7
 10
28.979908288357365
 20
34.343725892989823
 11
26.874599036612608
 21
34.343725892989823
  0
LINE
  8
_0-0_
  6
CONTINUOUS
 62
    7
 10
26.391636123468061
 20
33.973135415541492
 11
25.679207707512433
 21
31.314316370438519
  0
LINE
  8
_0-0_
  6
CONTINUOUS
 62
    7
 10
25.196244794367885
 20
30.943725892989733
 11
17.963571782346889
 21
30.943725892989733
  0
LINE
  8
_0-0_
  6
CONTINUOUS
 62
    7
 10
17.480608869202342
 20
31.314316370438519
 11
16.768180453246487
 21
33.973135415541492
  0
LINE
  8
_0-0_
  6
CONTINUOUS
 62
    7
 10
16.285217540101939
 20
34.343725892989823
 11
14.17990828835741
 21
34.343725892989823
  0
LINE
  8
_0-0_
  6
CONTINUOUS
 62
    7
 10
13.67990828835741
 20
33.843725892989823
 11
13.67990828835741
 21
19.843725892989823
  0
LINE
  8
_0-0_
  6
CONTINUOUS
 62
    7
 10
14.17990828835741
 20
19.343725892989823
 11
16.285217540101939
 21
19.343725892989823
  0
LINE
  8
_0-0_
  6
CONTINUOUS
 62
    7
 10
16.768180453246487
 20
19.71431637043861
 11
17.480608869202342
 21
22.373135415541128
  0
LINE
  8
_0-0_
  6
CONTINUOUS
 62
    7
 10
17.963571782346889
 20
22.743725892989914
 11
25.196244794367885
 21
22.743725892989914
  0
LINE
  8
_0-0_
  6
CONTINUOUS
 62
    7
 10
25.679207707512433
 20
22.373135415541128
 11
26.391636123468061
 21
19.71431637043861
  0
LINE
  8
_0-0_
  6
CONTINUOUS
 62
    7
 10
26.874599036612608
 20
19.343725892989823
 11
28.979908288357365
 21
19.343725892989823
  0
LINE
  8
_0-0_
  6
CONTINUOUS
 62
    7
 10
29.479908288357365
 20
19.843725892989823
 11
29.479908288357365
 21
33.843725892989823
  0
ARC
  8
_0-0_
  6
CONTINUOUS
 62
    7
 10
14.079908288357274
 20
10.943725892989733
 40
0.5
 50
180
 51
270
  0
ARC
  8
_0-0_
  6
CONTINUOUS
 62
    7
 10
14.17990828835741
 20
33.843725892989823
 40
0.5
 50
90
 51
180
  0
ARC
  8
_0-0_
  6
CONTINUOUS
 62
    7
 10
14.17990828835741
 20
19.843725892989823
 40
0.5
 50
180
 51
270
  0
ARC
  8
_0-0_
  6
CONTINUOUS
 62
    7
 10
16.285217540101939
 20
33.843725892989823
 40
0.5
 50
15.000000000000059
 51
90
  0
ARC
  8
_0-0_
  6
CONTINUOUS
 62
    7
 10
17.963571782346889
 20
31.443725892989733
 40
0.5
 50
195.00000000000003
 51
270
  0
ARC
  8
_0-0_
  6
CONTINUOUS
 62
    7
 10
16.285217540101939
 20
19.843725892989823
 40
0.5
 50
270.00000000000006
 51
345.00000000000006
  0
ARC
  8
_0-0_
  6
CONTINUOUS
 62
    7
 10
17.963571782346889
 20
22.243725892989914
 40
0.5
 50
90.000000000000028
 51
165.00000000000003
  0
ARC
  8
_0-0_
  6
CONTINUOUS
 62
    7
 10
30.079908288357274
 20
35.343725892989823
 40
1.5
 50
0
 51
90
  0
ARC
  8
_0-0_
  6
CONTINUOUS
 62
    7
 10
30.079908288357274
 20
8.3437258929898235
 40
1.5
 50
270
 51
0
  0
ARC
  8
_0-0_
  6
CONTINUOUS
 62
    7
 10
29.079908288357274
 20
10.943725892989733
 40
0.5
 50
270
 51
0
  0
ARC
  8
_0-0_
  6
CONTINUOUS
 62
    7
 10
28.979908288357365
 20
33.843725892989823
 40
0.5
 50
0
 51
90
  0
ARC
  8
_0-0_
  6
CONTINUOUS
 62
    7
 10
28.979908288357365
 20
19.843725892989823
 40
0.5
 50
270
 51
0
  0
ARC
  8
_0-0_
  6
CONTINUOUS
 62
    7
 10
26.874599036612608
 20
33.843725892989823
 40
0.5
 50
89.999999999999972
 51
164.99999999999991
  0
ARC
  8
_0-0_
  6
CONTINUOUS
 62
    7
 10
25.196244794367885
 20
31.443725892989733
 40
0.5
 50
270
 51
344.99999999999994
  0
ARC
  8
_0-0_
  6
CONTINUOUS
 62
    7
 10
26.874599036612608
 20
19.843725892989823
 40
0.5
 50
194.99999999999997
 51
269.99999999999994
  0
ARC
  8
_0-0_
  6
CONTINUOUS
 62
    7
 10
25.196244794367885
 20
22.243725892989914
 40
0.5
 50
14.999999999999996
 51
90
  0
ARC
  8
_0-0_
  6
CONTINUOUS
 62
    7
 10
27.17990828835741
 20
7.3437258929898235
 40
0.5
 50
180
 51
270
  0
ARC
  8
_0-0_
  6
CONTINUOUS
 62
    7
 10
27.17990828835741
 20
9.1256919042402842
 40
0.5
 50
153.43494882292214
 51
180
  0
ARC
  8
_0-0_
  6
CONTINUOUS
 62
    7
 10
27.588925282732362
 20
9.9437258929897325
 40
0.5
 50
90
 51
153.43494882292231
  0
ARC
  8
_0-0_
  6
CONTINUOUS
 62
    7
 10
15.979908288357365
 20
7.3437258929898235
 40
0.5
 50
270
 51
0
  0
ARC
  8
_0-0_
  6
CONTINUOUS
 62
    7
 10
15.979908288357365
 20
9.1256919042402842
 40
0.5
 50
0.0000000000000254
 51
26.565051177077837
  0
ARC
  8
_0-0_
  6
CONTINUOUS
 62
    7
 10
15.570891293982413
 20
9.9437258929897325
 40
0.5
 50
26.565051177077688
 51
90
  0
ARC
  8
_0-0_
  6
CONTINUOUS
 62
    7
 10
15.287015069543941
 20
16.343725892989823
 40
0.5
 50
90
 51
135.00000000000006
  0
ARC
  8
_0-0_
  6
CONTINUOUS
 62
    7
 10
27.872801507170834
 20
16.343725892989823
 40
0.5
 50
45.000000000000057
 51
90
  0
ARC
  8
_0-0_
  6
CONTINUOUS
 62
    7
 10
29.079908288357274
 20
15.136619111803611
 40
0.5
 50
0
 51
45
  0
ARC
  8
_0-0_
  6
CONTINUOUS
 62
    7
 10
3.0799082883572737
 20
8.3437258929898235
 40
1.5
 50
180
 51
270
  0
ARC
  8
_0-0_
  6
CONTINUOUS
 62
    7
 10
3.0799082883572737
 20
35.343725892989823
 40
1.5
 50
90
 51
180
  0
CIRCLE
  8
_0-0_
  6
CONTINUOUS
 62
    7
 10
7.5799082883572737
 20
12.843725892989823
 40
4.2000000000000002
  0
ARC
  8
_0-0_
  6
CONTINUOUS
 62
    7
 10
5.6799082883574101
 20
34.343725892989823
 40
0.5
 50
90
 51
180
  0
ARC
  8
_0-0_
  6
CONTINUOUS
 62
    7
 10
5.6799082883574101
 20
19.343725892989823
 40
0.5
 50
180
 51
270
  0
ARC
  8
_0-0_
  6
CONTINUOUS
 62
    7
 10
2.0799082883572737
 20
21.243725892989914
 40
0.5
 50
90
 51
180
  0
ARC
  8
_0-0_
  6
CONTINUOUS
 62
    7
 10
3.8618742996075071
 20
21.243725892989914
 40
0.5
 50
63.434948822922159
 51
89.999999999999972
  0
ARC
  8
_0-0_
  6
CONTINUOUS
 62
    7
 10
4.6799082883574101
 20
20.83470889861519
 40
0.5
 50
0
 51
63.434948822922316
  0
ARC
  8
_0-0_
  6
CONTINUOUS
 62
    7
 10
2.0799082883572737
 20
32.443725892989733
 40
0.5
 50
180
 51
270
  0
ARC
  8
_0-0_
  6
CONTINUOUS
 62
    7
 10
3.8618742996075071
 20
32.443725892989733
 40
0.5
 50
270
 51
296.56505117707786
  0
ARC
  8
_0-0_
  6
CONTINUOUS
 62
    7
 10
4.6799082883574101
 20
32.852742887364911
 40
0.5
 50
296.56505117707769
 51
0
  0
ARC
  8
_0-0_
  6
CONTINUOUS
 62
    7
 10
11.079908288357274
 20
33.136619111803611
 40
0.5
 50
0
 51
45.00000000000005
  0
ARC
  8
_0-0_
  6
CONTINUOUS
 62
    7
 10
11.079908288357274
 20
20.55083267417649
 40
0.5
 50
315.00000000000006
 51
0
  0
ARC
  8
_0-0_
  6
CONTINUOUS
 62
    7
 10
9.8728015071708342
 20
19.343725892989823
 40
0.5
 50
270
 51
315
  0
ARC
  8
_0-0_
  6
CONTINUOUS
 62
    7
 10
14.079908288357274
 20
15.136619111803611
 40
0.5
 50
134.99999999999994
 51
180
  0
ARC
  8
_0-0_
  6
CONTINUOUS
 62
    7
 10
9.8728015071708342
 20
34.343725892989823
 40
0.5
 50
45
 51
90
  0
LINE
  8
_0-1_
  6
CENTER2
 62
  152
 10
31.579908288357274
 20
26.843725892989823
 11
1.5799082883572737
 21
26.843725892989823
  0
LINE
  8
_0-1_
  6
CENTER2
 62
  152
 10
21.579908288357274
 20
6.8437258929898235
 11
21.579908288357274
 21
36.843725892989823
  0
ENDSEC
  0
EOF
