  0
SECTION
  2
HEADER
  9
$ACADVER
  1
AC1009
  9
$INSBASE
 10
0
 20
0
 30
0
  9
$EXTMIN
 10
0
 20
0
  9
$EXTMAX
 10
1189
 20
841
  9
$LIMMIN
 10
0
 20
0
  9
$LIMMAX
 10
1189
 20
841
  9
$LTSCALE
 40
1
  0
ENDSEC
  0
SECTION
  2
TABLES
  0
TABLE
  2
LTYPE
 70
     9
  0
LTYPE
  2
CONTINUOUS
 70
    64
  3
実線
 72
    65
 73
     0
 40
0.0
  0
LTYPE
  2
DASHED1
 70
    64
  3
--  --  --  --  --  --  --  --  
 72
    65
 73
     2
 40
2.5
 49
1.25
 49
-1.25
  0
LTYPE
  2
DASHED2
 70
    64
  3
----    ----    ----    ----    
 72
    65
 73
     2
 40
5.0
 49
2.5
 49
-2.5
  0
LTYPE
  2
DASHED3
 70
    64
  3
------  ------  ------  ------  
 72
    65
 73
     2
 40
5.0
 49
3.75
 49
-1.25
  0
LTYPE
  2
CENTER1
 70
    64
  3
----- - ----- - ----- - ----- - 
 72
    65
 73
     4
 40
10.0
 49
6.25
 49
-1.25
 49
1.25
 49
-1.25
  0
LTYPE
  2
CENTER2
 70
    64
  3
----------  --  ----------  --  
 72
    65
 73
     4
 40
20.0
 49
12.5
 49
-2.5
 49
2.5
 49
-2.5
  0
LTYPE
  2
PHANTOM1
 70
    64
  3
--- - - --- - - --- - - --- - - 
 72
    65
 73
     6
 40
10.0
 49
3.25
 49
-1.25
 49
1.25
 49
-1.25
 49
1.25
 49
-1.25
  0
LTYPE
  2
PHANTOM2
 70
    64
  3
--------  -  -  --------  -  -  
 72
    65
 73
     6
 40
20.0
 49
10.0
 49
-2.5
 49
1.25
 49
-2.5
 49
1.25
 49
-2.5
  0
LTYPE
  2
DOT
 70
    64
  3
-   -   -   -   -   -   -   -   
 72
    65
 73
     2
 40
2.5
 49
0.625
 49
-1.875
  0
LTYPE
  2
DUMMY
 70
    64
  3
ダミー
 72
    65
 73
     0
 40
0.0
  0
LTYPE
  2
RAND1
 70
    64
  3
ランダム線1
 72
    65
 73
     4
 40
10.0
 49
1.0
 49
-2.0
 49
3.0
 49
-4.0
  0
LTYPE
  2
RAND2
 70
    64
  3
ランダム線2
 72
    65
 73
     4
 40
14.0
 49
2.0
 49
-3.0
 49
4.0
 49
-5.0
  0
LTYPE
  2
RAND3
 70
    64
  3
ランダム線3
 72
    65
 73
     4
 40
18.0
 49
3.0
 49
-4.0
 49
5.0
 49
-6.0
  0
LTYPE
  2
RAND4
 70
    64
  3
ランダム線4
 72
    65
 73
     4
 40
22.0
 49
4.0
 49
-5.0
 49
6.0
 49
-7.0
  0
LTYPE
  2
RAND5
 70
    64
  3
ランダム線5
 72
    65
 73
     4
 40
26.0
 49
5.0
 49
-6.0
 49
7.0
 49
-8.0
  0
LTYPE
  2
LONG1
 70
    64
  3
----------  --  ----------  --  
 72
    65
 73
     4
 40
40.0
 49
32.5
 49
-2.5
 49
2.5
 49
-2.5
  0
LTYPE
  2
LONG2
 70
    64
  3
--------  -  -  --------  -  -  
 72
    65
 73
     6
 40
40.0
 49
30.0
 49
-2.5
 49
1.25
 49
-2.5
 49
1.25
 49
-2.5
  0
LTYPE
  2
LONG3
 70
    64
  3
+++++++++++++++..+++++++++++++++
 72
    65
 73
     2
 40
40.0
 49
37.5
 49
-2.5
  0
LTYPE
  2
LONG4
 70
    64
  3
+++++++++++++++..+++++++++++++++
 72
    65
 73
     2
 40
80.0
 49
75.0
 49
-5.0
  0
LTYPE
  2
LONG5
 70
    64
  3
----------  --  ----------  --  
 72
    65
 73
     4
 40
60.0
 49
37.5
 49
-7.5
 49
7.5
 49
-7.5
  0
LTYPE
  2
dashed
 70
   64
  3
-------   -------------   ------
 72
   65
 73
    2
 40
7.5
 49
6
 49
-1.5
  0
LTYPE
  2
dashed_spaced
 70
   64
  3
----        --------        ----
 72
   65
 73
    2
 40
12
 49
6
 49
-6
  0
LTYPE
  2
long_dashed_dotted
 70
   64
  3
------------- --- --------------
 72
   65
 73
    4
 40
15.25
 49
12
 49
-1.5
 49
0.25
 49
-1.5
  0
LTYPE
  2
long_dashed_double-dotted
 70
   64
  3
----------- --- --- ------------
 72
   65
 73
    6
 40
17
 49
12
 49
-1.5
 49
0.25
 49
-1.5
 49
0.25
 49
-1.5
  0
LTYPE
  2
long_dashed_triplicate-dotted
 70
   64
  3
--------- --- --- --- ----------
 72
   65
 73
    8
 40
18.75
 49
12
 49
-1.5
 49
0.25
 49
-1.5
 49
0.25
 49
-1.5
 49
0.25
 49
-1.5
  0
LTYPE
  2
dotted
 70
   64
  3
   -       -       -       -    
 72
   65
 73
    2
 40
1.75
 49
0.25
 49
-1.5
  0
LTYPE
  2
chain
 70
   64
  3
-------------- -- --------------
 72
   65
 73
    4
 40
18.5
 49
12
 49
-1.5
 49
3.5
 49
-1.5
  0
LTYPE
  2
chain_double_dash
 70
   64
  3
------------ -- -- -------------
 72
   65
 73
    6
 40
23.5
 49
12
 49
-1.5
 49
3.5
 49
-1.5
 49
3.5
 49
-1.5
  0
LTYPE
  2
dashed_dotted
 70
   64
  3
-----------     -     ----------
 72
   65
 73
    4
 40
9.25
 49
6
 49
-1.5
 49
0.25
 49
-1.5
  0
LTYPE
  2
double-dashed_dotted
 70
   64
  3
------   -----------   -   -----
 72
   65
 73
    6
 40
16.75
 49
6
 49
-1.5
 49
6
 49
-1.5
 49
0.25
 49
-1.5
  0
LTYPE
  2
dashed_double-dotted
 70
   64
  3
---------    -    -    ---------
 72
   65
 73
    6
 40
11
 49
6
 49
-1.5
 49
0.25
 49
-1.5
 49
0.25
 49
-1.5
  0
LTYPE
  2
double-dashed_double-dotted
 70
   64
  3
-----   ---------   -   -   ----
 72
   65
 73
    8
 40
18.5
 49
6
 49
-1.5
 49
6
 49
-1.5
 49
0.25
 49
-1.5
 49
0.25
 49
-1.5
  0
LTYPE
  2
dashed_triplicate-dotted
 70
   64
  3
-------    -    -    -    ------
 72
   65
 73
    8
 40
12.75
 49
6
 49
-1.5
 49
0.25
 49
-1.5
 49
0.25
 49
-1.5
 49
0.25
 49
-1.5
  0
LTYPE
  2
double-dashed_triplicate-dotted
 70
   64
  3
-----  ---------  -  -  -  -----
 72
   65
 73
   10
 40
20.25
 49
6
 49
-1.5
 49
6
 49
-1.5
 49
0.25
 49
-1.5
 49
0.25
 49
-1.5
 49
0.25
 49
-1.5
  0
LTYPE
  2
undefined
 70
   64
  3
--------------------------------
 72
   65
 73
    0
 40
0
  0
ENDTAB
  0
TABLE
  2
STYLE
  5
3
100
AcDbSymbolTable
 70
     1
  0
STYLE
  5
10
100
AcDbSymbolTableRecord
100
AcDbTextStyleTableRecord
  2
STANDARD
 70
     0
 40
0.0
 41
1.0
 50
0.0
 71
     0
 42
0.2
  3
txt
  4
bigfont.shx
  0
STYLE
  5
26
100
AcDbSymbolTableRecord
100
AcDbTextStyleTableRecord
  2
TATEGAKI
 70
    68
 40
0.0
 41
1.0
 50
0.0
 71
     0
 42
1.0
  3
txt
  4
bigfont.shx
  0
ENDTAB
  0
TABLE
  2
LAYER
 70
    3
  0
LAYER
  2
_0-0_
 70
   64
 62
    7
  6
CONTINUOUS
  0
LAYER
  2
_0-f_
 70
   64
 62
    7
  6
CONTINUOUS
  0
LAYER
  2
ADD_LINE
 70
   64
 62
    7
  6
CONTINUOUS
  0
ENDTAB
  0
ENDSEC
  0
SECTION
  2
BLOCKS
  0
ENDSEC
  0
SECTION
  2
ENTITIES
  0
ARC
  8
_0-0_
  6
CONTINUOUS
 62
    7
 10
9.4009035640390266
 20
21.98270356572641
 40
1
 50
90
 51
180
  0
ARC
  8
_0-0_
  6
CONTINUOUS
 62
    7
 10
37.400903564039027
 20
7.9827035657264105
 40
1
 50
270
 51
0
  0
ARC
  8
_0-0_
  6
CONTINUOUS
 62
    7
 10
9.4009035640390266
 20
7.9827035657264105
 40
1
 50
180
 51
270
  0
LINE
  8
_0-0_
  6
CONTINUOUS
 62
    7
 10
10.971166729223796
 20
22.98270356572641
 11
9.4009035640390266
 21
22.98270356572641
  0
ARC
  8
_0-0_
  6
CONTINUOUS
 62
    7
 10
10.971166729223796
 20
22.682703565726399
 40
0.3
 50
323.61413218314459
 51
90
  0
ARC
  8
_0-0_
  6
CONTINUOUS
 62
    7
 10
11.740953815612556
 20
16.282703565726422
 40
0.3
 50
221.32865864634294
 51
270
  0
ARC
  8
_0-0_
  6
CONTINUOUS
 62
    7
 10
37.400903564039027
 20
21.98270356572641
 40
1
 50
0
 51
90
  0
LINE
  8
_0-0_
  6
CONTINUOUS
 62
    7
 10
35.830640398854257
 20
22.98270356572641
 11
37.400903564039027
 21
22.98270356572641
  0
ARC
  8
_0-0_
  6
CONTINUOUS
 62
    7
 10
35.830640398854257
 20
22.682703565726399
 40
0.3
 50
90
 51
216.38586781685538
  0
LINE
  8
_0-0_
  6
CONTINUOUS
 62
    7
 10
35.060853312465497
 20
15.98270356572641
 11
11.740953815612556
 21
15.98270356572641
  0
ARC
  8
_0-0_
  6
CONTINUOUS
 62
    7
 10
35.060853312465497
 20
16.282703565726422
 40
0.3
 50
270
 51
318.67134135365706
  0
LINE
  8
_0-0_
  6
CONTINUOUS
 62
    7
 10
38.400903564039027
 20
13.082703565726376
 11
38.400903564039027
 21
21.98270356572641
  0
ARC
  8
_0-0_
  6
CONTINUOUS
 62
    7
 10
38.100903564039072
 20
13.082703565726376
 40
0.3
 50
270
 51
0
  0
LINE
  8
_0-0_
  6
CONTINUOUS
 62
    7
 10
37.200903564038981
 20
12.782703565726422
 11
38.100903564039072
 21
12.782703565726422
  0
ARC
  8
_0-0_
  6
CONTINUOUS
 62
    7
 10
37.200903564038981
 20
13.082703565726376
 40
0.3
 50
180
 51
270
  0
LINE
  8
_0-0_
  6
CONTINUOUS
 62
    7
 10
36.900903564039027
 20
13.682703565726399
 11
36.900903564039027
 21
13.082703565726376
  0
ARC
  8
_0-0_
  6
CONTINUOUS
 62
    7
 10
36.600903564039072
 20
13.682703565726399
 40
0.3
 50
0
 51
90.000000000000014
  0
LINE
  8
_0-0_
  6
CONTINUOUS
 62
    7
 10
34.400903564039027
 20
13.98270356572641
 11
36.600903564039072
 21
13.98270356572641
  0
ARC
  8
_0-0_
  6
CONTINUOUS
 62
    7
 10
34.400903564039027
 20
13.682703565726399
 40
0.3
 50
90
 51
180
  0
ARC
  8
_0-0_
  6
CONTINUOUS
 62
    7
 10
37.200903564038981
 20
9.2827035657264219
 40
0.3
 50
90
 51
180
  0
LINE
  8
_0-0_
  6
CONTINUOUS
 62
    7
 10
38.100903564039072
 20
9.5827035657264332
 11
37.200903564038981
 21
9.5827035657264332
  0
LINE
  8
_0-0_
  6
CONTINUOUS
 62
    7
 10
38.400903564039027
 20
9.2827035657264219
 11
38.400903564039027
 21
7.9827035657264105
  0
ARC
  8
_0-0_
  6
CONTINUOUS
 62
    7
 10
38.100903564039072
 20
9.2827035657264219
 40
0.3
 50
0
 51
90
  0
LINE
  8
_0-0_
  6
CONTINUOUS
 62
    7
 10
36.900903564039027
 20
8.6827035657263991
 11
36.900903564039027
 21
9.2827035657264219
  0
ARC
  8
_0-0_
  6
CONTINUOUS
 62
    7
 10
36.600903564039072
 20
8.6827035657263991
 40
0.3
 50
270
 51
0
  0
LINE
  8
_0-0_
  6
CONTINUOUS
 62
    7
 10
34.400903564039027
 20
8.3827035657264446
 11
36.600903564039072
 21
8.3827035657264446
  0
ARC
  8
_0-0_
  6
CONTINUOUS
 62
    7
 10
34.400903564039027
 20
8.6827035657263991
 40
0.3
 50
180
 51
270
  0
LINE
  8
_0-0_
  6
CONTINUOUS
 62
    7
 10
34.100903564039072
 20
9.2827035657264219
 11
34.100903564039072
 21
8.6827035657263991
  0
ARC
  8
_0-0_
  6
CONTINUOUS
 62
    7
 10
33.800903564039118
 20
9.2827035657264219
 40
0.3
 50
0
 51
90.000000000000014
  0
LINE
  8
_0-0_
  6
CONTINUOUS
 62
    7
 10
32.700903564038981
 20
9.5827035657264332
 11
33.800903564039118
 21
9.5827035657264332
  0
ARC
  8
_0-0_
  6
CONTINUOUS
 62
    7
 10
32.700903564038981
 20
9.8827035657264446
 40
0.3
 50
180
 51
270
  0
LINE
  8
_0-0_
  6
CONTINUOUS
 62
    7
 10
32.400903564039027
 20
12.48270356572641
 11
32.400903564039027
 21
9.8827035657264446
  0
ARC
  8
_0-0_
  6
CONTINUOUS
 62
    7
 10
32.700903564038981
 20
12.48270356572641
 40
0.3
 50
90
 51
180
  0
LINE
  8
_0-0_
  6
CONTINUOUS
 62
    7
 10
33.800903564039118
 20
12.782703565726422
 11
32.700903564038981
 21
12.782703565726422
  0
LINE
  8
_0-0_
  6
CONTINUOUS
 62
    7
 10
34.100903564039072
 20
13.082703565726376
 11
34.100903564039072
 21
13.682703565726399
  0
ARC
  8
_0-0_
  6
CONTINUOUS
 62
    7
 10
33.800903564039118
 20
13.082703565726376
 40
0.3
 50
270
 51
0
  0
ARC
  8
_0-0_
  6
CONTINUOUS
 62
    7
 10
8.7009035640389811
 20
13.082703565726376
 40
0.3
 50
180
 51
270
  0
LINE
  8
_0-0_
  6
CONTINUOUS
 62
    7
 10
9.6009035640390721
 20
12.782703565726422
 11
8.7009035640389811
 21
12.782703565726422
  0
ARC
  8
_0-0_
  6
CONTINUOUS
 62
    7
 10
9.6009035640390721
 20
13.082703565726376
 40
0.3
 50
270
 51
0
  0
LINE
  8
_0-0_
  6
CONTINUOUS
 62
    7
 10
9.9009035640390266
 20
13.682703565726399
 11
9.9009035640390266
 21
13.082703565726376
  0
ARC
  8
_0-0_
  6
CONTINUOUS
 62
    7
 10
10.200903564038981
 20
13.682703565726399
 40
0.3
 50
89.999999999999986
 51
180
  0
LINE
  8
_0-0_
  6
CONTINUOUS
 62
    7
 10
12.400903564039027
 20
13.98270356572641
 11
10.200903564038981
 21
13.98270356572641
  0
ARC
  8
_0-0_
  6
CONTINUOUS
 62
    7
 10
12.400903564039027
 20
13.682703565726399
 40
0.3
 50
0
 51
90
  0
ARC
  8
_0-0_
  6
CONTINUOUS
 62
    7
 10
9.6009035640390721
 20
9.2827035657264219
 40
0.3
 50
0
 51
90
  0
LINE
  8
_0-0_
  6
CONTINUOUS
 62
    7
 10
8.7009035640389811
 20
9.5827035657264332
 11
9.6009035640390721
 21
9.5827035657264332
  0
ARC
  8
_0-0_
  6
CONTINUOUS
 62
    7
 10
8.7009035640389811
 20
9.2827035657264219
 40
0.3
 50
90
 51
180
  0
LINE
  8
_0-0_
  6
CONTINUOUS
 62
    7
 10
9.9009035640390266
 20
8.6827035657263991
 11
9.9009035640390266
 21
9.2827035657264219
  0
ARC
  8
_0-0_
  6
CONTINUOUS
 62
    7
 10
10.200903564038981
 20
8.6827035657263991
 40
0.3
 50
180
 51
270
  0
LINE
  8
_0-0_
  6
CONTINUOUS
 62
    7
 10
12.400903564039027
 20
8.3827035657264446
 11
10.200903564038981
 21
8.3827035657264446
  0
ARC
  8
_0-0_
  6
CONTINUOUS
 62
    7
 10
12.400903564039027
 20
8.6827035657263991
 40
0.3
 50
270
 51
0
  0
LINE
  8
_0-0_
  6
CONTINUOUS
 62
    7
 10
12.700903564038981
 20
9.2827035657264219
 11
12.700903564038981
 21
8.6827035657263991
  0
ARC
  8
_0-0_
  6
CONTINUOUS
 62
    7
 10
13.000903564039049
 20
9.2827035657264219
 40
0.3
 50
89.999999999999986
 51
180
  0
LINE
  8
_0-0_
  6
CONTINUOUS
 62
    7
 10
14.100903564039072
 20
9.5827035657264332
 11
13.000903564039049
 21
9.5827035657264332
  0
ARC
  8
_0-0_
  6
CONTINUOUS
 62
    7
 10
14.100903564039072
 20
9.8827035657264446
 40
0.3
 50
270
 51
0
  0
LINE
  8
_0-0_
  6
CONTINUOUS
 62
    7
 10
14.400903564039027
 20
12.48270356572641
 11
14.400903564039027
 21
9.8827035657264446
  0
ARC
  8
_0-0_
  6
CONTINUOUS
 62
    7
 10
14.100903564039072
 20
12.48270356572641
 40
0.3
 50
0
 51
90
  0
LINE
  8
_0-0_
  6
CONTINUOUS
 62
    7
 10
13.000903564039049
 20
12.782703565726422
 11
14.100903564039072
 21
12.782703565726422
  0
LINE
  8
_0-0_
  6
CONTINUOUS
 62
    7
 10
12.700903564038981
 20
13.082703565726376
 11
12.700903564038981
 21
13.682703565726399
  0
ARC
  8
_0-0_
  6
CONTINUOUS
 62
    7
 10
13.000903564039049
 20
13.082703565726376
 40
0.3
 50
180
 51
270
  0
LINE
  8
_0-0_
  6
CONTINUOUS
 62
    7
 10
8.4009035640390266
 20
7.9827035657264105
 11
8.4009035640390266
 21
9.2827035657264219
  0
LINE
  8
_0-0_
  6
CONTINUOUS
 62
    7
 10
8.4009035640390266
 20
13.082703565726376
 11
8.4009035640390266
 21
21.98270356572641
  0
LINE
  8
_0-0_
  6
CONTINUOUS
 62
    7
 10
27.000903564038936
 20
7.282703565726365
 11
27.000903564038936
 21
8.4827035657264105
  0
LINE
  8
_0-0_
  6
CONTINUOUS
 62
    7
 10
19.800903564039118
 20
7.282703565726365
 11
19.800903564039118
 21
8.4827035657264105
  0
ARC
  8
_0-0_
  6
CONTINUOUS
 62
    7
 10
27.30090356403889
 20
8.4827035657264105
 40
0.3
 50
90
 51
180
  0
LINE
  8
_0-0_
  6
CONTINUOUS
 62
    7
 10
29.100903564039072
 20
8.7827035657261376
 11
27.30090356403889
 21
8.7827035657261376
  0
ARC
  8
_0-0_
  6
CONTINUOUS
 62
    7
 10
29.100903564039072
 20
9.0827035657263195
 40
0.3
 50
270
 51
0
  0
LINE
  8
_0-0_
  6
CONTINUOUS
 62
    7
 10
29.400903564039027
 20
11.858439497014501
 11
29.400903564039027
 21
9.0827035657263195
  0
ARC
  8
_0-0_
  6
CONTINUOUS
 62
    7
 10
29.100903564039072
 20
11.858439497014501
 40
0.3
 50
0
 51
45
  0
LINE
  8
_0-0_
  6
CONTINUOUS
 62
    7
 10
28.28877152968289
 20
13.09483560008232
 11
29.31303559839489
 21
12.070571531370319
  0
ARC
  8
_0-0_
  6
CONTINUOUS
 62
    7
 10
28.076639495327072
 20
12.882703565726047
 40
0.3
 50
45.000000000000384
 51
90
  0
LINE
  8
_0-0_
  6
CONTINUOUS
 62
    7
 10
17.488771529683163
 20
12.070571531370319
 11
18.513035598394936
 21
13.09483560008232
  0
ARC
  8
_0-0_
  6
CONTINUOUS
 62
    7
 10
17.700903564038981
 20
11.858439497014501
 40
0.3
 50
134.99999999999963
 51
180.00000000000003
  0
LINE
  8
_0-0_
  6
CONTINUOUS
 62
    7
 10
17.400903564039027
 20
9.0827035657263195
 11
17.400903564039027
 21
11.858439497014501
  0
ARC
  8
_0-0_
  6
CONTINUOUS
 62
    7
 10
17.700903564038981
 20
9.0827035657263195
 40
0.3
 50
180
 51
270
  0
LINE
  8
_0-0_
  6
CONTINUOUS
 62
    7
 10
19.500903564038936
 20
8.7827035657261376
 11
17.700903564038981
 21
8.7827035657261376
  0
ARC
  8
_0-0_
  6
CONTINUOUS
 62
    7
 10
19.500903564038936
 20
8.4827035657264105
 40
0.3
 50
0
 51
90
  0
LINE
  8
_0-0_
  6
CONTINUOUS
 62
    7
 10
18.725167632750981
 20
13.182703565726229
 11
28.076639495327072
 21
13.182703565726229
  0
ARC
  8
_0-0_
  6
CONTINUOUS
 62
    7
 10
18.725167632750981
 20
12.882703565726047
 40
0.3
 50
90
 51
135
  0
ARC
  8
_0-0_
  6
CONTINUOUS
 62
    7
 10
19.500903564038936
 20
7.282703565726365
 40
0.3
 50
270
 51
0.0000000000000127
  0
LINE
  8
_0-0_
  6
CONTINUOUS
 62
    7
 10
9.4009035640390266
 20
6.9827035657264105
 11
19.500903564038936
 21
6.9827035657264105
  0
ARC
  8
_0-0_
  6
CONTINUOUS
 62
    7
 10
27.300903564039118
 20
7.282703565726365
 40
0.3
 50
180
 51
270
  0
LINE
  8
_0-0_
  6
CONTINUOUS
 62
    7
 10
37.400903564039027
 20
6.9827035657264105
 11
27.300903564039118
 21
6.9827035657264105
  0
LINE
  8
_0-0_
  6
CONTINUOUS
 62
    7
 10
36.722425813302834
 20
20.482699973829028
 11
36.683580533514714
 21
20.482699973829028
  0
LINE
  8
_0-0_
  6
CONTINUOUS
 62
    7
 10
36.722425813302834
 20
18.482699973829028
 11
36.683580533514714
 21
18.482699973829028
  0
ARC
  8
_0-0_
  6
CONTINUOUS
 62
    7
 10
36.722425813302834
 20
18.582699973828994
 40
0.1
 50
270
 51
350.033233699753
  0
ARC
  8
_0-0_
  6
CONTINUOUS
 62
    7
 10
36.683580533514714
 20
20.68269997382896
 40
0.2
 50
195.15975280016701
 51
270
  0
ARC
  8
_0-0_
  6
CONTINUOUS
 62
    7
 10
36.683580533514714
 20
18.282699973828983
 40
0.2
 50
90
 51
165.01180437666019
  0
ARC
  8
_0-0_
  6
CONTINUOUS
 62
    7
 10
36.722425813302834
 20
20.382699973829006
 40
0.1
 50
9.9667663002469844
 51
90
  0
ARC
  8
_0-0_
  6
CONTINUOUS
 62
    7
 10
31.600902602382121
 20
19.482699973829028
 40
5.3000000000000007
 50
350.03323369975521
 51
9.9667663002448315
  0
ARC
  8
_0-0_
  6
CONTINUOUS
 62
    7
 10
31.08090356403909
 20
19.782703565726422
 40
5.5999999999999996
 50
318.6713413536566
 51
345.01172878515609
  0
ARC
  8
_0-0_
  6
CONTINUOUS
 62
    7
 10
15.720903564038963
 20
19.782703565726422
 40
5.5999999999999996
 50
194.99432707485397
 51
221.3286586463434
  0
ARC
  8
_0-0_
  6
CONTINUOUS
 62
    7
 10
31.08090356403909
 20
19.182703565726399
 40
5.5999999999999996
 50
14.996869334853587
 51
36.385867816854528
  0
LINE
  8
_0-0_
  6
CONTINUOUS
 62
    7
 10
10.079381314775219
 20
20.482699973829028
 11
10.118226594563339
 21
20.482699973829028
  0
LINE
  8
_0-0_
  6
CONTINUOUS
 62
    7
 10
10.079381314775219
 20
18.482699973829028
 11
10.118226594563339
 21
18.482699973829028
  0
ARC
  8
_0-0_
  6
CONTINUOUS
 62
    7
 10
10.079381314775219
 20
18.582699973828994
 40
0.1
 50
189.96676630024697
 51
270
  0
ARC
  8
_0-0_
  6
CONTINUOUS
 62
    7
 10
10.118226594563339
 20
20.68269997382896
 40
0.2
 50
270
 51
344.84024719983302
  0
ARC
  8
_0-0_
  6
CONTINUOUS
 62
    7
 10
10.118226594563339
 20
18.282699973828983
 40
0.2
 50
14.988195623339809
 51
90
  0
ARC
  8
_0-0_
  6
CONTINUOUS
 62
    7
 10
10.079381314775219
 20
20.382699973829006
 40
0.1
 50
90
 51
170.03323369975303
  0
ARC
  8
_0-0_
  6
CONTINUOUS
 62
    7
 10
15.200904525695933
 20
19.482699973829028
 40
5.3000000000000007
 50
170.03323369975516
 51
189.96676630024476
  0
ARC
  8
_0-0_
  6
CONTINUOUS
 62
    7
 10
15.720903564038963
 20
19.182703565726399
 40
5.5999999999999996
 50
143.6141321831455
 51
165.00313066514641
  0
TEXT
  8
_0-f_
 62
    7
 10
4.406462091661183
 20
1.5879429784280887
 40
4.2999999999999998
 41
0.744186046511628
 50
0
  1
F30G
  0
ENDSEC
  0
EOF
