  0
SECTION
  2
HEADER
  9
$ACADVER
  1
AC1009
  9
$INSBASE
 10
0
 20
0
 30
0
  9
$EXTMIN
 10
0
 20
0
  9
$EXTMAX
 10
1189
 20
841
  9
$LIMMIN
 10
0
 20
0
  9
$LIMMAX
 10
1189
 20
841
  9
$LTSCALE
 40
1
  0
ENDSEC
  0
SECTION
  2
TABLES
  0
TABLE
  2
LTYPE
 70
     9
  0
LTYPE
  2
CONTINUOUS
 70
    64
  3
実線
 72
    65
 73
     0
 40
0.0
  0
LTYPE
  2
DASHED1
 70
    64
  3
--  --  --  --  --  --  --  --  
 72
    65
 73
     2
 40
2.5
 49
1.25
 49
-1.25
  0
LTYPE
  2
DASHED2
 70
    64
  3
----    ----    ----    ----    
 72
    65
 73
     2
 40
5.0
 49
2.5
 49
-2.5
  0
LTYPE
  2
DASHED3
 70
    64
  3
------  ------  ------  ------  
 72
    65
 73
     2
 40
5.0
 49
3.75
 49
-1.25
  0
LTYPE
  2
CENTER1
 70
    64
  3
----- - ----- - ----- - ----- - 
 72
    65
 73
     4
 40
10.0
 49
6.25
 49
-1.25
 49
1.25
 49
-1.25
  0
LTYPE
  2
CENTER2
 70
    64
  3
----------  --  ----------  --  
 72
    65
 73
     4
 40
20.0
 49
12.5
 49
-2.5
 49
2.5
 49
-2.5
  0
LTYPE
  2
PHANTOM1
 70
    64
  3
--- - - --- - - --- - - --- - - 
 72
    65
 73
     6
 40
10.0
 49
3.25
 49
-1.25
 49
1.25
 49
-1.25
 49
1.25
 49
-1.25
  0
LTYPE
  2
PHANTOM2
 70
    64
  3
--------  -  -  --------  -  -  
 72
    65
 73
     6
 40
20.0
 49
10.0
 49
-2.5
 49
1.25
 49
-2.5
 49
1.25
 49
-2.5
  0
LTYPE
  2
DOT
 70
    64
  3
-   -   -   -   -   -   -   -   
 72
    65
 73
     2
 40
2.5
 49
0.625
 49
-1.875
  0
LTYPE
  2
DUMMY
 70
    64
  3
ダミー
 72
    65
 73
     0
 40
0.0
  0
LTYPE
  2
RAND1
 70
    64
  3
ランダム線1
 72
    65
 73
     4
 40
10.0
 49
1.0
 49
-2.0
 49
3.0
 49
-4.0
  0
LTYPE
  2
RAND2
 70
    64
  3
ランダム線2
 72
    65
 73
     4
 40
14.0
 49
2.0
 49
-3.0
 49
4.0
 49
-5.0
  0
LTYPE
  2
RAND3
 70
    64
  3
ランダム線3
 72
    65
 73
     4
 40
18.0
 49
3.0
 49
-4.0
 49
5.0
 49
-6.0
  0
LTYPE
  2
RAND4
 70
    64
  3
ランダム線4
 72
    65
 73
     4
 40
22.0
 49
4.0
 49
-5.0
 49
6.0
 49
-7.0
  0
LTYPE
  2
RAND5
 70
    64
  3
ランダム線5
 72
    65
 73
     4
 40
26.0
 49
5.0
 49
-6.0
 49
7.0
 49
-8.0
  0
LTYPE
  2
LONG1
 70
    64
  3
----------  --  ----------  --  
 72
    65
 73
     4
 40
40.0
 49
32.5
 49
-2.5
 49
2.5
 49
-2.5
  0
LTYPE
  2
LONG2
 70
    64
  3
--------  -  -  --------  -  -  
 72
    65
 73
     6
 40
40.0
 49
30.0
 49
-2.5
 49
1.25
 49
-2.5
 49
1.25
 49
-2.5
  0
LTYPE
  2
LONG3
 70
    64
  3
+++++++++++++++..+++++++++++++++
 72
    65
 73
     2
 40
40.0
 49
37.5
 49
-2.5
  0
LTYPE
  2
LONG4
 70
    64
  3
+++++++++++++++..+++++++++++++++
 72
    65
 73
     2
 40
80.0
 49
75.0
 49
-5.0
  0
LTYPE
  2
LONG5
 70
    64
  3
----------  --  ----------  --  
 72
    65
 73
     4
 40
60.0
 49
37.5
 49
-7.5
 49
7.5
 49
-7.5
  0
LTYPE
  2
dashed
 70
   64
  3
-------   -------------   ------
 72
   65
 73
    2
 40
7.5
 49
6
 49
-1.5
  0
LTYPE
  2
dashed_spaced
 70
   64
  3
----        --------        ----
 72
   65
 73
    2
 40
12
 49
6
 49
-6
  0
LTYPE
  2
long_dashed_dotted
 70
   64
  3
------------- --- --------------
 72
   65
 73
    4
 40
15.25
 49
12
 49
-1.5
 49
0.25
 49
-1.5
  0
LTYPE
  2
long_dashed_double-dotted
 70
   64
  3
----------- --- --- ------------
 72
   65
 73
    6
 40
17
 49
12
 49
-1.5
 49
0.25
 49
-1.5
 49
0.25
 49
-1.5
  0
LTYPE
  2
long_dashed_triplicate-dotted
 70
   64
  3
--------- --- --- --- ----------
 72
   65
 73
    8
 40
18.75
 49
12
 49
-1.5
 49
0.25
 49
-1.5
 49
0.25
 49
-1.5
 49
0.25
 49
-1.5
  0
LTYPE
  2
dotted
 70
   64
  3
   -       -       -       -    
 72
   65
 73
    2
 40
1.75
 49
0.25
 49
-1.5
  0
LTYPE
  2
chain
 70
   64
  3
-------------- -- --------------
 72
   65
 73
    4
 40
18.5
 49
12
 49
-1.5
 49
3.5
 49
-1.5
  0
LTYPE
  2
chain_double_dash
 70
   64
  3
------------ -- -- -------------
 72
   65
 73
    6
 40
23.5
 49
12
 49
-1.5
 49
3.5
 49
-1.5
 49
3.5
 49
-1.5
  0
LTYPE
  2
dashed_dotted
 70
   64
  3
-----------     -     ----------
 72
   65
 73
    4
 40
9.25
 49
6
 49
-1.5
 49
0.25
 49
-1.5
  0
LTYPE
  2
double-dashed_dotted
 70
   64
  3
------   -----------   -   -----
 72
   65
 73
    6
 40
16.75
 49
6
 49
-1.5
 49
6
 49
-1.5
 49
0.25
 49
-1.5
  0
LTYPE
  2
dashed_double-dotted
 70
   64
  3
---------    -    -    ---------
 72
   65
 73
    6
 40
11
 49
6
 49
-1.5
 49
0.25
 49
-1.5
 49
0.25
 49
-1.5
  0
LTYPE
  2
double-dashed_double-dotted
 70
   64
  3
-----   ---------   -   -   ----
 72
   65
 73
    8
 40
18.5
 49
6
 49
-1.5
 49
6
 49
-1.5
 49
0.25
 49
-1.5
 49
0.25
 49
-1.5
  0
LTYPE
  2
dashed_triplicate-dotted
 70
   64
  3
-------    -    -    -    ------
 72
   65
 73
    8
 40
12.75
 49
6
 49
-1.5
 49
0.25
 49
-1.5
 49
0.25
 49
-1.5
 49
0.25
 49
-1.5
  0
LTYPE
  2
double-dashed_triplicate-dotted
 70
   64
  3
-----  ---------  -  -  -  -----
 72
   65
 73
   10
 40
20.25
 49
6
 49
-1.5
 49
6
 49
-1.5
 49
0.25
 49
-1.5
 49
0.25
 49
-1.5
 49
0.25
 49
-1.5
  0
LTYPE
  2
undefined
 70
   64
  3
--------------------------------
 72
   65
 73
    0
 40
0
  0
ENDTAB
  0
TABLE
  2
STYLE
  5
3
100
AcDbSymbolTable
 70
     1
  0
STYLE
  5
10
100
AcDbSymbolTableRecord
100
AcDbTextStyleTableRecord
  2
STANDARD
 70
     0
 40
0.0
 41
1.0
 50
0.0
 71
     0
 42
0.2
  3
txt
  4
bigfont.shx
  0
STYLE
  5
26
100
AcDbSymbolTableRecord
100
AcDbTextStyleTableRecord
  2
TATEGAKI
 70
    68
 40
0.0
 41
1.0
 50
0.0
 71
     0
 42
1.0
  3
txt
  4
bigfont.shx
  0
ENDTAB
  0
TABLE
  2
LAYER
 70
    4
  0
LAYER
  2
_0-0_
 70
   64
 62
    7
  6
CONTINUOUS
  0
LAYER
  2
_0-1_
 70
   64
 62
    7
  6
CONTINUOUS
  0
LAYER
  2
_0-f_
 70
   64
 62
    7
  6
CONTINUOUS
  0
LAYER
  2
ADD_LINE
 70
   64
 62
    7
  6
CONTINUOUS
  0
ENDTAB
  0
ENDSEC
  0
SECTION
  2
BLOCKS
  0
ENDSEC
  0
SECTION
  2
ENTITIES
  0
TEXT
  8
_0-f_
 62
    7
 10
1.3020636332817048
 20
1.1836561958480161
 40
4.2999999999999998
 41
0.744186046511628
 50
0
  1
F26M
  0
LINE
  8
_0-0_
  6
CONTINUOUS
 62
    7
 10
19.04683013635281
 20
22.363646181801585
 11
16.388011091250291
 21
23.07607459775744
  0
LINE
  8
_0-0_
  6
CONTINUOUS
 62
    7
 10
16.017420613801505
 20
23.559037510901987
 11
16.017420613801505
 21
30.791710522922756
  0
LINE
  8
_0-0_
  6
CONTINUOUS
 62
    7
 10
16.388011091250291
 20
31.274673436067303
 11
19.04683013635281
 21
31.987101852023159
  0
LINE
  8
_0-0_
  6
CONTINUOUS
 62
    7
 10
19.417420613801596
 20
32.470064765167706
 11
19.417420613801596
 21
41.880683268656981
  0
LINE
  8
_0-0_
  6
CONTINUOUS
 62
    7
 10
19.04683013635281
 20
42.363646181801528
 11
16.388011091250291
 21
43.076074597757383
  0
LINE
  8
_0-0_
  6
CONTINUOUS
 62
    7
 10
16.017420613801505
 20
43.559037510901931
 11
16.017420613801505
 21
50.791710522922699
  0
LINE
  8
_0-0_
  6
CONTINUOUS
 62
    7
 10
16.388011091250291
 20
51.274673436067246
 11
19.04683013635281
 21
51.987101852023102
  0
LINE
  8
_0-0_
  6
CONTINUOUS
 62
    7
 10
19.417420613801596
 20
52.470064765167649
 11
19.417420613801596
 21
54.575374016912178
  0
LINE
  8
_0-0_
  6
CONTINUOUS
 62
    7
 10
18.917420613801596
 20
55.075374016912178
 11
4.9174206138015961
 21
55.075374016912178
  0
LINE
  8
_0-0_
  6
CONTINUOUS
 62
    7
 10
4.4174206138015961
 20
54.575374016912178
 11
4.4174206138015961
 21
52.470064765167649
  0
LINE
  8
_0-0_
  6
CONTINUOUS
 62
    7
 10
4.7880110912503824
 20
51.987101852023102
 11
7.4468301363529008
 21
51.274673436067246
  0
LINE
  8
_0-0_
  6
CONTINUOUS
 62
    7
 10
7.8174206138014597
 20
50.791710522922699
 11
7.8174206138014597
 21
43.559037510901931
  0
LINE
  8
_0-0_
  6
CONTINUOUS
 62
    7
 10
7.4468301363529008
 20
43.076074597757383
 11
4.7880110912503824
 21
42.363646181801528
  0
LINE
  8
_0-0_
  6
CONTINUOUS
 62
    7
 10
4.4174206138015961
 20
41.880683268656981
 11
4.4174206138015961
 21
32.470064765167706
  0
LINE
  8
_0-0_
  6
CONTINUOUS
 62
    7
 10
4.7880110912503824
 20
31.987101852023159
 11
7.4468301363529008
 21
31.274673436067303
  0
LINE
  8
_0-0_
  6
CONTINUOUS
 62
    7
 10
7.8174206138014597
 20
30.791710522922756
 11
7.8174206138014597
 21
23.559037510901987
  0
LINE
  8
_0-0_
  6
CONTINUOUS
 62
    7
 10
7.4468301363529008
 20
23.07607459775744
 11
4.7880110912503824
 21
22.363646181801585
  0
LINE
  8
_0-0_
  6
CONTINUOUS
 62
    7
 10
4.4174206138015961
 20
21.880683268657037
 11
4.4174206138015961
 21
19.775374016912508
  0
LINE
  8
_0-0_
  6
CONTINUOUS
 62
    7
 10
4.9174206138015961
 20
19.275374016912508
 11
18.917420613801596
 21
19.275374016912508
  0
LINE
  8
_0-0_
  6
CONTINUOUS
 62
    7
 10
19.417420613801596
 20
19.775374016912508
 11
19.417420613801596
 21
21.880683268657037
  0
LINE
  8
_0-0_
  6
CONTINUOUS
 62
    7
 10
18.563867223208263
 20
17.028927407505478
 11
19.770974004394702
 21
15.821820626319266
  0
LINE
  8
_0-0_
  6
CONTINUOUS
 62
    7
 10
19.917420613801596
 20
15.468267235725932
 11
19.917420613801596
 21
11.275374016912508
  0
LINE
  8
_0-0_
  6
CONTINUOUS
 62
    7
 10
19.417420613801596
 20
10.775374016912508
 11
17.926437608176457
 21
10.775374016912508
  0
LINE
  8
_0-0_
  6
CONTINUOUS
 62
    7
 10
17.479224012676468
 20
10.498980814662161
 11
17.070207018301517
 21
9.6809468259122582
  0
LINE
  8
_0-0_
  6
CONTINUOUS
 62
    7
 10
17.017420613801505
 20
9.457340028162605
 11
17.017420613801505
 21
7.6753740169121443
  0
LINE
  8
_0-0_
  6
CONTINUOUS
 62
    7
 10
17.517420613801505
 20
7.1753740169121443
 11
20.417420613801596
 21
7.1753740169121443
  0
LINE
  8
_0-0_
  6
CONTINUOUS
 62
    7
 10
21.917420613801596
 20
8.6753740169121443
 11
21.917420613801596
 21
65.675374016912087
  0
LINE
  8
_0-0_
  6
CONTINUOUS
 62
    7
 10
20.417420613801596
 20
67.175374016912087
 11
17.517420613801505
 21
67.175374016912087
  0
LINE
  8
_0-0_
  6
CONTINUOUS
 62
    7
 10
17.017420613801505
 20
66.675374016912087
 11
17.017420613801505
 21
64.893408005662081
  0
LINE
  8
_0-0_
  6
CONTINUOUS
 62
    7
 10
17.070207018301517
 20
64.669801207911974
 11
17.479224012676468
 21
63.85176721916207
  0
LINE
  8
_0-0_
  6
CONTINUOUS
 62
    7
 10
17.926437608176457
 20
63.575374016912178
 11
19.417420613801596
 21
63.575374016912178
  0
LINE
  8
_0-0_
  6
CONTINUOUS
 62
    7
 10
19.917420613801596
 20
63.075374016912178
 11
19.917420613801596
 21
58.882480798098754
  0
LINE
  8
_0-0_
  6
CONTINUOUS
 62
    7
 10
19.770974004394702
 20
58.528927407505421
 11
18.563867223208263
 21
57.321820626318754
  0
LINE
  8
_0-0_
  6
CONTINUOUS
 62
    7
 10
18.210313832614929
 20
57.175374016912087
 11
5.6245273949880357
 21
57.175374016912087
  0
LINE
  8
_0-0_
  6
CONTINUOUS
 62
    7
 10
5.2709740043947022
 20
57.321820626318754
 11
4.0638672232082627
 21
58.528927407505421
  0
LINE
  8
_0-0_
  6
CONTINUOUS
 62
    7
 10
3.9174206138015961
 20
58.882480798098754
 11
3.9174206138015961
 21
63.075374016912178
  0
LINE
  8
_0-0_
  6
CONTINUOUS
 62
    7
 10
4.4174206138015961
 20
63.575374016912178
 11
5.9084036194265082
 21
63.575374016912178
  0
LINE
  8
_0-0_
  6
CONTINUOUS
 62
    7
 10
6.3556172149264967
 20
63.85176721916207
 11
6.7646342093014482
 21
64.669801207911974
  0
LINE
  8
_0-0_
  6
CONTINUOUS
 62
    7
 10
6.8174206138014597
 20
64.893408005662081
 11
6.8174206138014597
 21
66.675374016912087
  0
LINE
  8
_0-0_
  6
CONTINUOUS
 62
    7
 10
6.3174206138014597
 20
67.175374016912087
 11
3.4174206138015961
 21
67.175374016912087
  0
LINE
  8
_0-0_
  6
CONTINUOUS
 62
    7
 10
1.9174206138015961
 20
65.675374016912087
 11
1.9174206138015961
 21
8.6753740169121443
  0
LINE
  8
_0-0_
  6
CONTINUOUS
 62
    7
 10
3.4174206138015961
 20
7.1753740169121443
 11
6.3174206138014597
 21
7.1753740169121443
  0
LINE
  8
_0-0_
  6
CONTINUOUS
 62
    7
 10
6.8174206138014597
 20
7.6753740169121443
 11
6.8174206138014597
 21
9.457340028162605
  0
LINE
  8
_0-0_
  6
CONTINUOUS
 62
    7
 10
6.7646342093014482
 20
9.6809468259122582
 11
6.3556172149264967
 21
10.498980814662161
  0
LINE
  8
_0-0_
  6
CONTINUOUS
 62
    7
 10
5.9084036194265082
 20
10.775374016912508
 11
4.4174206138015961
 21
10.775374016912508
  0
LINE
  8
_0-0_
  6
CONTINUOUS
 62
    7
 10
3.9174206138015961
 20
11.275374016912508
 11
3.9174206138015961
 21
15.468267235725932
  0
LINE
  8
_0-0_
  6
CONTINUOUS
 62
    7
 10
4.0638672232082627
 20
15.821820626319266
 11
5.2709740043947022
 21
17.028927407505478
  0
LINE
  8
_0-0_
  6
CONTINUOUS
 62
    7
 10
5.6245273949880357
 20
17.175374016912144
 11
18.210313832614929
 21
17.175374016912144
  0
ARC
  8
_0-0_
  6
CONTINUOUS
 62
    7
 10
18.917420613801596
 20
41.880683268656981
 40
0.5
 50
0
 51
75.000000000000057
  0
ARC
  8
_0-0_
  6
CONTINUOUS
 62
    7
 10
16.517420613801505
 20
43.559037510901931
 40
0.5
 50
180
 51
254.99999999999991
  0
ARC
  8
_0-0_
  6
CONTINUOUS
 62
    7
 10
16.517420613801505
 20
50.791710522922699
 40
0.5
 50
104.99999999999999
 51
180.00000000000006
  0
ARC
  8
_0-0_
  6
CONTINUOUS
 62
    7
 10
18.917420613801596
 20
52.470064765167649
 40
0.5
 50
285.00000000000011
 51
0.0000000000000254
  0
ARC
  8
_0-0_
  6
CONTINUOUS
 62
    7
 10
18.917420613801596
 20
54.575374016912178
 40
0.5
 50
0
 51
90
  0
ARC
  8
_0-0_
  6
CONTINUOUS
 62
    7
 10
4.9174206138015961
 20
41.880683268656981
 40
0.5
 50
104.99999999999993
 51
180
  0
ARC
  8
_0-0_
  6
CONTINUOUS
 62
    7
 10
7.3174206138014597
 20
43.559037510901931
 40
0.5
 50
285.00000000000011
 51
0.0000000000000254
  0
ARC
  8
_0-0_
  6
CONTINUOUS
 62
    7
 10
7.3174206138014597
 20
50.791710522922699
 40
0.5
 50
359.99999999999994
 51
75
  0
ARC
  8
_0-0_
  6
CONTINUOUS
 62
    7
 10
4.9174206138015961
 20
52.470064765167649
 40
0.5
 50
180
 51
254.99999999999991
  0
ARC
  8
_0-0_
  6
CONTINUOUS
 62
    7
 10
4.9174206138015961
 20
54.575374016912178
 40
0.5
 50
90
 51
180
  0
ARC
  8
_0-0_
  6
CONTINUOUS
 62
    7
 10
20.417420613801596
 20
65.675374016912087
 40
1.5
 50
0
 51
90
  0
ARC
  8
_0-0_
  6
CONTINUOUS
 62
    7
 10
19.417420613801596
 20
63.075374016912178
 40
0.5
 50
0
 51
90
  0
ARC
  8
_0-0_
  6
CONTINUOUS
 62
    7
 10
3.4174206138015961
 20
65.675374016912087
 40
1.5
 50
90
 51
180
  0
ARC
  8
_0-0_
  6
CONTINUOUS
 62
    7
 10
4.4174206138015961
 20
63.075374016912178
 40
0.5
 50
90
 51
180
  0
ARC
  8
_0-0_
  6
CONTINUOUS
 62
    7
 10
6.3174206138014597
 20
66.675374016912087
 40
0.5
 50
0
 51
90
  0
ARC
  8
_0-0_
  6
CONTINUOUS
 62
    7
 10
6.3174206138014597
 20
64.893408005662081
 40
0.5
 50
333.43494882292214
 51
359.99999999999994
  0
ARC
  8
_0-0_
  6
CONTINUOUS
 62
    7
 10
5.9084036194265082
 20
64.075374016912178
 40
0.5
 50
270
 51
333.43494882292231
  0
ARC
  8
_0-0_
  6
CONTINUOUS
 62
    7
 10
17.517420613801505
 20
66.675374016912087
 40
0.5
 50
90
 51
180
  0
ARC
  8
_0-0_
  6
CONTINUOUS
 62
    7
 10
17.517420613801505
 20
64.893408005662081
 40
0.5
 50
180.00000000000006
 51
206.56505117707786
  0
ARC
  8
_0-0_
  6
CONTINUOUS
 62
    7
 10
17.926437608176457
 20
64.075374016912178
 40
0.5
 50
206.56505117707772
 51
270
  0
ARC
  8
_0-0_
  6
CONTINUOUS
 62
    7
 10
19.417420613801596
 20
58.882480798098754
 40
0.5
 50
314.99999999999994
 51
0.0000000000000063
  0
ARC
  8
_0-0_
  6
CONTINUOUS
 62
    7
 10
18.210313832614929
 20
57.675374016912087
 40
0.5
 50
270
 51
315.00000000000006
  0
ARC
  8
_0-0_
  6
CONTINUOUS
 62
    7
 10
5.6245273949880357
 20
57.675374016912087
 40
0.5
 50
225.00000000000006
 51
270
  0
ARC
  8
_0-0_
  6
CONTINUOUS
 62
    7
 10
4.4174206138015961
 20
58.882480798098754
 40
0.5
 50
180
 51
225
  0
ARC
  8
_0-0_
  6
CONTINUOUS
 62
    7
 10
20.417420613801596
 20
8.6753740169121443
 40
1.5
 50
270
 51
0
  0
ARC
  8
_0-0_
  6
CONTINUOUS
 62
    7
 10
19.417420613801596
 20
11.275374016912508
 40
0.5
 50
270
 51
0
  0
ARC
  8
_0-0_
  6
CONTINUOUS
 62
    7
 10
3.4174206138015961
 20
8.6753740169121443
 40
1.5
 50
180
 51
270
  0
ARC
  8
_0-0_
  6
CONTINUOUS
 62
    7
 10
4.4174206138015961
 20
11.275374016912508
 40
0.5
 50
180
 51
270
  0
ARC
  8
_0-0_
  6
CONTINUOUS
 62
    7
 10
6.3174206138014597
 20
7.6753740169121443
 40
0.5
 50
270
 51
0
  0
ARC
  8
_0-0_
  6
CONTINUOUS
 62
    7
 10
6.3174206138014597
 20
9.457340028162605
 40
0.5
 50
0
 51
26.565051177077862
  0
ARC
  8
_0-0_
  6
CONTINUOUS
 62
    7
 10
5.9084036194265082
 20
10.275374016912508
 40
0.5
 50
26.565051177077688
 51
90
  0
ARC
  8
_0-0_
  6
CONTINUOUS
 62
    7
 10
17.517420613801505
 20
7.6753740169121443
 40
0.5
 50
180
 51
270
  0
ARC
  8
_0-0_
  6
CONTINUOUS
 62
    7
 10
17.517420613801505
 20
9.457340028162605
 40
0.5
 50
153.43494882292217
 51
179.99999999999997
  0
ARC
  8
_0-0_
  6
CONTINUOUS
 62
    7
 10
17.926437608176457
 20
10.275374016912508
 40
0.5
 50
90
 51
153.43494882292231
  0
ARC
  8
_0-0_
  6
CONTINUOUS
 62
    7
 10
19.417420613801596
 20
15.468267235725932
 40
0.5
 50
0
 51
45.000000000000057
  0
ARC
  8
_0-0_
  6
CONTINUOUS
 62
    7
 10
18.210313832614929
 20
16.675374016912144
 40
0.5
 50
44.99999999999995
 51
90
  0
ARC
  8
_0-0_
  6
CONTINUOUS
 62
    7
 10
5.6245273949880357
 20
16.675374016912144
 40
0.5
 50
90
 51
134.99999999999994
  0
ARC
  8
_0-0_
  6
CONTINUOUS
 62
    7
 10
4.4174206138015961
 20
15.468267235725932
 40
0.5
 50
135
 51
180
  0
ARC
  8
_0-0_
  6
CONTINUOUS
 62
    7
 10
4.9174206138015961
 20
32.470064765167706
 40
0.5
 50
180
 51
255.00000000000006
  0
ARC
  8
_0-0_
  6
CONTINUOUS
 62
    7
 10
7.3174206138014597
 20
30.791710522922756
 40
0.5
 50
0
 51
74.999999999999886
  0
ARC
  8
_0-0_
  6
CONTINUOUS
 62
    7
 10
7.3174206138014597
 20
23.559037510901987
 40
0.5
 50
285
 51
0.0000000000000381
  0
ARC
  8
_0-0_
  6
CONTINUOUS
 62
    7
 10
4.9174206138015961
 20
21.880683268657037
 40
0.5
 50
105.00000000000009
 51
180
  0
ARC
  8
_0-0_
  6
CONTINUOUS
 62
    7
 10
4.9174206138015961
 20
19.775374016912508
 40
0.5
 50
180
 51
270
  0
ARC
  8
_0-0_
  6
CONTINUOUS
 62
    7
 10
18.917420613801596
 20
32.470064765167706
 40
0.5
 50
285
 51
0
  0
ARC
  8
_0-0_
  6
CONTINUOUS
 62
    7
 10
16.517420613801505
 20
30.791710522922756
 40
0.5
 50
105.00000000000009
 51
180
  0
ARC
  8
_0-0_
  6
CONTINUOUS
 62
    7
 10
16.517420613801505
 20
23.559037510901987
 40
0.5
 50
179.99999999999994
 51
255.00000000000006
  0
ARC
  8
_0-0_
  6
CONTINUOUS
 62
    7
 10
18.917420613801596
 20
21.880683268657037
 40
0.5
 50
0
 51
74.999999999999886
  0
ARC
  8
_0-0_
  6
CONTINUOUS
 62
    7
 10
18.917420613801596
 20
19.775374016912508
 40
0.5
 50
270
 51
0
  0
LINE
  8
_0-1_
  6
CENTER2
 62
  152
 10
11.917420613801596
 20
7.1753740169121443
 11
11.917420613801596
 21
67.175374016912087
  0
LINE
  8
_0-1_
  6
CENTER2
 62
  152
 10
21.917420613801141
 20
47.175374016912087
 11
1.9174206138015961
 21
47.175374016912087
  0
LINE
  8
_0-1_
  6
CENTER2
 62
  152
 10
1.9174206138015961
 20
27.175374016912144
 11
21.917420613801141
 21
27.175374016912144
  0
ENDSEC
  0
EOF
