  0
SECTION
  2
HEADER
  9
$ACADVER
  1
AC1009
  9
$INSBASE
 10
0
 20
0
 30
0
  9
$EXTMIN
 10
0
 20
0
  9
$EXTMAX
 10
1189
 20
841
  9
$LIMMIN
 10
0
 20
0
  9
$LIMMAX
 10
1189
 20
841
  9
$LTSCALE
 40
1
  0
ENDSEC
  0
SECTION
  2
TABLES
  0
TABLE
  2
LTYPE
 70
     9
  0
LTYPE
  2
CONTINUOUS
 70
    64
  3
実線
 72
    65
 73
     0
 40
0.0
  0
LTYPE
  2
DASHED1
 70
    64
  3
--  --  --  --  --  --  --  --  
 72
    65
 73
     2
 40
2.5
 49
1.25
 49
-1.25
  0
LTYPE
  2
DASHED2
 70
    64
  3
----    ----    ----    ----    
 72
    65
 73
     2
 40
5.0
 49
2.5
 49
-2.5
  0
LTYPE
  2
DASHED3
 70
    64
  3
------  ------  ------  ------  
 72
    65
 73
     2
 40
5.0
 49
3.75
 49
-1.25
  0
LTYPE
  2
CENTER1
 70
    64
  3
----- - ----- - ----- - ----- - 
 72
    65
 73
     4
 40
10.0
 49
6.25
 49
-1.25
 49
1.25
 49
-1.25
  0
LTYPE
  2
CENTER2
 70
    64
  3
----------  --  ----------  --  
 72
    65
 73
     4
 40
20.0
 49
12.5
 49
-2.5
 49
2.5
 49
-2.5
  0
LTYPE
  2
PHANTOM1
 70
    64
  3
--- - - --- - - --- - - --- - - 
 72
    65
 73
     6
 40
10.0
 49
3.25
 49
-1.25
 49
1.25
 49
-1.25
 49
1.25
 49
-1.25
  0
LTYPE
  2
PHANTOM2
 70
    64
  3
--------  -  -  --------  -  -  
 72
    65
 73
     6
 40
20.0
 49
10.0
 49
-2.5
 49
1.25
 49
-2.5
 49
1.25
 49
-2.5
  0
LTYPE
  2
DOT
 70
    64
  3
-   -   -   -   -   -   -   -   
 72
    65
 73
     2
 40
2.5
 49
0.625
 49
-1.875
  0
LTYPE
  2
DUMMY
 70
    64
  3
ダミー
 72
    65
 73
     0
 40
0.0
  0
LTYPE
  2
RAND1
 70
    64
  3
ランダム線1
 72
    65
 73
     4
 40
10.0
 49
1.0
 49
-2.0
 49
3.0
 49
-4.0
  0
LTYPE
  2
RAND2
 70
    64
  3
ランダム線2
 72
    65
 73
     4
 40
14.0
 49
2.0
 49
-3.0
 49
4.0
 49
-5.0
  0
LTYPE
  2
RAND3
 70
    64
  3
ランダム線3
 72
    65
 73
     4
 40
18.0
 49
3.0
 49
-4.0
 49
5.0
 49
-6.0
  0
LTYPE
  2
RAND4
 70
    64
  3
ランダム線4
 72
    65
 73
     4
 40
22.0
 49
4.0
 49
-5.0
 49
6.0
 49
-7.0
  0
LTYPE
  2
RAND5
 70
    64
  3
ランダム線5
 72
    65
 73
     4
 40
26.0
 49
5.0
 49
-6.0
 49
7.0
 49
-8.0
  0
LTYPE
  2
LONG1
 70
    64
  3
----------  --  ----------  --  
 72
    65
 73
     4
 40
40.0
 49
32.5
 49
-2.5
 49
2.5
 49
-2.5
  0
LTYPE
  2
LONG2
 70
    64
  3
--------  -  -  --------  -  -  
 72
    65
 73
     6
 40
40.0
 49
30.0
 49
-2.5
 49
1.25
 49
-2.5
 49
1.25
 49
-2.5
  0
LTYPE
  2
LONG3
 70
    64
  3
+++++++++++++++..+++++++++++++++
 72
    65
 73
     2
 40
40.0
 49
37.5
 49
-2.5
  0
LTYPE
  2
LONG4
 70
    64
  3
+++++++++++++++..+++++++++++++++
 72
    65
 73
     2
 40
80.0
 49
75.0
 49
-5.0
  0
LTYPE
  2
LONG5
 70
    64
  3
----------  --  ----------  --  
 72
    65
 73
     4
 40
60.0
 49
37.5
 49
-7.5
 49
7.5
 49
-7.5
  0
LTYPE
  2
dashed
 70
   64
  3
-------   -------------   ------
 72
   65
 73
    2
 40
7.5
 49
6
 49
-1.5
  0
LTYPE
  2
dashed_spaced
 70
   64
  3
----        --------        ----
 72
   65
 73
    2
 40
12
 49
6
 49
-6
  0
LTYPE
  2
long_dashed_dotted
 70
   64
  3
------------- --- --------------
 72
   65
 73
    4
 40
15.25
 49
12
 49
-1.5
 49
0.25
 49
-1.5
  0
LTYPE
  2
long_dashed_double-dotted
 70
   64
  3
----------- --- --- ------------
 72
   65
 73
    6
 40
17
 49
12
 49
-1.5
 49
0.25
 49
-1.5
 49
0.25
 49
-1.5
  0
LTYPE
  2
long_dashed_triplicate-dotted
 70
   64
  3
--------- --- --- --- ----------
 72
   65
 73
    8
 40
18.75
 49
12
 49
-1.5
 49
0.25
 49
-1.5
 49
0.25
 49
-1.5
 49
0.25
 49
-1.5
  0
LTYPE
  2
dotted
 70
   64
  3
   -       -       -       -    
 72
   65
 73
    2
 40
1.75
 49
0.25
 49
-1.5
  0
LTYPE
  2
chain
 70
   64
  3
-------------- -- --------------
 72
   65
 73
    4
 40
18.5
 49
12
 49
-1.5
 49
3.5
 49
-1.5
  0
LTYPE
  2
chain_double_dash
 70
   64
  3
------------ -- -- -------------
 72
   65
 73
    6
 40
23.5
 49
12
 49
-1.5
 49
3.5
 49
-1.5
 49
3.5
 49
-1.5
  0
LTYPE
  2
dashed_dotted
 70
   64
  3
-----------     -     ----------
 72
   65
 73
    4
 40
9.25
 49
6
 49
-1.5
 49
0.25
 49
-1.5
  0
LTYPE
  2
double-dashed_dotted
 70
   64
  3
------   -----------   -   -----
 72
   65
 73
    6
 40
16.75
 49
6
 49
-1.5
 49
6
 49
-1.5
 49
0.25
 49
-1.5
  0
LTYPE
  2
dashed_double-dotted
 70
   64
  3
---------    -    -    ---------
 72
   65
 73
    6
 40
11
 49
6
 49
-1.5
 49
0.25
 49
-1.5
 49
0.25
 49
-1.5
  0
LTYPE
  2
double-dashed_double-dotted
 70
   64
  3
-----   ---------   -   -   ----
 72
   65
 73
    8
 40
18.5
 49
6
 49
-1.5
 49
6
 49
-1.5
 49
0.25
 49
-1.5
 49
0.25
 49
-1.5
  0
LTYPE
  2
dashed_triplicate-dotted
 70
   64
  3
-------    -    -    -    ------
 72
   65
 73
    8
 40
12.75
 49
6
 49
-1.5
 49
0.25
 49
-1.5
 49
0.25
 49
-1.5
 49
0.25
 49
-1.5
  0
LTYPE
  2
double-dashed_triplicate-dotted
 70
   64
  3
-----  ---------  -  -  -  -----
 72
   65
 73
   10
 40
20.25
 49
6
 49
-1.5
 49
6
 49
-1.5
 49
0.25
 49
-1.5
 49
0.25
 49
-1.5
 49
0.25
 49
-1.5
  0
LTYPE
  2
undefined
 70
   64
  3
--------------------------------
 72
   65
 73
    0
 40
0
  0
ENDTAB
  0
TABLE
  2
STYLE
  5
3
100
AcDbSymbolTable
 70
     1
  0
STYLE
  5
10
100
AcDbSymbolTableRecord
100
AcDbTextStyleTableRecord
  2
STANDARD
 70
     0
 40
0.0
 41
1.0
 50
0.0
 71
     0
 42
0.2
  3
txt
  4
bigfont.shx
  0
STYLE
  5
26
100
AcDbSymbolTableRecord
100
AcDbTextStyleTableRecord
  2
TATEGAKI
 70
    68
 40
0.0
 41
1.0
 50
0.0
 71
     0
 42
1.0
  3
txt
  4
bigfont.shx
  0
ENDTAB
  0
TABLE
  2
LAYER
 70
    4
  0
LAYER
  2
_0-0_
 70
   64
 62
    7
  6
CONTINUOUS
  0
LAYER
  2
_0-1_
 70
   64
 62
    7
  6
CONTINUOUS
  0
LAYER
  2
_0-f_
 70
   64
 62
    7
  6
CONTINUOUS
  0
LAYER
  2
ADD_LINE
 70
   64
 62
    7
  6
CONTINUOUS
  0
ENDTAB
  0
ENDSEC
  0
SECTION
  2
BLOCKS
  0
ENDSEC
  0
SECTION
  2
ENTITIES
  0
TEXT
  8
_0-f_
 62
    7
 10
0.566868458399881
 20
0.6657944533143336
 40
4.2999999999999998
 41
0.744186046511628
 50
0
  1
F26K
  0
LINE
  8
_0-0_
  6
CONTINUOUS
 62
    7
 10
10.755364687021711
 20
52.168465660156642
 11
10.755364687021711
 21
39.582679222529521
  0
LINE
  8
_0-0_
  6
CONTINUOUS
 62
    7
 10
5.1553646870218017
 20
5.8755724413433086
 11
2.2553646870217108
 21
5.8755724413433086
  0
LINE
  8
_0-0_
  6
CONTINUOUS
 62
    7
 10
0.7553646870217107
 20
7.3755724413433086
 11
0.7553646870217107
 21
41.975572441343218
  0
LINE
  8
_0-0_
  6
CONTINUOUS
 62
    7
 10
1.0553646870216653
 20
42.275572441342945
 11
2.2553646870217108
 21
42.275572441342945
  0
LINE
  8
_0-0_
  6
CONTINUOUS
 62
    7
 10
2.5553646870216653
 20
41.975572441343218
 11
2.5553646870216653
 21
39.941398690136964
  0
LINE
  8
_0-0_
  6
CONTINUOUS
 62
    7
 10
2.5724017738773455
 20
39.81198916758575
 11
2.991963652729055
 21
38.246162918792095
  0
LINE
  8
_0-0_
  6
CONTINUOUS
 62
    7
 10
3.4749265658736022
 20
37.875572441343309
 11
6.4553646870217563
 21
37.875572441343309
  0
LINE
  8
_0-0_
  6
CONTINUOUS
 62
    7
 10
6.9553646870217563
 20
38.375572441343309
 11
6.9553646870217563
 21
53.375572441343309
  0
LINE
  8
_0-0_
  6
CONTINUOUS
 62
    7
 10
6.4553646870217563
 20
53.875572441343309
 11
3.4749265658736022
 21
53.875572441343309
  0
LINE
  8
_0-0_
  6
CONTINUOUS
 62
    7
 10
2.991963652729055
 20
53.504981963894522
 11
2.5724017738773455
 21
51.939155715100867
  0
LINE
  8
_0-0_
  6
CONTINUOUS
 62
    7
 10
2.5553646870216653
 20
51.809746192549653
 11
2.5553646870216653
 21
49.775572441342945
  0
LINE
  8
_0-0_
  6
CONTINUOUS
 62
    7
 10
2.2553646870217108
 20
49.475572441343218
 11
1.0553646870216653
 21
49.475572441343218
  0
LINE
  8
_0-0_
  6
CONTINUOUS
 62
    7
 10
0.7553646870217107
 20
49.775572441342945
 11
0.7553646870217107
 21
64.375572441343309
  0
LINE
  8
_0-0_
  6
CONTINUOUS
 62
    7
 10
2.2553646870217108
 20
65.875572441343309
 11
5.1553646870218017
 21
65.875572441343309
  0
LINE
  8
_0-0_
  6
CONTINUOUS
 62
    7
 10
5.6553646870218017
 20
65.375572441343309
 11
5.6553646870218017
 21
63.593606430092848
  0
LINE
  8
_0-0_
  6
CONTINUOUS
 62
    7
 10
5.6025782825217902
 20
63.369999632343195
 11
5.1935612881468387
 21
62.551965643593292
  0
LINE
  8
_0-0_
  6
CONTINUOUS
 62
    7
 10
4.7463476926468502
 20
62.275572441342945
 11
3.2553646870217108
 21
62.275572441342945
  0
LINE
  8
_0-0_
  6
CONTINUOUS
 62
    7
 10
2.7553646870217108
 20
61.775572441342945
 11
2.7553646870217108
 21
58.182679222529885
  0
LINE
  8
_0-0_
  6
CONTINUOUS
 62
    7
 10
2.9018112964286047
 20
57.829125831936551
 11
4.1089180776150442
 21
56.622019050749884
  0
LINE
  8
_0-0_
  6
CONTINUOUS
 62
    7
 10
4.4624714682083777
 20
56.475572441343218
 11
17.048257905835271
 21
56.475572441343218
  0
LINE
  8
_0-0_
  6
CONTINUOUS
 62
    7
 10
17.401811296428605
 20
56.622019050749884
 11
18.608918077615044
 21
57.829125831936551
  0
LINE
  8
_0-0_
  6
CONTINUOUS
 62
    7
 10
18.755364687021711
 20
58.182679222529885
 11
18.755364687021711
 21
61.775572441342945
  0
LINE
  8
_0-0_
  6
CONTINUOUS
 62
    7
 10
18.255364687021711
 20
62.275572441342945
 11
16.764381681396799
 21
62.275572441342945
  0
LINE
  8
_0-0_
  6
CONTINUOUS
 62
    7
 10
16.31716808589681
 20
62.551965643593292
 11
15.908151091521859
 21
63.369999632343195
  0
LINE
  8
_0-0_
  6
CONTINUOUS
 62
    7
 10
15.855364687021847
 20
63.593606430092848
 11
15.855364687021847
 21
65.375572441343309
  0
LINE
  8
_0-0_
  6
CONTINUOUS
 62
    7
 10
16.355364687021847
 20
65.875572441343309
 11
19.255364687021711
 21
65.875572441343309
  0
LINE
  8
_0-0_
  6
CONTINUOUS
 62
    7
 10
20.755364687021711
 20
64.375572441343309
 11
20.755364687021711
 21
51.475572441343218
  0
LINE
  8
_0-0_
  6
CONTINUOUS
 62
    7
 10
20.255364687021711
 20
50.975572441343218
 11
18.473398675771705
 21
50.975572441343218
  0
LINE
  8
_0-0_
  6
CONTINUOUS
 62
    7
 10
18.249791878021597
 20
51.028358845843002
 11
17.431757889271694
 21
51.437375840218181
  0
LINE
  8
_0-0_
  6
CONTINUOUS
 62
    7
 10
17.155364687021802
 20
51.884589435717942
 11
17.155364687021802
 21
53.375572441343309
  0
LINE
  8
_0-0_
  6
CONTINUOUS
 62
    7
 10
16.655364687021802
 20
53.875572441343309
 11
12.462471468208378
 21
53.875572441343309
  0
LINE
  8
_0-0_
  6
CONTINUOUS
 62
    7
 10
12.108918077615044
 20
53.729125831936642
 11
10.901811296428377
 21
52.522019050749975
  0
LINE
  8
_0-0_
  6
CONTINUOUS
 62
    7
 10
10.901811296428605
 20
39.229125831936642
 11
12.108918077615044
 21
38.022019050749975
  0
LINE
  8
_0-0_
  6
CONTINUOUS
 62
    7
 10
12.462471468208378
 20
37.875572441343309
 11
16.655364687021802
 21
37.875572441343309
  0
LINE
  8
_0-0_
  6
CONTINUOUS
 62
    7
 10
17.155364687021802
 20
38.375572441343309
 11
17.155364687021802
 21
39.866555446968221
  0
LINE
  8
_0-0_
  6
CONTINUOUS
 62
    7
 10
17.431757889271694
 20
40.313769042467982
 11
18.249791878021597
 21
40.722786036843161
  0
LINE
  8
_0-0_
  6
CONTINUOUS
 62
    7
 10
18.473398675771705
 20
40.775572441342945
 11
20.255364687021711
 21
40.775572441342945
  0
LINE
  8
_0-0_
  6
CONTINUOUS
 62
    7
 10
20.755364687021711
 20
40.275572441342945
 11
20.755364687021711
 21
7.3755724413433086
  0
LINE
  8
_0-0_
  6
CONTINUOUS
 62
    7
 10
19.255364687021711
 20
5.8755724413433086
 11
16.355364687021847
 21
5.8755724413433086
  0
LINE
  8
_0-0_
  6
CONTINUOUS
 62
    7
 10
15.855364687021847
 20
6.3755724413433086
 11
15.855364687021847
 21
8.1575384525933146
  0
LINE
  8
_0-0_
  6
CONTINUOUS
 62
    7
 10
15.908151091521859
 20
8.3811452503434225
 11
16.31716808589681
 21
9.1991792390933256
  0
LINE
  8
_0-0_
  6
CONTINUOUS
 62
    7
 10
16.764381681396799
 20
9.4755724413432176
 11
18.255364687021711
 21
9.4755724413432176
  0
LINE
  8
_0-0_
  6
CONTINUOUS
 62
    7
 10
18.755364687021711
 20
9.9755724413432176
 11
18.755364687021711
 21
13.568465660156733
  0
LINE
  8
_0-0_
  6
CONTINUOUS
 62
    7
 10
18.608918077615044
 20
13.922019050750066
 11
17.401811296428605
 21
15.129125831936733
  0
LINE
  8
_0-0_
  6
CONTINUOUS
 62
    7
 10
17.048257905835271
 20
15.2755724413434
 11
4.4624714682083777
 21
15.2755724413434
  0
LINE
  8
_0-0_
  6
CONTINUOUS
 62
    7
 10
4.1089180776150442
 20
15.129125831936733
 11
2.9018112964286047
 21
13.922019050750066
  0
LINE
  8
_0-0_
  6
CONTINUOUS
 62
    7
 10
2.7553646870217108
 20
13.568465660156733
 11
2.7553646870217108
 21
9.9755724413432176
  0
LINE
  8
_0-0_
  6
CONTINUOUS
 62
    7
 10
3.2553646870217108
 20
9.4755724413432176
 11
4.7463476926468502
 21
9.4755724413432176
  0
LINE
  8
_0-0_
  6
CONTINUOUS
 62
    7
 10
5.1935612881468387
 20
9.1991792390933256
 11
5.6025782825217902
 21
8.3811452503434225
  0
LINE
  8
_0-0_
  6
CONTINUOUS
 62
    7
 10
5.6553646870218017
 20
8.1575384525933146
 11
5.6553646870218017
 21
6.3755724413433086
  0
LINE
  8
_0-0_
  6
CONTINUOUS
 62
    7
 10
3.7553646870217108
 20
17.975572441343218
 11
17.755364687021711
 21
17.975572441343218
  0
LINE
  8
_0-0_
  6
CONTINUOUS
 62
    7
 10
18.255364687021711
 20
18.475572441343218
 11
18.255364687021711
 21
20.580881693087747
  0
LINE
  8
_0-0_
  6
CONTINUOUS
 62
    7
 10
17.884774209572925
 20
21.063844606232294
 11
15.225955164470406
 21
21.77627302218815
  0
LINE
  8
_0-0_
  6
CONTINUOUS
 62
    7
 10
14.855364687021847
 20
22.259235935332697
 11
14.855364687021847
 21
29.491908947353465
  0
LINE
  8
_0-0_
  6
CONTINUOUS
 62
    7
 10
15.225955164470406
 20
29.974871860498013
 11
17.884774209572925
 21
30.687300276453868
  0
LINE
  8
_0-0_
  6
CONTINUOUS
 62
    7
 10
18.255364687021711
 20
31.170263189598415
 11
18.255364687021711
 21
34.775572441342945
  0
LINE
  8
_0-0_
  6
CONTINUOUS
 62
    7
 10
17.755364687021711
 20
35.275572441342945
 11
3.7553646870217108
 21
35.275572441342945
  0
LINE
  8
_0-0_
  6
CONTINUOUS
 62
    7
 10
3.2553646870217108
 20
34.775572441342945
 11
3.2553646870217108
 21
31.170263189598415
  0
LINE
  8
_0-0_
  6
CONTINUOUS
 62
    7
 10
3.625955164470497
 20
30.687300276453868
 11
6.2847742095730155
 21
29.974871860498013
  0
LINE
  8
_0-0_
  6
CONTINUOUS
 62
    7
 10
6.6553646870218017
 20
29.491908947353465
 11
6.6553646870218017
 21
22.259235935332697
  0
LINE
  8
_0-0_
  6
CONTINUOUS
 62
    7
 10
6.2847742095730155
 20
21.77627302218815
 11
3.625955164470497
 21
21.063844606232294
  0
LINE
  8
_0-0_
  6
CONTINUOUS
 62
    7
 10
3.2553646870217108
 20
20.580881693087747
 11
3.2553646870217108
 21
18.475572441343218
  0
ARC
  8
_0-0_
  6
CONTINUOUS
 62
    7
 10
3.7553646870217108
 20
34.775572441342945
 40
0.5
 50
90
 51
180
  0
ARC
  8
_0-0_
  6
CONTINUOUS
 62
    7
 10
3.7553646870217108
 20
31.170263189598415
 40
0.5
 50
180
 51
255.00000000000006
  0
ARC
  8
_0-0_
  6
CONTINUOUS
 62
    7
 10
6.1553646870218017
 20
29.491908947353465
 40
0.5
 50
0
 51
74.999999999999915
  0
ARC
  8
_0-0_
  6
CONTINUOUS
 62
    7
 10
6.1553646870218017
 20
22.259235935332697
 40
0.5
 50
285
 51
0.0000000000000381
  0
ARC
  8
_0-0_
  6
CONTINUOUS
 62
    7
 10
3.7553646870217108
 20
20.580881693087747
 40
0.5
 50
105.00000000000009
 51
180.00000000000003
  0
ARC
  8
_0-0_
  6
CONTINUOUS
 62
    7
 10
3.7553646870217108
 20
18.475572441343218
 40
0.5
 50
180
 51
270
  0
ARC
  8
_0-0_
  6
CONTINUOUS
 62
    7
 10
17.755364687021711
 20
34.775572441342945
 40
0.5
 50
0
 51
90
  0
ARC
  8
_0-0_
  6
CONTINUOUS
 62
    7
 10
17.755364687021711
 20
31.170263189598415
 40
0.5
 50
284.99999999999994
 51
0
  0
ARC
  8
_0-0_
  6
CONTINUOUS
 62
    7
 10
15.355364687021847
 20
29.491908947353465
 40
0.5
 50
105.00000000000009
 51
180.00000000000003
  0
ARC
  8
_0-0_
  6
CONTINUOUS
 62
    7
 10
15.355364687021847
 20
22.259235935332697
 40
0.5
 50
179.99999999999994
 51
255.00000000000003
  0
ARC
  8
_0-0_
  6
CONTINUOUS
 62
    7
 10
17.755364687021711
 20
20.580881693087747
 40
0.5
 50
0
 51
74.999999999999915
  0
ARC
  8
_0-0_
  6
CONTINUOUS
 62
    7
 10
17.755364687021711
 20
18.475572441343218
 40
0.5
 50
270
 51
0
  0
ARC
  8
_0-0_
  6
CONTINUOUS
 62
    7
 10
16.355364687021847
 20
65.375572441343309
 40
0.5
 50
90
 51
180
  0
ARC
  8
_0-0_
  6
CONTINUOUS
 62
    7
 10
2.2553646870217108
 20
64.375572441343309
 40
1.5
 50
90
 51
180
  0
ARC
  8
_0-0_
  6
CONTINUOUS
 62
    7
 10
19.255364687021711
 20
64.375572441343309
 40
1.5
 50
0
 51
90
  0
ARC
  8
_0-0_
  6
CONTINUOUS
 62
    7
 10
5.1553646870218017
 20
65.375572441343309
 40
0.5
 50
0
 51
90
  0
ARC
  8
_0-0_
  6
CONTINUOUS
 62
    7
 10
5.1553646870218017
 20
63.593606430092848
 40
0.5
 50
333.43494882292214
 51
359.99999999999994
  0
ARC
  8
_0-0_
  6
CONTINUOUS
 62
    7
 10
4.7463476926468502
 20
62.775572441342945
 40
0.5
 50
270
 51
333.43494882292225
  0
ARC
  8
_0-0_
  6
CONTINUOUS
 62
    7
 10
3.2553646870217108
 20
61.775572441342945
 40
0.5
 50
90
 51
180
  0
ARC
  8
_0-0_
  6
CONTINUOUS
 62
    7
 10
3.2553646870217108
 20
58.182679222529885
 40
0.5
 50
180
 51
225
  0
ARC
  8
_0-0_
  6
CONTINUOUS
 62
    7
 10
4.4624714682083777
 20
56.975572441343218
 40
0.5
 50
224.99999999999994
 51
270
  0
ARC
  8
_0-0_
  6
CONTINUOUS
 62
    7
 10
17.048257905835271
 20
56.975572441343218
 40
0.5
 50
270
 51
315
  0
ARC
  8
_0-0_
  6
CONTINUOUS
 62
    7
 10
18.255364687021711
 20
58.182679222529885
 40
0.5
 50
315.00000000000006
 51
0
  0
ARC
  8
_0-0_
  6
CONTINUOUS
 62
    7
 10
18.255364687021711
 20
61.775572441342945
 40
0.5
 50
0
 51
90
  0
ARC
  8
_0-0_
  6
CONTINUOUS
 62
    7
 10
16.764381681396799
 20
62.775572441342945
 40
0.5
 50
206.56505117707792
 51
270.00000000000011
  0
ARC
  8
_0-0_
  6
CONTINUOUS
 62
    7
 10
16.355364687021847
 20
63.593606430092848
 40
0.5
 50
180
 51
206.56505117707786
  0
ARC
  8
_0-0_
  6
CONTINUOUS
 62
    7
 10
3.0553646870216653
 20
51.809746192549653
 40
0.5
 50
165.00000000000003
 51
180.00000000000006
  0
ARC
  8
_0-0_
  6
CONTINUOUS
 62
    7
 10
3.4749265658736022
 20
53.375572441343309
 40
0.5
 50
90
 51
165.00000000000003
  0
ARC
  8
_0-0_
  6
CONTINUOUS
 62
    7
 10
6.4553646870217563
 20
53.375572441343309
 40
0.5
 50
0
 51
90
  0
ARC
  8
_0-0_
  6
CONTINUOUS
 62
    7
 10
20.255364687021711
 20
51.475572441343218
 40
0.5
 50
270
 51
0
  0
ARC
  8
_0-0_
  6
CONTINUOUS
 62
    7
 10
2.2553646870217108
 20
49.775572441342945
 40
0.2999999999999998
 50
270
 51
0
  0
ARC
  8
_0-0_
  6
CONTINUOUS
 62
    7
 10
1.0553646870216653
 20
49.775572441342945
 40
0.2999999999999998
 50
180
 51
270
  0
ARC
  8
_0-0_
  6
CONTINUOUS
 62
    7
 10
1.0553646870216653
 20
41.975572441343218
 40
0.2999999999999998
 50
90
 51
180
  0
ARC
  8
_0-0_
  6
CONTINUOUS
 62
    7
 10
2.2553646870217108
 20
41.975572441343218
 40
0.2999999999999998
 50
0
 51
90
  0
ARC
  8
_0-0_
  6
CONTINUOUS
 62
    7
 10
20.255364687021711
 20
40.275572441342945
 40
0.5
 50
0
 51
90
  0
ARC
  8
_0-0_
  6
CONTINUOUS
 62
    7
 10
6.4553646870217563
 20
38.375572441343309
 40
0.5
 50
270
 51
0
  0
ARC
  8
_0-0_
  6
CONTINUOUS
 62
    7
 10
3.4749265658736022
 20
38.375572441343309
 40
0.5
 50
194.99999999999997
 51
270
  0
ARC
  8
_0-0_
  6
CONTINUOUS
 62
    7
 10
3.0553646870216653
 20
39.941398690136964
 40
0.5
 50
180
 51
195
  0
ARC
  8
_0-0_
  6
CONTINUOUS
 62
    7
 10
12.462471468208378
 20
53.375572441343309
 40
0.5
 50
90
 51
134.99999999999994
  0
ARC
  8
_0-0_
  6
CONTINUOUS
 62
    7
 10
11.255364687021711
 20
52.168465660156642
 40
0.5
 50
135
 51
180
  0
ARC
  8
_0-0_
  6
CONTINUOUS
 62
    7
 10
11.255364687021711
 20
39.582679222529521
 40
0.5
 50
180
 51
225.00000000000006
  0
ARC
  8
_0-0_
  6
CONTINUOUS
 62
    7
 10
12.462471468208378
 20
38.375572441343309
 40
0.5
 50
225
 51
270
  0
ARC
  8
_0-0_
  6
CONTINUOUS
 62
    7
 10
17.655364687021802
 20
51.884589435717942
 40
0.5
 50
180
 51
243.43494882292191
  0
ARC
  8
_0-0_
  6
CONTINUOUS
 62
    7
 10
18.473398675771705
 20
51.475572441343218
 40
0.5
 50
243.43494882292146
 51
270
  0
ARC
  8
_0-0_
  6
CONTINUOUS
 62
    7
 10
18.473398675771705
 20
40.275572441342945
 40
0.5
 50
90
 51
116.56505117707815
  0
ARC
  8
_0-0_
  6
CONTINUOUS
 62
    7
 10
17.655364687021802
 20
39.866555446968221
 40
0.5
 50
116.56505117707783
 51
180
  0
ARC
  8
_0-0_
  6
CONTINUOUS
 62
    7
 10
16.655364687021802
 20
53.375572441343309
 40
0.5
 50
0
 51
90
  0
ARC
  8
_0-0_
  6
CONTINUOUS
 62
    7
 10
16.655364687021802
 20
38.375572441343309
 40
0.5
 50
270
 51
0
  0
ARC
  8
_0-0_
  6
CONTINUOUS
 62
    7
 10
2.2553646870217108
 20
7.3755724413433086
 40
1.5
 50
180
 51
270
  0
ARC
  8
_0-0_
  6
CONTINUOUS
 62
    7
 10
19.255364687021711
 20
7.3755724413433086
 40
1.5
 50
270
 51
0
  0
ARC
  8
_0-0_
  6
CONTINUOUS
 62
    7
 10
5.1553646870218017
 20
6.3755724413433086
 40
0.5
 50
270
 51
0
  0
ARC
  8
_0-0_
  6
CONTINUOUS
 62
    7
 10
5.1553646870218017
 20
8.1575384525933146
 40
0.5
 50
0
 51
26.565051177077834
  0
ARC
  8
_0-0_
  6
CONTINUOUS
 62
    7
 10
4.7463476926468502
 20
8.9755724413432176
 40
0.5
 50
26.565051177077763
 51
90
  0
ARC
  8
_0-0_
  6
CONTINUOUS
 62
    7
 10
3.2553646870217108
 20
9.9755724413432176
 40
0.5
 50
180
 51
270
  0
ARC
  8
_0-0_
  6
CONTINUOUS
 62
    7
 10
3.2553646870217108
 20
13.568465660156733
 40
0.5
 50
135
 51
180
  0
ARC
  8
_0-0_
  6
CONTINUOUS
 62
    7
 10
4.4624714682083777
 20
14.7755724413434
 40
0.5
 50
89.999999999999972
 51
135.00000000000006
  0
ARC
  8
_0-0_
  6
CONTINUOUS
 62
    7
 10
17.048257905835271
 20
14.7755724413434
 40
0.5
 50
45
 51
90
  0
ARC
  8
_0-0_
  6
CONTINUOUS
 62
    7
 10
18.255364687021711
 20
13.568465660156733
 40
0.5
 50
0
 51
44.999999999999943
  0
ARC
  8
_0-0_
  6
CONTINUOUS
 62
    7
 10
18.255364687021711
 20
9.9755724413432176
 40
0.5
 50
270
 51
0
  0
ARC
  8
_0-0_
  6
CONTINUOUS
 62
    7
 10
16.764381681396799
 20
8.9755724413432176
 40
0.5
 50
89.999999999999972
 51
153.43494882292217
  0
ARC
  8
_0-0_
  6
CONTINUOUS
 62
    7
 10
16.355364687021847
 20
8.1575384525933146
 40
0.5
 50
153.43494882292217
 51
180
  0
ARC
  8
_0-0_
  6
CONTINUOUS
 62
    7
 10
16.355364687021847
 20
6.3755724413433086
 40
0.5
 50
180
 51
270
  0
LINE
  8
_0-1_
  6
CENTER2
 62
  152
 10
0.7553646870217107
 20
25.875572441343309
 11
20.755364687021711
 21
25.875572441343309
  0
LINE
  8
_0-1_
  6
CENTER2
 62
  152
 10
10.755364687021711
 20
39.582682441343138
 11
10.755364687021711
 21
5.8755724413433086
  0
LINE
  8
_0-1_
  6
CENTER2
 62
  152
 10
20.755364687021711
 20
45.875572441343309
 11
0.7553646870217107
 21
45.875572441343309
  0
LINE
  8
_0-1_
  6
CENTER2
 62
  152
 10
10.755364687021711
 20
65.875572441343309
 11
10.755364687021711
 21
52.168462441343479
  0
ENDSEC
  0
EOF
