  0
SECTION
  2
HEADER
  9
$ACADVER
  1
AC1009
  9
$INSBASE
 10
0
 20
0
 30
0
  9
$EXTMIN
 10
0
 20
0
  9
$EXTMAX
 10
1189
 20
841
  9
$LIMMIN
 10
0
 20
0
  9
$LIMMAX
 10
1189
 20
841
  9
$LTSCALE
 40
1
  0
ENDSEC
  0
SECTION
  2
TABLES
  0
TABLE
  2
LTYPE
 70
     9
  0
LTYPE
  2
CONTINUOUS
 70
    64
  3
実線
 72
    65
 73
     0
 40
0.0
  0
LTYPE
  2
DASHED1
 70
    64
  3
--  --  --  --  --  --  --  --  
 72
    65
 73
     2
 40
2.5
 49
1.25
 49
-1.25
  0
LTYPE
  2
DASHED2
 70
    64
  3
----    ----    ----    ----    
 72
    65
 73
     2
 40
5.0
 49
2.5
 49
-2.5
  0
LTYPE
  2
DASHED3
 70
    64
  3
------  ------  ------  ------  
 72
    65
 73
     2
 40
5.0
 49
3.75
 49
-1.25
  0
LTYPE
  2
CENTER1
 70
    64
  3
----- - ----- - ----- - ----- - 
 72
    65
 73
     4
 40
10.0
 49
6.25
 49
-1.25
 49
1.25
 49
-1.25
  0
LTYPE
  2
CENTER2
 70
    64
  3
----------  --  ----------  --  
 72
    65
 73
     4
 40
20.0
 49
12.5
 49
-2.5
 49
2.5
 49
-2.5
  0
LTYPE
  2
PHANTOM1
 70
    64
  3
--- - - --- - - --- - - --- - - 
 72
    65
 73
     6
 40
10.0
 49
3.25
 49
-1.25
 49
1.25
 49
-1.25
 49
1.25
 49
-1.25
  0
LTYPE
  2
PHANTOM2
 70
    64
  3
--------  -  -  --------  -  -  
 72
    65
 73
     6
 40
20.0
 49
10.0
 49
-2.5
 49
1.25
 49
-2.5
 49
1.25
 49
-2.5
  0
LTYPE
  2
DOT
 70
    64
  3
-   -   -   -   -   -   -   -   
 72
    65
 73
     2
 40
2.5
 49
0.625
 49
-1.875
  0
LTYPE
  2
DUMMY
 70
    64
  3
ダミー
 72
    65
 73
     0
 40
0.0
  0
LTYPE
  2
RAND1
 70
    64
  3
ランダム線1
 72
    65
 73
     4
 40
10.0
 49
1.0
 49
-2.0
 49
3.0
 49
-4.0
  0
LTYPE
  2
RAND2
 70
    64
  3
ランダム線2
 72
    65
 73
     4
 40
14.0
 49
2.0
 49
-3.0
 49
4.0
 49
-5.0
  0
LTYPE
  2
RAND3
 70
    64
  3
ランダム線3
 72
    65
 73
     4
 40
18.0
 49
3.0
 49
-4.0
 49
5.0
 49
-6.0
  0
LTYPE
  2
RAND4
 70
    64
  3
ランダム線4
 72
    65
 73
     4
 40
22.0
 49
4.0
 49
-5.0
 49
6.0
 49
-7.0
  0
LTYPE
  2
RAND5
 70
    64
  3
ランダム線5
 72
    65
 73
     4
 40
26.0
 49
5.0
 49
-6.0
 49
7.0
 49
-8.0
  0
LTYPE
  2
LONG1
 70
    64
  3
----------  --  ----------  --  
 72
    65
 73
     4
 40
40.0
 49
32.5
 49
-2.5
 49
2.5
 49
-2.5
  0
LTYPE
  2
LONG2
 70
    64
  3
--------  -  -  --------  -  -  
 72
    65
 73
     6
 40
40.0
 49
30.0
 49
-2.5
 49
1.25
 49
-2.5
 49
1.25
 49
-2.5
  0
LTYPE
  2
LONG3
 70
    64
  3
+++++++++++++++..+++++++++++++++
 72
    65
 73
     2
 40
40.0
 49
37.5
 49
-2.5
  0
LTYPE
  2
LONG4
 70
    64
  3
+++++++++++++++..+++++++++++++++
 72
    65
 73
     2
 40
80.0
 49
75.0
 49
-5.0
  0
LTYPE
  2
LONG5
 70
    64
  3
----------  --  ----------  --  
 72
    65
 73
     4
 40
60.0
 49
37.5
 49
-7.5
 49
7.5
 49
-7.5
  0
LTYPE
  2
dashed
 70
   64
  3
-------   -------------   ------
 72
   65
 73
    2
 40
7.5
 49
6
 49
-1.5
  0
LTYPE
  2
dashed_spaced
 70
   64
  3
----        --------        ----
 72
   65
 73
    2
 40
12
 49
6
 49
-6
  0
LTYPE
  2
long_dashed_dotted
 70
   64
  3
------------- --- --------------
 72
   65
 73
    4
 40
15.25
 49
12
 49
-1.5
 49
0.25
 49
-1.5
  0
LTYPE
  2
long_dashed_double-dotted
 70
   64
  3
----------- --- --- ------------
 72
   65
 73
    6
 40
17
 49
12
 49
-1.5
 49
0.25
 49
-1.5
 49
0.25
 49
-1.5
  0
LTYPE
  2
long_dashed_triplicate-dotted
 70
   64
  3
--------- --- --- --- ----------
 72
   65
 73
    8
 40
18.75
 49
12
 49
-1.5
 49
0.25
 49
-1.5
 49
0.25
 49
-1.5
 49
0.25
 49
-1.5
  0
LTYPE
  2
dotted
 70
   64
  3
   -       -       -       -    
 72
   65
 73
    2
 40
1.75
 49
0.25
 49
-1.5
  0
LTYPE
  2
chain
 70
   64
  3
-------------- -- --------------
 72
   65
 73
    4
 40
18.5
 49
12
 49
-1.5
 49
3.5
 49
-1.5
  0
LTYPE
  2
chain_double_dash
 70
   64
  3
------------ -- -- -------------
 72
   65
 73
    6
 40
23.5
 49
12
 49
-1.5
 49
3.5
 49
-1.5
 49
3.5
 49
-1.5
  0
LTYPE
  2
dashed_dotted
 70
   64
  3
-----------     -     ----------
 72
   65
 73
    4
 40
9.25
 49
6
 49
-1.5
 49
0.25
 49
-1.5
  0
LTYPE
  2
double-dashed_dotted
 70
   64
  3
------   -----------   -   -----
 72
   65
 73
    6
 40
16.75
 49
6
 49
-1.5
 49
6
 49
-1.5
 49
0.25
 49
-1.5
  0
LTYPE
  2
dashed_double-dotted
 70
   64
  3
---------    -    -    ---------
 72
   65
 73
    6
 40
11
 49
6
 49
-1.5
 49
0.25
 49
-1.5
 49
0.25
 49
-1.5
  0
LTYPE
  2
double-dashed_double-dotted
 70
   64
  3
-----   ---------   -   -   ----
 72
   65
 73
    8
 40
18.5
 49
6
 49
-1.5
 49
6
 49
-1.5
 49
0.25
 49
-1.5
 49
0.25
 49
-1.5
  0
LTYPE
  2
dashed_triplicate-dotted
 70
   64
  3
-------    -    -    -    ------
 72
   65
 73
    8
 40
12.75
 49
6
 49
-1.5
 49
0.25
 49
-1.5
 49
0.25
 49
-1.5
 49
0.25
 49
-1.5
  0
LTYPE
  2
double-dashed_triplicate-dotted
 70
   64
  3
-----  ---------  -  -  -  -----
 72
   65
 73
   10
 40
20.25
 49
6
 49
-1.5
 49
6
 49
-1.5
 49
0.25
 49
-1.5
 49
0.25
 49
-1.5
 49
0.25
 49
-1.5
  0
LTYPE
  2
undefined
 70
   64
  3
--------------------------------
 72
   65
 73
    0
 40
0
  0
ENDTAB
  0
TABLE
  2
STYLE
  5
3
100
AcDbSymbolTable
 70
     1
  0
STYLE
  5
10
100
AcDbSymbolTableRecord
100
AcDbTextStyleTableRecord
  2
STANDARD
 70
     0
 40
0.0
 41
1.0
 50
0.0
 71
     0
 42
0.2
  3
txt
  4
bigfont.shx
  0
STYLE
  5
26
100
AcDbSymbolTableRecord
100
AcDbTextStyleTableRecord
  2
TATEGAKI
 70
    68
 40
0.0
 41
1.0
 50
0.0
 71
     0
 42
1.0
  3
txt
  4
bigfont.shx
  0
ENDTAB
  0
TABLE
  2
LAYER
 70
    4
  0
LAYER
  2
_0-0_
 70
   64
 62
    7
  6
CONTINUOUS
  0
LAYER
  2
_0-1_
 70
   64
 62
    7
  6
CONTINUOUS
  0
LAYER
  2
_0-f_
 70
   64
 62
    7
  6
CONTINUOUS
  0
LAYER
  2
ADD_LINE
 70
   64
 62
    7
  6
CONTINUOUS
  0
ENDTAB
  0
ENDSEC
  0
SECTION
  2
BLOCKS
  0
ENDSEC
  0
SECTION
  2
ENTITIES
  0
TEXT
  8
_0-f_
 62
    7
 10
1.6764365649576121
 20
1.6449974622039463
 40
4.2999999999999998
 41
0.744186046511628
 50
0
  1
F25P
  0
LINE
  8
_0-0_
  6
CONTINUOUS
 62
    7
 10
26.18917246720639
 20
22.14585486200275
 11
26.18917246720639
 21
8.5600684243758565
  0
LINE
  8
_0-0_
  6
CONTINUOUS
 62
    7
 10
25.18917246720639
 20
7.5600684243758565
 11
17.589172467206481
 21
7.5600684243758565
  0
LINE
  8
_0-0_
  6
CONTINUOUS
 62
    7
 10
17.289172467206527
 20
7.860068424375811
 11
17.289172467206527
 21
9.0600684243758565
  0
LINE
  8
_0-0_
  6
CONTINUOUS
 62
    7
 10
17.589172467206481
 20
9.360068424375811
 11
21.72347162162373
 21
9.360068424375811
  0
LINE
  8
_0-0_
  6
CONTINUOUS
 62
    7
 10
22.065183765664187
 20
10.225079123691955
 11
18.37568833719024
 21
13.679074843965452
  0
LINE
  8
_0-0_
  6
CONTINUOUS
 62
    7
 10
18.17066105076583
 20
13.760068424375902
 11
9.2076838836469506
 21
13.760068424375902
  0
LINE
  8
_0-0_
  6
CONTINUOUS
 62
    7
 10
9.0026565972227672
 20
13.679074843965452
 11
5.3131611687485929
 21
10.225079123691955
  0
LINE
  8
_0-0_
  6
CONTINUOUS
 62
    7
 10
5.6548733127892774
 20
9.360068424375811
 11
9.7891724672065266
 21
9.360068424375811
  0
LINE
  8
_0-0_
  6
CONTINUOUS
 62
    7
 10
10.089172467206481
 20
9.0600684243758565
 11
10.089172467206481
 21
7.860068424375811
  0
LINE
  8
_0-0_
  6
CONTINUOUS
 62
    7
 10
9.7891724672065266
 20
7.5600684243758565
 11
2.1891724672063901
 21
7.5600684243758565
  0
LINE
  8
_0-0_
  6
CONTINUOUS
 62
    7
 10
1.1891724672063901
 20
8.5600684243758565
 11
1.1891724672063901
 21
16.160068424375766
  0
LINE
  8
_0-0_
  6
CONTINUOUS
 62
    7
 10
1.489172467206572
 20
16.460068424375947
 11
2.6891724672063901
 21
16.460068424375947
  0
LINE
  8
_0-0_
  6
CONTINUOUS
 62
    7
 10
2.989172467206572
 20
16.160068424375766
 11
2.989172467206572
 21
12.025769269958744
  0
LINE
  8
_0-0_
  6
CONTINUOUS
 62
    7
 10
3.854183166522489
 20
11.684057125918059
 11
7.3081788867962132
 21
15.373552554392006
  0
LINE
  8
_0-0_
  6
CONTINUOUS
 62
    7
 10
7.3891724672064356
 20
15.578579840816417
 11
7.3891724672064356
 21
25.035804355664084
  0
LINE
  8
_0-0_
  6
CONTINUOUS
 62
    7
 10
7.3013045015622993
 20
25.247936390019902
 11
6.2770404328505265
 21
26.272200458731902
  0
LINE
  8
_0-0_
  6
CONTINUOUS
 62
    7
 10
6.0649083984944809
 20
26.360068424375811
 11
3.2891724672062992
 21
26.360068424375811
  0
LINE
  8
_0-0_
  6
CONTINUOUS
 62
    7
 10
2.989172467206572
 20
26.060068424375856
 11
2.989172467206572
 21
23.960068424375947
  0
LINE
  8
_0-0_
  6
CONTINUOUS
 62
    7
 10
2.6891724672063901
 20
23.660068424375993
 11
1.489172467206572
 21
23.660068424375993
  0
LINE
  8
_0-0_
  6
CONTINUOUS
 62
    7
 10
1.1891724672063901
 20
23.960068424375947
 11
1.1891724672063901
 21
32.501193921330184
  0
LINE
  8
_0-0_
  6
CONTINUOUS
 62
    7
 10
1.4820656860199506
 20
33.208300702516851
 11
7.8043961563562334
 21
39.530631172853134
  0
LINE
  8
_0-0_
  6
CONTINUOUS
 62
    7
 10
9.2186097187293399
 20
39.530631172853134
 11
14.592621255746963
 21
34.156619635835284
  0
LINE
  8
_0-0_
  6
CONTINUOUS
 62
    7
 10
14.592621255746963
 20
33.73235556712342
 11
13.744093118323235
 21
32.883827429699693
  0
LINE
  8
_0-0_
  6
CONTINUOUS
 62
    7
 10
13.319829049611371
 20
32.883827429699465
 11
11.834904809119507
 21
34.36875167019133
  0
LINE
  8
_0-0_
  6
CONTINUOUS
 62
    7
 10
11.410640740407871
 20
34.36875167019133
 11
9.4478990406105368
 21
32.406009970394223
  0
LINE
  8
_0-0_
  6
CONTINUOUS
 62
    7
 10
9.3600310749666278
 20
32.193877936038405
 11
9.3600310749666278
 21
30.745349798614541
  0
LINE
  8
_0-0_
  6
CONTINUOUS
 62
    7
 10
9.4478990406105368
 20
30.533217764258495
 11
16.135166626263072
 21
23.845950178606188
  0
LINE
  8
_0-0_
  6
CONTINUOUS
 62
    7
 10
16.337413920762629
 20
23.758245103987917
 11
21.388624953388444
 21
23.591721663351962
  0
LINE
  8
_0-0_
  6
CONTINUOUS
 62
    7
 10
21.758652910408728
 20
24.445003568902109
 11
18.835261942866509
 21
27.368394536444328
  0
LINE
  8
_0-0_
  6
CONTINUOUS
 62
    7
 10
18.835261942866509
 20
27.792658605156419
 11
19.683790080290237
 21
28.641186742580146
  0
LINE
  8
_0-0_
  6
CONTINUOUS
 62
    7
 10
20.108054149002328
 20
28.641186742580146
 11
25.896279248393057
 21
22.852961643189417
  0
LINE
  8
_0-0_
  6
CONTINUOUS
 62
    7
 10
24.489172467206572
 20
21.960068424375947
 11
20.289172467206527
 21
21.960068424375947
  0
LINE
  8
_0-0_
  6
CONTINUOUS
 62
    7
 10
19.989172467206572
 20
21.660068424375993
 11
19.989172467206572
 21
14.216426860528316
  0
LINE
  8
_0-0_
  6
CONTINUOUS
 62
    7
 10
20.084145180782343
 20
13.997420440938583
 11
23.947460323165842
 21
10.380699882111401
  0
LINE
  8
_0-0_
  6
CONTINUOUS
 62
    7
 10
24.789172467206527
 20
10.745710581427545
 11
24.789172467206527
 21
21.660068424375993
  0
LINE
  8
_0-0_
  6
CONTINUOUS
 62
    7
 10
18.589172467206481
 20
21.660068424375993
 11
18.589172467206481
 21
15.460068424375947
  0
LINE
  8
_0-0_
  6
CONTINUOUS
 62
    7
 10
18.289172467206527
 20
15.160068424375993
 11
9.0891724672064811
 21
15.160068424375993
  0
LINE
  8
_0-0_
  6
CONTINUOUS
 62
    7
 10
8.7891724672062992
 20
15.460068424375947
 11
8.7891724672062992
 21
21.660068424375993
  0
LINE
  8
_0-0_
  6
CONTINUOUS
 62
    7
 10
9.0891724672064811
 20
21.960068424375947
 11
18.289172467206527
 21
21.960068424375947
  0
LINE
  8
_0-0_
  6
CONTINUOUS
 62
    7
 10
13.434042611984296
 20
23.360068424376038
 11
9.0891724672064811
 21
23.360068424376038
  0
LINE
  8
_0-0_
  6
CONTINUOUS
 62
    7
 10
8.7891724672062992
 20
23.660068424375993
 11
8.7891724672062992
 21
25.615703342986478
  0
LINE
  8
_0-0_
  6
CONTINUOUS
 62
    7
 10
8.7013045015623902
 20
25.827835377342296
 11
7.9624077473538364
 21
26.566732131550907
  0
LINE
  8
_0-0_
  6
CONTINUOUS
 62
    7
 10
7.908603109440719
 20
26.917708273964934
 11
8.808508563947953
 21
28.641352620675946
  0
LINE
  8
_0-0_
  6
CONTINUOUS
 62
    7
 10
9.2865772705729341
 20
28.71464054697384
 11
13.787596002577629
 21
24.213621814969144
  0
LINE
  8
_0-0_
  6
CONTINUOUS
 62
    7
 10
6.8532100800298394
 20
27.921224316317819
 11
7.9259677472357453
 21
29.9759431528459
  0
LINE
  8
_0-0_
  6
CONTINUOUS
 62
    7
 10
7.9600310749665368
 20
30.114787260903995
 11
7.9600310749665368
 21
32.773776923360572
  0
LINE
  8
_0-0_
  6
CONTINUOUS
 62
    7
 10
8.0478990406109006
 20
32.985908957716617
 11
10.703533959221204
 21
35.641543876326921
  0
LINE
  8
_0-0_
  6
CONTINUOUS
 62
    7
 10
10.703533959221204
 20
36.065807945039012
 11
8.7236349718987185
 21
38.04570693236127
  0
LINE
  8
_0-0_
  6
CONTINUOUS
 62
    7
 10
8.2993709031868548
 20
38.04570693236127
 11
2.6770404328503901
 21
32.423376462025033
  0
LINE
  8
_0-0_
  6
CONTINUOUS
 62
    7
 10
2.5891724672064811
 20
32.211244427668987
 11
2.5891724672064811
 21
28.060068424375856
  0
LINE
  8
_0-0_
  6
CONTINUOUS
 62
    7
 10
2.889172467206663
 20
27.760068424375902
 11
6.5872734077606765
 21
27.760068424375902
  0
ARC
  8
_0-0_
  6
CONTINUOUS
 62
    7
 10
24.289172467206527
 20
10.745710581427545
 40
0.5
 50
226.88818800674014
 51
0.0000000000000254
  0
ARC
  8
_0-0_
  6
CONTINUOUS
 62
    7
 10
21.405099519815394
 20
24.091450178309003
 40
0.5
 50
268.11181199325949
 51
44.999999999999972
  0
ARC
  8
_0-0_
  6
CONTINUOUS
 62
    7
 10
16.34729866061889
 20
24.058082212962006
 40
0.2999999999999999
 50
224.99999999999986
 51
268.11181199325989
  0
ARC
  8
_0-0_
  6
CONTINUOUS
 62
    7
 10
10.491401924865158
 20
35.853675910682966
 40
0.2999999999999999
 50
315
 51
44.999999999999886
  0
ARC
  8
_0-0_
  6
CONTINUOUS
 62
    7
 10
8.2600310749667187
 20
32.773776923360572
 40
0.2999999999999999
 50
135
 51
180
  0
ARC
  8
_0-0_
  6
CONTINUOUS
 62
    7
 10
2.889172467206663
 20
28.060068424375856
 40
0.2999999999999999
 50
180
 51
270
  0
ARC
  8
_0-0_
  6
CONTINUOUS
 62
    7
 10
2.889172467206663
 20
32.211244427668987
 40
0.2999999999999999
 50
135.00000000000006
 51
179.99999999999997
  0
ARC
  8
_0-0_
  6
CONTINUOUS
 62
    7
 10
8.5115029375429003
 20
37.833574898005224
 40
0.2999999999999999
 50
45
 51
135.00000000000003
  0
ARC
  8
_0-0_
  6
CONTINUOUS
 62
    7
 10
1.489172467206572
 20
23.960068424375947
 40
0.2999999999999999
 50
180
 51
270
  0
ARC
  8
_0-0_
  6
CONTINUOUS
 62
    7
 10
2.6891724672063901
 20
23.960068424375947
 40
0.2999999999999999
 50
270
 51
0
  0
ARC
  8
_0-0_
  6
CONTINUOUS
 62
    7
 10
3.2891724672062992
 20
26.060068424375856
 40
0.2999999999999999
 50
90
 51
180
  0
ARC
  8
_0-0_
  6
CONTINUOUS
 62
    7
 10
6.0649083984944809
 20
26.060068424375856
 40
0.2999999999999999
 50
44.999999999998934
 51
90.000000000000057
  0
ARC
  8
_0-0_
  6
CONTINUOUS
 62
    7
 10
7.0891724672064811
 20
25.035804355664084
 40
0.2999999999999999
 50
0
 51
44.99999999999865
  0
ARC
  8
_0-0_
  6
CONTINUOUS
 62
    7
 10
7.0891724672064811
 20
15.578579840816417
 40
0.2999999999999999
 50
316.88818800674039
 51
0.0000000000000445
  0
ARC
  8
_0-0_
  6
CONTINUOUS
 62
    7
 10
2.6891724672063901
 20
16.160068424375766
 40
0.2999999999999999
 50
0
 51
90.000000000000028
  0
ARC
  8
_0-0_
  6
CONTINUOUS
 62
    7
 10
1.489172467206572
 20
16.160068424375766
 40
0.2999999999999999
 50
90
 51
180
  0
ARC
  8
_0-0_
  6
CONTINUOUS
 62
    7
 10
9.7891724672065266
 20
7.860068424375811
 40
0.2999999999999999
 50
270
 51
0
  0
ARC
  8
_0-0_
  6
CONTINUOUS
 62
    7
 10
9.7891724672065266
 20
9.0600684243758565
 40
0.2999999999999999
 50
0
 51
90.000000000000028
  0
ARC
  8
_0-0_
  6
CONTINUOUS
 62
    7
 10
9.2076838836469506
 20
13.460068424375947
 40
0.2999999999999999
 50
90
 51
133.11181199325961
  0
ARC
  8
_0-0_
  6
CONTINUOUS
 62
    7
 10
18.17066105076583
 20
13.460068424375947
 40
0.2999999999999999
 50
46.888188006740279
 51
89.999999999999943
  0
ARC
  8
_0-0_
  6
CONTINUOUS
 62
    7
 10
17.589172467206481
 20
9.0600684243758565
 40
0.2999999999999999
 50
90
 51
180
  0
ARC
  8
_0-0_
  6
CONTINUOUS
 62
    7
 10
17.589172467206481
 20
7.860068424375811
 40
0.2999999999999999
 50
180
 51
270
  0
ARC
  8
_0-0_
  6
CONTINUOUS
 62
    7
 10
19.895922114646282
 20
28.429054708224328
 40
0.2999999999999999
 50
44.999999999999844
 51
134.9999999999969
  0
ARC
  8
_0-0_
  6
CONTINUOUS
 62
    7
 10
19.047393977222328
 20
27.580526570800373
 40
0.2999999999999999
 50
134.99999999999807
 51
224.99999999999969
  0
ARC
  8
_0-0_
  6
CONTINUOUS
 62
    7
 10
9.6600310749665823
 20
30.745349798614541
 40
0.2999999999999999
 50
180
 51
224.99999999999974
  0
ARC
  8
_0-0_
  6
CONTINUOUS
 62
    7
 10
9.6600310749665823
 20
32.193877936038405
 40
0.2999999999999999
 50
134.99999999999883
 51
180.00000000000003
  0
ARC
  8
_0-0_
  6
CONTINUOUS
 62
    7
 10
11.622772774763689
 20
34.156619635835284
 40
0.2999999999999999
 50
44.999999999999744
 51
134.99999999999929
  0
ARC
  8
_0-0_
  6
CONTINUOUS
 62
    7
 10
13.531961083967417
 20
33.095959464055511
 40
0.2999999999999999
 50
224.99999999999915
 51
315
  0
ARC
  8
_0-0_
  6
CONTINUOUS
 62
    7
 10
25.18917246720639
 20
22.14585486200275
 40
1
 50
0
 51
44.999999999999872
  0
ARC
  8
_0-0_
  6
CONTINUOUS
 62
    7
 10
25.18917246720639
 20
8.5600684243758565
 40
1
 50
270
 51
0
  0
ARC
  8
_0-0_
  6
CONTINUOUS
 62
    7
 10
2.1891724672063901
 20
8.5600684243758565
 40
1
 50
180
 51
270
  0
ARC
  8
_0-0_
  6
CONTINUOUS
 62
    7
 10
2.1891724672063901
 20
32.501193921330184
 40
1
 50
135
 51
180
  0
ARC
  8
_0-0_
  6
CONTINUOUS
 62
    7
 10
8.5115029375429003
 20
38.823524391666467
 40
1
 50
44.999999999999844
 51
134.99999999999994
  0
ARC
  8
_0-0_
  6
CONTINUOUS
 62
    7
 10
3.489172467206572
 20
12.025769269958744
 40
0.5
 50
180
 51
316.88818800674051
  0
ARC
  8
_0-0_
  6
CONTINUOUS
 62
    7
 10
5.6548733127892774
 20
9.860068424375811
 40
0.5
 50
133.11181199325952
 51
270
  0
ARC
  8
_0-0_
  6
CONTINUOUS
 62
    7
 10
21.72347162162373
 20
9.860068424375811
 40
0.5
 50
270
 51
46.888188006740478
  0
ARC
  8
_0-0_
  6
CONTINUOUS
 62
    7
 10
14.380489221391144
 20
33.944487601479466
 40
0.2999999999999999
 50
315.00000000000068
 51
44.999999999999858
  0
ARC
  8
_0-0_
  6
CONTINUOUS
 62
    7
 10
9.0891724672064811
 20
15.460068424375947
 40
0.2999999999999999
 50
180
 51
222.56897148892716
  0
ARC
  8
_0-0_
  6
CONTINUOUS
 62
    7
 10
9.0891724672064811
 20
15.460068424375947
 40
0.2999999999999999
 50
222.56897148892716
 51
270
  0
ARC
  8
_0-0_
  6
CONTINUOUS
 62
    7
 10
18.289172467206527
 20
15.460068424375947
 40
0.2999999999999999
 50
270
 51
0
  0
ARC
  8
_0-0_
  6
CONTINUOUS
 62
    7
 10
8.4891724672063447
 20
25.615703342986478
 40
0.2999999999999999
 50
0
 51
44.99999999999784
  0
ARC
  8
_0-0_
  6
CONTINUOUS
 62
    7
 10
9.0891724672064811
 20
21.660068424375993
 40
0.2999999999999999
 50
90
 51
180
  0
ARC
  8
_0-0_
  6
CONTINUOUS
 62
    7
 10
18.289172467206527
 20
21.660068424375993
 40
0.2999999999999999
 50
0
 51
90.000000000000028
  0
ARC
  8
_0-0_
  6
CONTINUOUS
 62
    7
 10
20.289172467206527
 20
21.660068424375993
 40
0.2999999999999999
 50
90
 51
180
  0
ARC
  8
_0-0_
  6
CONTINUOUS
 62
    7
 10
24.489172467206572
 20
21.660068424375993
 40
0.2999999999999999
 50
0
 51
90.000000000000028
  0
ARC
  8
_0-0_
  6
CONTINUOUS
 62
    7
 10
9.0891724672064811
 20
23.660068424375993
 40
0.2999999999999999
 50
180
 51
270
  0
ARC
  8
_0-0_
  6
CONTINUOUS
 62
    7
 10
13.434042611984296
 20
23.860068424376038
 40
0.5
 50
270
 51
44.999999999999922
  0
ARC
  8
_0-0_
  6
CONTINUOUS
 62
    7
 10
20.289172467206527
 20
14.216426860528316
 40
0.2999999999999999
 50
180
 51
226.88818800674073
  0
ARC
  8
_0-0_
  6
CONTINUOUS
 62
    7
 10
7.6600310749665823
 20
30.114787260903995
 40
0.2999999999999999
 50
332.43118042949601
 51
0.0000000000000063
  0
ARC
  8
_0-0_
  6
CONTINUOUS
 62
    7
 10
6.5872734077606765
 20
28.060068424375913
 40
0.2999999999999999
 50
270
 51
332.43118042949584
  0
ARC
  8
_0-0_
  6
CONTINUOUS
 62
    7
 10
8.1745397817098819
 20
26.778864165906896
 40
0.2999999999999999
 50
152.43118042949547
 51
224.99999999999665
  0
ARC
  8
_0-0_
  6
CONTINUOUS
 62
    7
 10
9.074445236217116
 20
28.502508512617851
 40
0.2999999999999999
 50
45.00000000000005
 51
152.43118042949536
  0
LINE
  8
_0-1_
  6
CENTER2
 62
  152
 10
12.966275659018038
 20
27.014841145850994
 11
17.350337659018123
 21
31.398901145850857
  0
LINE
  8
_0-1_
  6
CENTER2
 62
  152
 10
13.689172659018141
 20
15.160071145850623
 11
13.689172659018141
 21
21.960071145850804
  0
LINE
  8
_0-1_
  6
CENTER2
 62
  152
 10
18.589172659018232
 20
18.560071145850713
 11
8.7891726590185044
 21
18.560071145850713
  0
LINE
  8
_0-1_
  6
CENTER2
 62
  152
 10
7.3891726590179587
 20
20.060071145850713
 11
1.1891726590181406
 21
20.060071145850713
  0
LINE
  8
_0-1_
  6
CENTER2
 62
  152
 10
13.689172659018141
 20
7.5600711458507135
 11
13.689172659018141
 21
13.760071145850986
  0
ENDSEC
  0
EOF
