  0
SECTION
  2
HEADER
  9
$ACADVER
  1
AC1009
  9
$INSBASE
 10
0
 20
0
 30
0
  9
$EXTMIN
 10
0
 20
0
  9
$EXTMAX
 10
1189
 20
841
  9
$LIMMIN
 10
0
 20
0
  9
$LIMMAX
 10
1189
 20
841
  9
$LTSCALE
 40
1
  0
ENDSEC
  0
SECTION
  2
TABLES
  0
TABLE
  2
LTYPE
 70
     9
  0
LTYPE
  2
CONTINUOUS
 70
    64
  3
実線
 72
    65
 73
     0
 40
0.0
  0
LTYPE
  2
DASHED1
 70
    64
  3
--  --  --  --  --  --  --  --  
 72
    65
 73
     2
 40
2.5
 49
1.25
 49
-1.25
  0
LTYPE
  2
DASHED2
 70
    64
  3
----    ----    ----    ----    
 72
    65
 73
     2
 40
5.0
 49
2.5
 49
-2.5
  0
LTYPE
  2
DASHED3
 70
    64
  3
------  ------  ------  ------  
 72
    65
 73
     2
 40
5.0
 49
3.75
 49
-1.25
  0
LTYPE
  2
CENTER1
 70
    64
  3
----- - ----- - ----- - ----- - 
 72
    65
 73
     4
 40
10.0
 49
6.25
 49
-1.25
 49
1.25
 49
-1.25
  0
LTYPE
  2
CENTER2
 70
    64
  3
----------  --  ----------  --  
 72
    65
 73
     4
 40
20.0
 49
12.5
 49
-2.5
 49
2.5
 49
-2.5
  0
LTYPE
  2
PHANTOM1
 70
    64
  3
--- - - --- - - --- - - --- - - 
 72
    65
 73
     6
 40
10.0
 49
3.25
 49
-1.25
 49
1.25
 49
-1.25
 49
1.25
 49
-1.25
  0
LTYPE
  2
PHANTOM2
 70
    64
  3
--------  -  -  --------  -  -  
 72
    65
 73
     6
 40
20.0
 49
10.0
 49
-2.5
 49
1.25
 49
-2.5
 49
1.25
 49
-2.5
  0
LTYPE
  2
DOT
 70
    64
  3
-   -   -   -   -   -   -   -   
 72
    65
 73
     2
 40
2.5
 49
0.625
 49
-1.875
  0
LTYPE
  2
DUMMY
 70
    64
  3
ダミー
 72
    65
 73
     0
 40
0.0
  0
LTYPE
  2
RAND1
 70
    64
  3
ランダム線1
 72
    65
 73
     4
 40
10.0
 49
1.0
 49
-2.0
 49
3.0
 49
-4.0
  0
LTYPE
  2
RAND2
 70
    64
  3
ランダム線2
 72
    65
 73
     4
 40
14.0
 49
2.0
 49
-3.0
 49
4.0
 49
-5.0
  0
LTYPE
  2
RAND3
 70
    64
  3
ランダム線3
 72
    65
 73
     4
 40
18.0
 49
3.0
 49
-4.0
 49
5.0
 49
-6.0
  0
LTYPE
  2
RAND4
 70
    64
  3
ランダム線4
 72
    65
 73
     4
 40
22.0
 49
4.0
 49
-5.0
 49
6.0
 49
-7.0
  0
LTYPE
  2
RAND5
 70
    64
  3
ランダム線5
 72
    65
 73
     4
 40
26.0
 49
5.0
 49
-6.0
 49
7.0
 49
-8.0
  0
LTYPE
  2
LONG1
 70
    64
  3
----------  --  ----------  --  
 72
    65
 73
     4
 40
40.0
 49
32.5
 49
-2.5
 49
2.5
 49
-2.5
  0
LTYPE
  2
LONG2
 70
    64
  3
--------  -  -  --------  -  -  
 72
    65
 73
     6
 40
40.0
 49
30.0
 49
-2.5
 49
1.25
 49
-2.5
 49
1.25
 49
-2.5
  0
LTYPE
  2
LONG3
 70
    64
  3
+++++++++++++++..+++++++++++++++
 72
    65
 73
     2
 40
40.0
 49
37.5
 49
-2.5
  0
LTYPE
  2
LONG4
 70
    64
  3
+++++++++++++++..+++++++++++++++
 72
    65
 73
     2
 40
80.0
 49
75.0
 49
-5.0
  0
LTYPE
  2
LONG5
 70
    64
  3
----------  --  ----------  --  
 72
    65
 73
     4
 40
60.0
 49
37.5
 49
-7.5
 49
7.5
 49
-7.5
  0
LTYPE
  2
dashed
 70
   64
  3
-------   -------------   ------
 72
   65
 73
    2
 40
7.5
 49
6
 49
-1.5
  0
LTYPE
  2
dashed_spaced
 70
   64
  3
----        --------        ----
 72
   65
 73
    2
 40
12
 49
6
 49
-6
  0
LTYPE
  2
long_dashed_dotted
 70
   64
  3
------------- --- --------------
 72
   65
 73
    4
 40
15.25
 49
12
 49
-1.5
 49
0.25
 49
-1.5
  0
LTYPE
  2
long_dashed_double-dotted
 70
   64
  3
----------- --- --- ------------
 72
   65
 73
    6
 40
17
 49
12
 49
-1.5
 49
0.25
 49
-1.5
 49
0.25
 49
-1.5
  0
LTYPE
  2
long_dashed_triplicate-dotted
 70
   64
  3
--------- --- --- --- ----------
 72
   65
 73
    8
 40
18.75
 49
12
 49
-1.5
 49
0.25
 49
-1.5
 49
0.25
 49
-1.5
 49
0.25
 49
-1.5
  0
LTYPE
  2
dotted
 70
   64
  3
   -       -       -       -    
 72
   65
 73
    2
 40
1.75
 49
0.25
 49
-1.5
  0
LTYPE
  2
chain
 70
   64
  3
-------------- -- --------------
 72
   65
 73
    4
 40
18.5
 49
12
 49
-1.5
 49
3.5
 49
-1.5
  0
LTYPE
  2
chain_double_dash
 70
   64
  3
------------ -- -- -------------
 72
   65
 73
    6
 40
23.5
 49
12
 49
-1.5
 49
3.5
 49
-1.5
 49
3.5
 49
-1.5
  0
LTYPE
  2
dashed_dotted
 70
   64
  3
-----------     -     ----------
 72
   65
 73
    4
 40
9.25
 49
6
 49
-1.5
 49
0.25
 49
-1.5
  0
LTYPE
  2
double-dashed_dotted
 70
   64
  3
------   -----------   -   -----
 72
   65
 73
    6
 40
16.75
 49
6
 49
-1.5
 49
6
 49
-1.5
 49
0.25
 49
-1.5
  0
LTYPE
  2
dashed_double-dotted
 70
   64
  3
---------    -    -    ---------
 72
   65
 73
    6
 40
11
 49
6
 49
-1.5
 49
0.25
 49
-1.5
 49
0.25
 49
-1.5
  0
LTYPE
  2
double-dashed_double-dotted
 70
   64
  3
-----   ---------   -   -   ----
 72
   65
 73
    8
 40
18.5
 49
6
 49
-1.5
 49
6
 49
-1.5
 49
0.25
 49
-1.5
 49
0.25
 49
-1.5
  0
LTYPE
  2
dashed_triplicate-dotted
 70
   64
  3
-------    -    -    -    ------
 72
   65
 73
    8
 40
12.75
 49
6
 49
-1.5
 49
0.25
 49
-1.5
 49
0.25
 49
-1.5
 49
0.25
 49
-1.5
  0
LTYPE
  2
double-dashed_triplicate-dotted
 70
   64
  3
-----  ---------  -  -  -  -----
 72
   65
 73
   10
 40
20.25
 49
6
 49
-1.5
 49
6
 49
-1.5
 49
0.25
 49
-1.5
 49
0.25
 49
-1.5
 49
0.25
 49
-1.5
  0
LTYPE
  2
undefined
 70
   64
  3
--------------------------------
 72
   65
 73
    0
 40
0
  0
ENDTAB
  0
TABLE
  2
STYLE
  5
3
100
AcDbSymbolTable
 70
     1
  0
STYLE
  5
10
100
AcDbSymbolTableRecord
100
AcDbTextStyleTableRecord
  2
STANDARD
 70
     0
 40
0.0
 41
1.0
 50
0.0
 71
     0
 42
0.2
  3
txt
  4
bigfont.shx
  0
STYLE
  5
26
100
AcDbSymbolTableRecord
100
AcDbTextStyleTableRecord
  2
TATEGAKI
 70
    68
 40
0.0
 41
1.0
 50
0.0
 71
     0
 42
1.0
  3
txt
  4
bigfont.shx
  0
ENDTAB
  0
TABLE
  2
LAYER
 70
    4
  0
LAYER
  2
_0-0_
 70
   64
 62
    7
  6
CONTINUOUS
  0
LAYER
  2
_0-1_
 70
   64
 62
    7
  6
CONTINUOUS
  0
LAYER
  2
_0-f_
 70
   64
 62
    7
  6
CONTINUOUS
  0
LAYER
  2
ADD_LINE
 70
   64
 62
    7
  6
CONTINUOUS
  0
ENDTAB
  0
ENDSEC
  0
SECTION
  2
BLOCKS
  0
ENDSEC
  0
SECTION
  2
ENTITIES
  0
TEXT
  8
_0-f_
 62
    7
 10
1.2459279371818184
 20
1.3895567371227457
 40
4.2999999999999998
 41
0.744186046511628
 50
0
  1
F25L
  0
LINE
  8
_0-0_
  6
CONTINUOUS
 62
    7
 10
19.315041800233075
 20
7.2983340819760087
 11
26.915041800233439
 21
7.2983340819760087
  0
LINE
  8
_0-0_
  6
CONTINUOUS
 62
    7
 10
27.915041800233439
 20
8.2983340819760087
 11
27.915041800233439
 21
15.898334081975918
  0
LINE
  8
_0-0_
  6
CONTINUOUS
 62
    7
 10
27.615041800233257
 20
16.1983340819761
 11
26.415041800233439
 21
16.1983340819761
  0
LINE
  8
_0-0_
  6
CONTINUOUS
 62
    7
 10
26.115041800233712
 20
15.898334081975918
 11
26.115041800233712
 21
14.098334081975736
  0
LINE
  8
_0-0_
  6
CONTINUOUS
 62
    7
 10
25.81504180023353
 20
13.798334081976009
 11
23.039305868945348
 21
13.798334081976009
  0
LINE
  8
_0-0_
  6
CONTINUOUS
 62
    7
 10
22.82717383458953
 20
13.886202047619918
 11
21.80290976587753
 21
14.910466116331918
  0
LINE
  8
_0-0_
  6
CONTINUOUS
 62
    7
 10
21.715041800233621
 20
15.122598150687736
 11
21.715041800233621
 21
24.474070013263827
  0
LINE
  8
_0-0_
  6
CONTINUOUS
 62
    7
 10
21.80290976587753
 20
24.686202047619645
 11
22.82717383458953
 21
25.710466116331645
  0
LINE
  8
_0-0_
  6
CONTINUOUS
 62
    7
 10
23.039305868945348
 20
25.798334081976009
 11
25.81504180023353
 21
25.798334081976009
  0
LINE
  8
_0-0_
  6
CONTINUOUS
 62
    7
 10
26.115041800233712
 20
25.498334081975827
 11
26.115041800233712
 21
23.698334081975645
  0
LINE
  8
_0-0_
  6
CONTINUOUS
 62
    7
 10
26.415041800233439
 20
23.398334081975918
 11
27.615041800233257
 21
23.398334081975918
  0
LINE
  8
_0-0_
  6
CONTINUOUS
 62
    7
 10
27.915041800233439
 20
23.6983340819761
 11
27.915041800233439
 21
31.298334081976009
  0
LINE
  8
_0-0_
  6
CONTINUOUS
 62
    7
 10
26.915041800233439
 20
32.298334081976009
 11
19.315041800233075
 21
32.298334081976009
  0
LINE
  8
_0-0_
  6
CONTINUOUS
 62
    7
 10
19.015041800233348
 20
31.998334081975827
 11
19.015041800233348
 21
30.798334081976009
  0
LINE
  8
_0-0_
  6
CONTINUOUS
 62
    7
 10
19.31504180023353
 20
30.498334081976282
 11
21.115041800233257
 21
30.498334081976282
  0
LINE
  8
_0-0_
  6
CONTINUOUS
 62
    7
 10
21.415041800233439
 20
30.1983340819761
 11
21.415041800233439
 21
27.422598150687918
  0
LINE
  8
_0-0_
  6
CONTINUOUS
 62
    7
 10
21.327173834589075
 20
27.2104661163321
 11
20.30290976587753
 21
26.1862020476201
  0
LINE
  8
_0-0_
  6
CONTINUOUS
 62
    7
 10
20.090777731521257
 20
26.098334081976191
 11
15.615041800233257
 21
26.098334081976191
  0
LINE
  8
_0-0_
  6
CONTINUOUS
 62
    7
 10
15.615041800233257
 20
26.098334081976191
 11
15.415041800233439
 21
25.898334081976373
  0
LINE
  8
_0-0_
  6
CONTINUOUS
 62
    7
 10
15.415041800233439
 20
25.898334081976373
 11
15.215041800233166
 21
26.098334081976191
  0
LINE
  8
_0-0_
  6
CONTINUOUS
 62
    7
 10
15.215041800233166
 20
26.098334081976191
 11
10.739305868945166
 21
26.098334081976191
  0
LINE
  8
_0-0_
  6
CONTINUOUS
 62
    7
 10
10.527173834589348
 20
26.1862020476201
 11
9.502909765877348
 21
27.2104661163321
  0
LINE
  8
_0-0_
  6
CONTINUOUS
 62
    7
 10
9.4150418002334391
 20
27.422598150687918
 11
9.4150418002334391
 21
30.1983340819761
  0
LINE
  8
_0-0_
  6
CONTINUOUS
 62
    7
 10
9.7150418002331662
 20
30.498334081976282
 11
11.515041800233348
 21
30.498334081976282
  0
LINE
  8
_0-0_
  6
CONTINUOUS
 62
    7
 10
11.815041800233075
 20
30.798334081976009
 11
11.815041800233075
 21
31.998334081975827
  0
LINE
  8
_0-0_
  6
CONTINUOUS
 62
    7
 10
11.515041800233348
 20
32.298334081976009
 11
3.9150418002334391
 21
32.298334081976009
  0
LINE
  8
_0-0_
  6
CONTINUOUS
 62
    7
 10
2.9150418002334391
 20
31.298334081976009
 11
2.9150418002334391
 21
23.6983340819761
  0
LINE
  8
_0-0_
  6
CONTINUOUS
 62
    7
 10
3.2150418002331662
 20
23.398334081975918
 11
4.4150418002334391
 21
23.398334081975918
  0
LINE
  8
_0-0_
  6
CONTINUOUS
 62
    7
 10
4.7150418002331662
 20
23.6983340819761
 11
4.7150418002331662
 21
25.498334081975827
  0
LINE
  8
_0-0_
  6
CONTINUOUS
 62
    7
 10
5.0150418002333481
 20
25.798334081976009
 11
7.7907777315215299
 21
25.798334081976009
  0
LINE
  8
_0-0_
  6
CONTINUOUS
 62
    7
 10
8.002909765877348
 20
25.710466116331645
 11
9.0271738345893482
 21
24.6862020476201
  0
LINE
  8
_0-0_
  6
CONTINUOUS
 62
    7
 10
9.1150418002332572
 20
24.474070013263827
 11
9.1150418002332572
 21
15.122598150687736
  0
LINE
  8
_0-0_
  6
CONTINUOUS
 62
    7
 10
9.0271738345893482
 20
14.910466116331918
 11
8.002909765877348
 21
13.886202047619918
  0
LINE
  8
_0-0_
  6
CONTINUOUS
 62
    7
 10
7.7907777315215299
 20
13.798334081976009
 11
5.0150418002333481
 21
13.798334081976009
  0
LINE
  8
_0-0_
  6
CONTINUOUS
 62
    7
 10
4.7150418002331662
 20
14.098334081975736
 11
4.7150418002331662
 21
15.898334081975918
  0
LINE
  8
_0-0_
  6
CONTINUOUS
 62
    7
 10
4.4150418002334391
 20
16.1983340819761
 11
3.2150418002331662
 21
16.1983340819761
  0
LINE
  8
_0-0_
  6
CONTINUOUS
 62
    7
 10
2.9150418002334391
 20
15.898334081975918
 11
2.9150418002334391
 21
8.2983340819760087
  0
LINE
  8
_0-0_
  6
CONTINUOUS
 62
    7
 10
3.9150418002334391
 20
7.2983340819760087
 11
11.515041800233348
 21
7.2983340819760087
  0
LINE
  8
_0-0_
  6
CONTINUOUS
 62
    7
 10
11.815041800233075
 20
7.5983340819757359
 11
11.815041800233075
 21
8.7983340819760087
  0
LINE
  8
_0-0_
  6
CONTINUOUS
 62
    7
 10
11.515041800233348
 20
9.0983340819757359
 11
9.7150418002331662
 21
9.0983340819757359
  0
LINE
  8
_0-0_
  6
CONTINUOUS
 62
    7
 10
9.4150418002334391
 20
9.3983340819759178
 11
9.4150418002334391
 21
12.1740700132641
  0
LINE
  8
_0-0_
  6
CONTINUOUS
 62
    7
 10
9.502909765877348
 20
12.386202047619918
 11
10.527173834589348
 21
13.410466116331918
  0
LINE
  8
_0-0_
  6
CONTINUOUS
 62
    7
 10
10.739305868945166
 20
13.498334081975827
 11
15.215041800233166
 21
13.498334081975827
  0
LINE
  8
_0-0_
  6
CONTINUOUS
 62
    7
 10
15.215041800233166
 20
13.498334081975827
 11
15.415041800233439
 21
13.698334081975645
  0
LINE
  8
_0-0_
  6
CONTINUOUS
 62
    7
 10
15.415041800233439
 20
13.698334081975645
 11
15.615041800233257
 21
13.498334081975827
  0
LINE
  8
_0-0_
  6
CONTINUOUS
 62
    7
 10
15.615041800233257
 20
13.498334081975827
 11
20.090777731521257
 21
13.498334081975827
  0
LINE
  8
_0-0_
  6
CONTINUOUS
 62
    7
 10
20.302909765877075
 20
13.410466116331918
 11
21.327173834589075
 21
12.386202047619918
  0
LINE
  8
_0-0_
  6
CONTINUOUS
 62
    7
 10
21.415041800233439
 20
12.1740700132641
 11
21.415041800233439
 21
9.3983340819759178
  0
LINE
  8
_0-0_
  6
CONTINUOUS
 62
    7
 10
21.115041800233257
 20
9.0983340819757359
 11
19.315041800233075
 21
9.0983340819757359
  0
LINE
  8
_0-0_
  6
CONTINUOUS
 62
    7
 10
19.015041800233348
 20
8.7983340819760087
 11
19.015041800233348
 21
7.5983340819757359
  0
LINE
  8
_0-0_
  6
CONTINUOUS
 62
    7
 10
18.547163685273745
 20
14.998334081975827
 11
20.015041800233348
 21
14.998334081975827
  0
LINE
  8
_0-0_
  6
CONTINUOUS
 62
    7
 10
20.315041800233075
 20
15.298334081976009
 11
20.315041800233075
 21
24.298334081976009
  0
LINE
  8
_0-0_
  6
CONTINUOUS
 62
    7
 10
20.015041800233348
 20
24.598334081975736
 11
18.547163685273745
 21
24.598334081975736
  0
LINE
  8
_0-0_
  6
CONTINUOUS
 62
    7
 10
18.257385937386744
 20
24.375979795506737
 11
17.97462145172608
 21
23.32068836844519
  0
LINE
  8
_0-0_
  6
CONTINUOUS
 62
    7
 10
17.684843703839533
 20
23.098334081975736
 11
13.14523989662689
 21
23.098334081975736
  0
LINE
  8
_0-0_
  6
CONTINUOUS
 62
    7
 10
12.855462148740344
 20
23.32068836844519
 11
12.57269766307968
 21
24.375979795506737
  0
LINE
  8
_0-0_
  6
CONTINUOUS
 62
    7
 10
12.282919915192679
 20
24.598334081975736
 11
10.815041800233075
 21
24.598334081975736
  0
LINE
  8
_0-0_
  6
CONTINUOUS
 62
    7
 10
10.515041800233348
 20
24.298334081976009
 11
10.515041800233348
 21
15.298334081976009
  0
LINE
  8
_0-0_
  6
CONTINUOUS
 62
    7
 10
10.815041800233075
 20
14.998334081975827
 11
12.282919915192679
 21
14.998334081975827
  0
LINE
  8
_0-0_
  6
CONTINUOUS
 62
    7
 10
12.57269766307968
 20
15.220688368445281
 11
12.855462148740344
 21
16.275979795506828
  0
LINE
  8
_0-0_
  6
CONTINUOUS
 62
    7
 10
13.14523989662689
 20
16.498334081975827
 11
17.684843703839533
 21
16.498334081975827
  0
LINE
  8
_0-0_
  6
CONTINUOUS
 62
    7
 10
17.97462145172608
 20
16.275979795506828
 11
18.257385937386744
 21
15.220688368445281
  0
ARC
  8
_0-0_
  6
CONTINUOUS
 62
    7
 10
3.9150418002334391
 20
31.298334081976009
 40
1
 50
90
 51
180
  0
ARC
  8
_0-0_
  6
CONTINUOUS
 62
    7
 10
26.915041800233439
 20
31.298334081976009
 40
1
 50
0
 51
90.000000000000028
  0
ARC
  8
_0-0_
  6
CONTINUOUS
 62
    7
 10
26.915041800233439
 20
8.2983340819760087
 40
1
 50
270
 51
0
  0
ARC
  8
_0-0_
  6
CONTINUOUS
 62
    7
 10
3.9150418002334391
 20
8.2983340819760087
 40
1
 50
180
 51
270
  0
ARC
  8
_0-0_
  6
CONTINUOUS
 62
    7
 10
11.515041800233348
 20
31.998334081975827
 40
0.2999999999999998
 50
0
 51
90.000000000000028
  0
ARC
  8
_0-0_
  6
CONTINUOUS
 62
    7
 10
19.315041800233075
 20
31.998334081975827
 40
0.2999999999999998
 50
90
 51
180
  0
ARC
  8
_0-0_
  6
CONTINUOUS
 62
    7
 10
3.2150418002331662
 20
23.6983340819761
 40
0.2999999999999998
 50
180
 51
270
  0
ARC
  8
_0-0_
  6
CONTINUOUS
 62
    7
 10
3.2150418002331662
 20
15.898334081975918
 40
0.2999999999999998
 50
90
 51
180
  0
ARC
  8
_0-0_
  6
CONTINUOUS
 62
    7
 10
27.615041800233257
 20
23.6983340819761
 40
0.2999999999999998
 50
270
 51
0
  0
ARC
  8
_0-0_
  6
CONTINUOUS
 62
    7
 10
27.615041800233257
 20
15.898334081975918
 40
0.2999999999999998
 50
0
 51
90.000000000000028
  0
ARC
  8
_0-0_
  6
CONTINUOUS
 62
    7
 10
19.315041800233075
 20
7.5983340819757359
 40
0.2999999999999998
 50
180
 51
270
  0
ARC
  8
_0-0_
  6
CONTINUOUS
 62
    7
 10
11.515041800233348
 20
7.5983340819757359
 40
0.2999999999999998
 50
270
 51
0
  0
ARC
  8
_0-0_
  6
CONTINUOUS
 62
    7
 10
10.815041800233075
 20
24.298334081976009
 40
0.2999999999999998
 50
90
 51
180
  0
ARC
  8
_0-0_
  6
CONTINUOUS
 62
    7
 10
12.282919915192679
 20
24.298334081976009
 40
0.2999999999999998
 50
14.999999999999982
 51
90
  0
ARC
  8
_0-0_
  6
CONTINUOUS
 62
    7
 10
13.14523989662689
 20
23.398334081975918
 40
0.2999999999999998
 50
195.0000000000002
 51
270
  0
ARC
  8
_0-0_
  6
CONTINUOUS
 62
    7
 10
17.684843703839533
 20
23.398334081975918
 40
0.2999999999999998
 50
270
 51
345
  0
ARC
  8
_0-0_
  6
CONTINUOUS
 62
    7
 10
18.547163685273745
 20
24.298334081976009
 40
0.2999999999999998
 50
90
 51
164.9999999999998
  0
ARC
  8
_0-0_
  6
CONTINUOUS
 62
    7
 10
20.015041800233348
 20
24.298334081976009
 40
0.2999999999999998
 50
0
 51
90.000000000000028
  0
ARC
  8
_0-0_
  6
CONTINUOUS
 62
    7
 10
20.015041800233348
 20
15.298334081976009
 40
0.2999999999999998
 50
270
 51
0
  0
ARC
  8
_0-0_
  6
CONTINUOUS
 62
    7
 10
18.547163685273745
 20
15.298334081976009
 40
0.2999999999999998
 50
194.99999999999997
 51
270
  0
ARC
  8
_0-0_
  6
CONTINUOUS
 62
    7
 10
17.684843703839533
 20
16.1983340819761
 40
0.2999999999999998
 50
15.000000000000187
 51
90.000000000000057
  0
ARC
  8
_0-0_
  6
CONTINUOUS
 62
    7
 10
13.14523989662689
 20
16.1983340819761
 40
0.2999999999999998
 50
90
 51
165.00000000000003
  0
ARC
  8
_0-0_
  6
CONTINUOUS
 62
    7
 10
12.282919915192679
 20
15.298334081976009
 40
0.2999999999999998
 50
270
 51
344.99999999999983
  0
ARC
  8
_0-0_
  6
CONTINUOUS
 62
    7
 10
10.815041800233075
 20
15.298334081976009
 40
0.2999999999999998
 50
180
 51
270
  0
ARC
  8
_0-0_
  6
CONTINUOUS
 62
    7
 10
19.315041800233075
 20
8.7983340819760087
 40
0.2999999999999998
 50
90
 51
180
  0
ARC
  8
_0-0_
  6
CONTINUOUS
 62
    7
 10
21.115041800233257
 20
9.3983340819759178
 40
0.2999999999999998
 50
270
 51
0
  0
ARC
  8
_0-0_
  6
CONTINUOUS
 62
    7
 10
21.115041800233257
 20
12.1740700132641
 40
0.2999999999999998
 50
0
 51
45
  0
ARC
  8
_0-0_
  6
CONTINUOUS
 62
    7
 10
20.090777731521257
 20
13.198334081975645
 40
0.2999999999999998
 50
45.000000000000384
 51
90
  0
ARC
  8
_0-0_
  6
CONTINUOUS
 62
    7
 10
9.7150418002331662
 20
12.1740700132641
 40
0.2999999999999998
 50
134.99999999999963
 51
180.00000000000011
  0
ARC
  8
_0-0_
  6
CONTINUOUS
 62
    7
 10
9.7150418002331662
 20
9.3983340819759178
 40
0.2999999999999998
 50
180
 51
270
  0
ARC
  8
_0-0_
  6
CONTINUOUS
 62
    7
 10
11.515041800233348
 20
8.7983340819760087
 40
0.2999999999999998
 50
0
 51
90
  0
ARC
  8
_0-0_
  6
CONTINUOUS
 62
    7
 10
10.739305868945166
 20
13.198334081975645
 40
0.2999999999999998
 50
90
 51
135
  0
ARC
  8
_0-0_
  6
CONTINUOUS
 62
    7
 10
26.415041800233439
 20
23.698334081975645
 40
0.2999999999999998
 50
180
 51
270
  0
ARC
  8
_0-0_
  6
CONTINUOUS
 62
    7
 10
25.81504180023353
 20
25.498334081975827
 40
0.2999999999999998
 50
0
 51
90
  0
ARC
  8
_0-0_
  6
CONTINUOUS
 62
    7
 10
23.039305868945348
 20
25.498334081975827
 40
0.2999999999999998
 50
90
 51
135
  0
ARC
  8
_0-0_
  6
CONTINUOUS
 62
    7
 10
22.015041800233803
 20
24.474070013263827
 40
0.2999999999999998
 50
135.00000000000037
 51
180
  0
ARC
  8
_0-0_
  6
CONTINUOUS
 62
    7
 10
23.039305868945348
 20
14.098334081975736
 40
0.2999999999999998
 50
224.99999999999963
 51
270
  0
ARC
  8
_0-0_
  6
CONTINUOUS
 62
    7
 10
25.81504180023353
 20
14.098334081975736
 40
0.2999999999999998
 50
270
 51
0
  0
ARC
  8
_0-0_
  6
CONTINUOUS
 62
    7
 10
26.415041800233439
 20
15.898334081975918
 40
0.2999999999999998
 50
90
 51
180
  0
ARC
  8
_0-0_
  6
CONTINUOUS
 62
    7
 10
22.015041800233803
 20
15.122598150687736
 40
0.2999999999999998
 50
180
 51
225
  0
ARC
  8
_0-0_
  6
CONTINUOUS
 62
    7
 10
11.515041800233348
 20
30.798334081976009
 40
0.2999999999999998
 50
270
 51
0
  0
ARC
  8
_0-0_
  6
CONTINUOUS
 62
    7
 10
9.7150418002331662
 20
30.1983340819761
 40
0.2999999999999998
 50
90
 51
180
  0
ARC
  8
_0-0_
  6
CONTINUOUS
 62
    7
 10
9.7150418002331662
 20
27.422598150687918
 40
0.2999999999999998
 50
180
 51
225
  0
ARC
  8
_0-0_
  6
CONTINUOUS
 62
    7
 10
10.739305868945166
 20
26.398334081976373
 40
0.2999999999999998
 50
225.00000000000037
 51
270
  0
ARC
  8
_0-0_
  6
CONTINUOUS
 62
    7
 10
21.115041800233257
 20
27.422598150687918
 40
0.2999999999999998
 50
314.99999999999966
 51
0
  0
ARC
  8
_0-0_
  6
CONTINUOUS
 62
    7
 10
21.115041800233257
 20
30.1983340819761
 40
0.2999999999999998
 50
0
 51
90
  0
ARC
  8
_0-0_
  6
CONTINUOUS
 62
    7
 10
19.31504180023353
 20
30.798334081976009
 40
0.2999999999999998
 50
180
 51
270
  0
ARC
  8
_0-0_
  6
CONTINUOUS
 62
    7
 10
20.090777731521257
 20
26.398334081976373
 40
0.2999999999999998
 50
270
 51
315
  0
ARC
  8
_0-0_
  6
CONTINUOUS
 62
    7
 10
4.4150418002334391
 20
15.898334081975918
 40
0.2999999999999998
 50
0
 51
90
  0
ARC
  8
_0-0_
  6
CONTINUOUS
 62
    7
 10
5.0150418002333481
 20
14.098334081975736
 40
0.2999999999999998
 50
180
 51
270
  0
ARC
  8
_0-0_
  6
CONTINUOUS
 62
    7
 10
7.7907777315215299
 20
14.098334081975736
 40
0.2999999999999998
 50
270
 51
315
  0
ARC
  8
_0-0_
  6
CONTINUOUS
 62
    7
 10
8.8150418002330753
 20
15.122598150687736
 40
0.2999999999999998
 50
315.0000000000004
 51
0.0000000000000063
  0
ARC
  8
_0-0_
  6
CONTINUOUS
 62
    7
 10
7.7907777315215299
 20
25.498334081975827
 40
0.2999999999999998
 50
44.999999999999652
 51
90.000000000000028
  0
ARC
  8
_0-0_
  6
CONTINUOUS
 62
    7
 10
5.0150418002333481
 20
25.498334081975827
 40
0.2999999999999998
 50
90
 51
180
  0
ARC
  8
_0-0_
  6
CONTINUOUS
 62
    7
 10
4.4150418002334391
 20
23.6983340819761
 40
0.2999999999999998
 50
270
 51
0
  0
ARC
  8
_0-0_
  6
CONTINUOUS
 62
    7
 10
8.8150418002330753
 20
24.474070013263827
 40
0.2999999999999998
 50
0
 51
45
  0
CIRCLE
  8
_0-0_
  6
CONTINUOUS
 62
    7
 10
6.1650418002334391
 20
29.048334081976009
 40
2.1000000000000001
  0
CIRCLE
  8
_0-0_
  6
CONTINUOUS
 62
    7
 10
24.665041800233439
 20
29.048334081976009
 40
2.1000000000000001
  0
CIRCLE
  8
_0-0_
  6
CONTINUOUS
 62
    7
 10
24.665041800233439
 20
10.548334081976009
 40
2.1000000000000001
  0
CIRCLE
  8
_0-0_
  6
CONTINUOUS
 62
    7
 10
6.1650418002334391
 20
10.548334081976009
 40
2.1000000000000001
  0
LINE
  8
_0-1_
  6
CENTER2
 62
  152
 10
15.415041800233439
 20
32.298334081976009
 11
15.415041800233439
 21
7.2983340819760087
  0
LINE
  8
_0-1_
  6
CENTER2
 62
  152
 10
27.915041800233439
 20
19.798334081976009
 11
2.9150418002334391
 21
19.798334081976009
  0
ENDSEC
  0
EOF
