  0
SECTION
  2
HEADER
  9
$ACADVER
  1
AC1009
  9
$INSBASE
 10
0
 20
0
 30
0
  9
$EXTMIN
 10
0
 20
0
  9
$EXTMAX
 10
1189
 20
841
  9
$LIMMIN
 10
0
 20
0
  9
$LIMMAX
 10
1189
 20
841
  9
$LTSCALE
 40
1
  0
ENDSEC
  0
SECTION
  2
TABLES
  0
TABLE
  2
LTYPE
 70
     9
  0
LTYPE
  2
CONTINUOUS
 70
    64
  3
実線
 72
    65
 73
     0
 40
0.0
  0
LTYPE
  2
DASHED1
 70
    64
  3
--  --  --  --  --  --  --  --  
 72
    65
 73
     2
 40
2.5
 49
1.25
 49
-1.25
  0
LTYPE
  2
DASHED2
 70
    64
  3
----    ----    ----    ----    
 72
    65
 73
     2
 40
5.0
 49
2.5
 49
-2.5
  0
LTYPE
  2
DASHED3
 70
    64
  3
------  ------  ------  ------  
 72
    65
 73
     2
 40
5.0
 49
3.75
 49
-1.25
  0
LTYPE
  2
CENTER1
 70
    64
  3
----- - ----- - ----- - ----- - 
 72
    65
 73
     4
 40
10.0
 49
6.25
 49
-1.25
 49
1.25
 49
-1.25
  0
LTYPE
  2
CENTER2
 70
    64
  3
----------  --  ----------  --  
 72
    65
 73
     4
 40
20.0
 49
12.5
 49
-2.5
 49
2.5
 49
-2.5
  0
LTYPE
  2
PHANTOM1
 70
    64
  3
--- - - --- - - --- - - --- - - 
 72
    65
 73
     6
 40
10.0
 49
3.25
 49
-1.25
 49
1.25
 49
-1.25
 49
1.25
 49
-1.25
  0
LTYPE
  2
PHANTOM2
 70
    64
  3
--------  -  -  --------  -  -  
 72
    65
 73
     6
 40
20.0
 49
10.0
 49
-2.5
 49
1.25
 49
-2.5
 49
1.25
 49
-2.5
  0
LTYPE
  2
DOT
 70
    64
  3
-   -   -   -   -   -   -   -   
 72
    65
 73
     2
 40
2.5
 49
0.625
 49
-1.875
  0
LTYPE
  2
DUMMY
 70
    64
  3
ダミー
 72
    65
 73
     0
 40
0.0
  0
LTYPE
  2
RAND1
 70
    64
  3
ランダム線1
 72
    65
 73
     4
 40
10.0
 49
1.0
 49
-2.0
 49
3.0
 49
-4.0
  0
LTYPE
  2
RAND2
 70
    64
  3
ランダム線2
 72
    65
 73
     4
 40
14.0
 49
2.0
 49
-3.0
 49
4.0
 49
-5.0
  0
LTYPE
  2
RAND3
 70
    64
  3
ランダム線3
 72
    65
 73
     4
 40
18.0
 49
3.0
 49
-4.0
 49
5.0
 49
-6.0
  0
LTYPE
  2
RAND4
 70
    64
  3
ランダム線4
 72
    65
 73
     4
 40
22.0
 49
4.0
 49
-5.0
 49
6.0
 49
-7.0
  0
LTYPE
  2
RAND5
 70
    64
  3
ランダム線5
 72
    65
 73
     4
 40
26.0
 49
5.0
 49
-6.0
 49
7.0
 49
-8.0
  0
LTYPE
  2
LONG1
 70
    64
  3
----------  --  ----------  --  
 72
    65
 73
     4
 40
40.0
 49
32.5
 49
-2.5
 49
2.5
 49
-2.5
  0
LTYPE
  2
LONG2
 70
    64
  3
--------  -  -  --------  -  -  
 72
    65
 73
     6
 40
40.0
 49
30.0
 49
-2.5
 49
1.25
 49
-2.5
 49
1.25
 49
-2.5
  0
LTYPE
  2
LONG3
 70
    64
  3
+++++++++++++++..+++++++++++++++
 72
    65
 73
     2
 40
40.0
 49
37.5
 49
-2.5
  0
LTYPE
  2
LONG4
 70
    64
  3
+++++++++++++++..+++++++++++++++
 72
    65
 73
     2
 40
80.0
 49
75.0
 49
-5.0
  0
LTYPE
  2
LONG5
 70
    64
  3
----------  --  ----------  --  
 72
    65
 73
     4
 40
60.0
 49
37.5
 49
-7.5
 49
7.5
 49
-7.5
  0
LTYPE
  2
dashed
 70
   64
  3
-------   -------------   ------
 72
   65
 73
    2
 40
7.5
 49
6
 49
-1.5
  0
LTYPE
  2
dashed_spaced
 70
   64
  3
----        --------        ----
 72
   65
 73
    2
 40
12
 49
6
 49
-6
  0
LTYPE
  2
long_dashed_dotted
 70
   64
  3
------------- --- --------------
 72
   65
 73
    4
 40
15.25
 49
12
 49
-1.5
 49
0.25
 49
-1.5
  0
LTYPE
  2
long_dashed_double-dotted
 70
   64
  3
----------- --- --- ------------
 72
   65
 73
    6
 40
17
 49
12
 49
-1.5
 49
0.25
 49
-1.5
 49
0.25
 49
-1.5
  0
LTYPE
  2
long_dashed_triplicate-dotted
 70
   64
  3
--------- --- --- --- ----------
 72
   65
 73
    8
 40
18.75
 49
12
 49
-1.5
 49
0.25
 49
-1.5
 49
0.25
 49
-1.5
 49
0.25
 49
-1.5
  0
LTYPE
  2
dotted
 70
   64
  3
   -       -       -       -    
 72
   65
 73
    2
 40
1.75
 49
0.25
 49
-1.5
  0
LTYPE
  2
chain
 70
   64
  3
-------------- -- --------------
 72
   65
 73
    4
 40
18.5
 49
12
 49
-1.5
 49
3.5
 49
-1.5
  0
LTYPE
  2
chain_double_dash
 70
   64
  3
------------ -- -- -------------
 72
   65
 73
    6
 40
23.5
 49
12
 49
-1.5
 49
3.5
 49
-1.5
 49
3.5
 49
-1.5
  0
LTYPE
  2
dashed_dotted
 70
   64
  3
-----------     -     ----------
 72
   65
 73
    4
 40
9.25
 49
6
 49
-1.5
 49
0.25
 49
-1.5
  0
LTYPE
  2
double-dashed_dotted
 70
   64
  3
------   -----------   -   -----
 72
   65
 73
    6
 40
16.75
 49
6
 49
-1.5
 49
6
 49
-1.5
 49
0.25
 49
-1.5
  0
LTYPE
  2
dashed_double-dotted
 70
   64
  3
---------    -    -    ---------
 72
   65
 73
    6
 40
11
 49
6
 49
-1.5
 49
0.25
 49
-1.5
 49
0.25
 49
-1.5
  0
LTYPE
  2
double-dashed_double-dotted
 70
   64
  3
-----   ---------   -   -   ----
 72
   65
 73
    8
 40
18.5
 49
6
 49
-1.5
 49
6
 49
-1.5
 49
0.25
 49
-1.5
 49
0.25
 49
-1.5
  0
LTYPE
  2
dashed_triplicate-dotted
 70
   64
  3
-------    -    -    -    ------
 72
   65
 73
    8
 40
12.75
 49
6
 49
-1.5
 49
0.25
 49
-1.5
 49
0.25
 49
-1.5
 49
0.25
 49
-1.5
  0
LTYPE
  2
double-dashed_triplicate-dotted
 70
   64
  3
-----  ---------  -  -  -  -----
 72
   65
 73
   10
 40
20.25
 49
6
 49
-1.5
 49
6
 49
-1.5
 49
0.25
 49
-1.5
 49
0.25
 49
-1.5
 49
0.25
 49
-1.5
  0
LTYPE
  2
undefined
 70
   64
  3
--------------------------------
 72
   65
 73
    0
 40
0
  0
ENDTAB
  0
TABLE
  2
STYLE
  5
3
100
AcDbSymbolTable
 70
     1
  0
STYLE
  5
10
100
AcDbSymbolTableRecord
100
AcDbTextStyleTableRecord
  2
STANDARD
 70
     0
 40
0.0
 41
1.0
 50
0.0
 71
     0
 42
0.2
  3
txt
  4
bigfont.shx
  0
STYLE
  5
26
100
AcDbSymbolTableRecord
100
AcDbTextStyleTableRecord
  2
TATEGAKI
 70
    68
 40
0.0
 41
1.0
 50
0.0
 71
     0
 42
1.0
  3
txt
  4
bigfont.shx
  0
ENDTAB
  0
TABLE
  2
LAYER
 70
    4
  0
LAYER
  2
_0-0_
 70
   64
 62
    7
  6
CONTINUOUS
  0
LAYER
  2
_0-1_
 70
   64
 62
    7
  6
CONTINUOUS
  0
LAYER
  2
_0-f_
 70
   64
 62
    7
  6
CONTINUOUS
  0
LAYER
  2
ADD_LINE
 70
   64
 62
    7
  6
CONTINUOUS
  0
ENDTAB
  0
ENDSEC
  0
SECTION
  2
BLOCKS
  0
ENDSEC
  0
SECTION
  2
ENTITIES
  0
TEXT
  8
_0-f_
 62
    7
 10
0.8813071209401641
 20
0.9081335674567299
 40
4.2999999999999998
 41
0.744186046511628
 50
0
  1
F25A
  0
LINE
  8
_0-0_
  6
CONTINUOUS
 62
    7
 10
2.2643272058319326
 20
7.2700802863754461
 11
9.864327205832069
 21
7.2700802863754461
  0
LINE
  8
_0-0_
  6
CONTINUOUS
 62
    7
 10
10.164327205831796
 20
7.5700802863754006
 11
10.164327205831796
 21
8.7700802863754461
  0
LINE
  8
_0-0_
  6
CONTINUOUS
 62
    7
 10
9.8643272058318416
 20
9.0700802863751733
 11
8.0643272058318871
 21
9.0700802863751733
  0
LINE
  8
_0-0_
  6
CONTINUOUS
 62
    7
 10
7.7643272058319326
 20
9.3700802863753552
 11
7.7643272058319326
 21
12.145816217663537
  0
LINE
  8
_0-0_
  6
CONTINUOUS
 62
    7
 10
7.8521951714760689
 20
12.357948252019355
 11
8.8764592401878417
 21
13.382212320731355
  0
LINE
  8
_0-0_
  6
CONTINUOUS
 62
    7
 10
9.0885912745438873
 20
13.470080286375264
 11
18.440063137119978
 21
13.470080286375264
  0
LINE
  8
_0-0_
  6
CONTINUOUS
 62
    7
 10
18.652195171475796
 20
13.382212320731355
 11
19.676459240187796
 21
12.357948252019355
  0
LINE
  8
_0-0_
  6
CONTINUOUS
 62
    7
 10
19.764327205831933
 20
12.145816217663537
 11
19.764327205831933
 21
9.3700802863753552
  0
LINE
  8
_0-0_
  6
CONTINUOUS
 62
    7
 10
19.464327205831978
 20
9.0700802863751733
 11
17.664327205831796
 21
9.0700802863751733
  0
LINE
  8
_0-0_
  6
CONTINUOUS
 62
    7
 10
17.364327205832069
 20
8.7700802863754461
 11
17.364327205832069
 21
7.5700802863754006
  0
LINE
  8
_0-0_
  6
CONTINUOUS
 62
    7
 10
17.664327205832024
 20
7.2700802863754461
 11
25.264327205831933
 21
7.2700802863754461
  0
LINE
  8
_0-0_
  6
CONTINUOUS
 62
    7
 10
26.264327205831933
 20
8.2700802863754461
 11
26.264327205831933
 21
24.85586672400234
  0
LINE
  8
_0-0_
  6
CONTINUOUS
 62
    7
 10
25.9714339870186
 20
25.562973505189007
 11
20.18320888762787
 21
31.351198604579736
  0
LINE
  8
_0-0_
  6
CONTINUOUS
 62
    7
 10
19.758944818915779
 20
31.351198604579736
 11
18.910416681492052
 21
30.502670467156008
  0
LINE
  8
_0-0_
  6
CONTINUOUS
 62
    7
 10
18.910416681492052
 20
30.078406398444258
 11
20.18320888762787
 21
28.805614192308553
  0
LINE
  8
_0-0_
  6
CONTINUOUS
 62
    7
 10
20.18320888762787
 20
28.381350123596462
 11
18.220467187830764
 21
26.418608423799469
  0
LINE
  8
_0-0_
  6
CONTINUOUS
 62
    7
 10
18.008335153474718
 20
26.330740458155674
 11
16.559807016051082
 21
26.330740458155447
  0
LINE
  8
_0-0_
  6
CONTINUOUS
 62
    7
 10
16.347674981695036
 20
26.418608423799583
 11
9.7351858135923521
 21
33.03109759190238
  0
LINE
  8
_0-0_
  6
CONTINUOUS
 62
    7
 10
9.6473178479484432
 20
33.243229626258085
 11
9.6473178479484432
 21
34.691757763682176
  0
LINE
  8
_0-0_
  6
CONTINUOUS
 62
    7
 10
9.7351858135921248
 20
34.903889798037994
 11
11.697927513389232
 21
36.866631497835101
  0
LINE
  8
_0-0_
  6
CONTINUOUS
 62
    7
 10
12.122191582101323
 20
36.866631497835215
 11
13.394983788237141
 21
35.593839291699283
  0
LINE
  8
_0-0_
  6
CONTINUOUS
 62
    7
 10
13.819247856948778
 20
35.593839291699283
 11
14.667775994372505
 21
36.44236742912301
  0
LINE
  8
_0-0_
  6
CONTINUOUS
 62
    7
 10
14.667775994372505
 20
36.866631497834874
 11
9.2937644573548823
 21
42.240643034852724
  0
LINE
  8
_0-0_
  6
CONTINUOUS
 62
    7
 10
7.8795508949817759
 20
42.240643034852724
 11
1.557220424645493
 21
35.918312564516441
  0
LINE
  8
_0-0_
  6
CONTINUOUS
 62
    7
 10
1.2643272058319326
 20
35.211205783329774
 11
1.2643272058319326
 21
23.670080286375537
  0
LINE
  8
_0-0_
  6
CONTINUOUS
 62
    7
 10
1.5643272058318871
 20
23.370080286375355
 11
2.7643272058319326
 21
23.370080286375355
  0
LINE
  8
_0-0_
  6
CONTINUOUS
 62
    7
 10
3.0643272058316597
 20
23.670080286375537
 11
3.0643272058316597
 21
25.470080286375492
  0
LINE
  8
_0-0_
  6
CONTINUOUS
 62
    7
 10
3.3643272058318416
 20
25.770080286375446
 11
6.1400631371200234
 21
25.770080286375446
  0
LINE
  8
_0-0_
  6
CONTINUOUS
 62
    7
 10
6.3521951714758416
 20
25.68221232073131
 11
7.3764592401878417
 21
24.657948252019537
  0
LINE
  8
_0-0_
  6
CONTINUOUS
 62
    7
 10
7.4643272058317507
 20
24.445816217663491
 11
7.4643272058317507
 21
19.970080286375492
  0
LINE
  8
_0-0_
  6
CONTINUOUS
 62
    7
 10
7.4643272058317507
 20
19.970080286375492
 11
7.6643272058317962
 21
19.770080286375446
  0
LINE
  8
_0-0_
  6
CONTINUOUS
 62
    7
 10
7.6643272058317962
 20
19.770080286375446
 11
7.4643272058317507
 21
19.570080286375401
  0
LINE
  8
_0-0_
  6
CONTINUOUS
 62
    7
 10
7.4643272058317507
 20
19.570080286375401
 11
7.4643272058317507
 21
15.094344355087401
  0
LINE
  8
_0-0_
  6
CONTINUOUS
 62
    7
 10
7.3764592401878417
 20
14.882212320731583
 11
6.3521951714758416
 21
13.857948252019582
  0
LINE
  8
_0-0_
  6
CONTINUOUS
 62
    7
 10
6.1400631371200234
 20
13.770080286375446
 11
3.3643272058318416
 21
13.770080286375446
  0
LINE
  8
_0-0_
  6
CONTINUOUS
 62
    7
 10
3.0643272058316597
 20
14.070080286375401
 11
3.0643272058316597
 21
15.870080286375583
  0
LINE
  8
_0-0_
  6
CONTINUOUS
 62
    7
 10
2.7643272058319326
 20
16.170080286375537
 11
1.5643272058318871
 21
16.170080286375537
  0
LINE
  8
_0-0_
  6
CONTINUOUS
 62
    7
 10
1.2643272058319326
 20
15.870080286375355
 11
1.2643272058319326
 21
8.2700802863754461
  0
LINE
  8
_0-0_
  6
CONTINUOUS
 62
    7
 10
8.9643272058317507
 20
15.17008028637531
 11
8.9643272058317507
 21
16.63795840133514
  0
LINE
  8
_0-0_
  6
CONTINUOUS
 62
    7
 10
9.1866814923012043
 20
16.927736149221914
 11
10.241972919362752
 21
17.210500634882578
  0
LINE
  8
_0-0_
  6
CONTINUOUS
 62
    7
 10
10.464327205831751
 20
17.500278382769125
 11
10.464327205831751
 21
22.039882189981768
  0
LINE
  8
_0-0_
  6
CONTINUOUS
 62
    7
 10
10.241972919362752
 20
22.329659937868541
 11
9.1866814923012043
 21
22.612424423528978
  0
LINE
  8
_0-0_
  6
CONTINUOUS
 62
    7
 10
8.9643272058317507
 20
22.902202171415979
 11
8.9643272058317507
 21
24.370080286375583
  0
LINE
  8
_0-0_
  6
CONTINUOUS
 62
    7
 10
9.2643272058319326
 20
24.670080286375537
 11
18.264327205831933
 21
24.670080286375537
  0
LINE
  8
_0-0_
  6
CONTINUOUS
 62
    7
 10
18.564327205831887
 20
24.370080286375583
 11
18.564327205831887
 21
22.902202171415979
  0
LINE
  8
_0-0_
  6
CONTINUOUS
 62
    7
 10
18.341972919362661
 20
22.612424423528978
 11
17.286681492301113
 21
22.329659937868541
  0
LINE
  8
_0-0_
  6
CONTINUOUS
 62
    7
 10
17.064327205831887
 20
22.039882189981768
 11
17.064327205831887
 21
17.500278382769125
  0
LINE
  8
_0-0_
  6
CONTINUOUS
 62
    7
 10
17.286681492301113
 20
17.210500634882578
 11
18.341972919362661
 21
16.927736149221914
  0
LINE
  8
_0-0_
  6
CONTINUOUS
 62
    7
 10
18.564327205831887
 20
16.63795840133514
 11
18.564327205831887
 21
15.17008028637531
  0
LINE
  8
_0-0_
  6
CONTINUOUS
 62
    7
 10
18.264327205831933
 20
14.870080286375583
 11
9.2643272058319326
 21
14.870080286375583
  0
LINE
  8
_0-0_
  6
CONTINUOUS
 62
    7
 10
20.064327205832114
 20
14.074243342409318
 11
20.064327205832114
 21
26.158305385766539
  0
LINE
  8
_0-0_
  6
CONTINUOUS
 62
    7
 10
20.152195171476023
 20
26.370437420122585
 11
21.456001093763462
 21
27.674243342409909
  0
LINE
  8
_0-0_
  6
CONTINUOUS
 62
    7
 10
21.880265162475325
 20
27.674243342409909
 11
24.776459240187933
 21
24.778049264697302
  0
LINE
  8
_0-0_
  6
CONTINUOUS
 62
    7
 10
24.864327205832069
 20
24.56591723034137
 11
24.864327205832069
 21
8.9700802863754916
  0
LINE
  8
_0-0_
  6
CONTINUOUS
 62
    7
 10
24.564327205832114
 20
8.6700802863754234
 11
21.464327205831978
 21
8.6700802863754234
  0
LINE
  8
_0-0_
  6
CONTINUOUS
 62
    7
 10
21.164327205832024
 20
8.9700802863754916
 11
21.164327205832024
 21
12.725715204985704
  0
LINE
  8
_0-0_
  6
CONTINUOUS
 62
    7
 10
21.076459240187887
 20
12.937847239341636
 11
20.152195171476023
 21
13.862111308053386
  0
LINE
  8
_0-0_
  6
CONTINUOUS
 62
    7
 10
13.992040063084914
 20
26.070080286375628
 11
8.068490261865918
 21
26.070080286375628
  0
LINE
  8
_0-0_
  6
CONTINUOUS
 62
    7
 10
7.8563582275100998
 20
26.157948252019537
 11
6.9320941587980087
 21
27.082212320731401
  0
LINE
  8
_0-0_
  6
CONTINUOUS
 62
    7
 10
6.7199621244419632
 20
27.170080286375423
 11
2.9643272058319781
 21
27.170080286375423
  0
LINE
  8
_0-0_
  6
CONTINUOUS
 62
    7
 10
2.6643272058320235
 20
27.470080286375492
 11
2.6643272058320235
 21
34.921256289668577
  0
LINE
  8
_0-0_
  6
CONTINUOUS
 62
    7
 10
2.7521951714759325
 20
35.133388324024622
 11
8.3745256418123972
 21
40.75571879436086
  0
LINE
  8
_0-0_
  6
CONTINUOUS
 62
    7
 10
8.798789710524261
 20
40.75571879436086
 11
10.990820732202565
 21
38.563687772682783
  0
LINE
  8
_0-0_
  6
CONTINUOUS
 62
    7
 10
10.990820732202565
 20
38.139423703970806
 11
8.3351858135922612
 21
35.483788785360616
  0
LINE
  8
_0-0_
  6
CONTINUOUS
 62
    7
 10
8.2473178479483522
 20
35.271656751004571
 11
8.2473178479483522
 21
32.663330638936031
  0
LINE
  8
_0-0_
  6
CONTINUOUS
 62
    7
 10
8.3351858135922612
 20
32.4511986045801
 11
14.20417209744096
 21
26.582212320731514
  0
ARC
  8
_0-0_
  6
CONTINUOUS
 62
    7
 10
8.5866576761684428
 20
40.543586760004814
 40
0.2999999999999999
 50
45
 51
135.00000000000003
  0
ARC
  8
_0-0_
  6
CONTINUOUS
 62
    7
 10
8.5866576761684428
 20
41.533536253666057
 40
1
 50
44.999999999999844
 51
134.99999999999994
  0
ARC
  8
_0-0_
  6
CONTINUOUS
 62
    7
 10
10.778688697846746
 20
38.351555738326738
 40
0.2999999999999999
 50
314.99999999999994
 51
45.000000000003247
  0
ARC
  8
_0-0_
  6
CONTINUOUS
 62
    7
 10
14.455643960016459
 20
36.654499463478942
 40
0.2999999999999999
 50
315
 51
45
  0
ARC
  8
_0-0_
  6
CONTINUOUS
 62
    7
 10
13.607115822592959
 20
35.805971326055101
 40
0.2999999999999999
 50
225
 51
315
  0
ARC
  8
_0-0_
  6
CONTINUOUS
 62
    7
 10
11.91005954774505
 20
36.654499463479169
 40
0.2999999999999999
 50
45
 51
135
  0
ARC
  8
_0-0_
  6
CONTINUOUS
 62
    7
 10
9.9473178479481703
 20
34.691757763682176
 40
0.2999999999999999
 50
135
 51
180
  0
ARC
  8
_0-0_
  6
CONTINUOUS
 62
    7
 10
9.9473178479481703
 20
33.243229626258085
 40
0.2999999999999999
 50
180.00000000000037
 51
225
  0
ARC
  8
_0-0_
  6
CONTINUOUS
 62
    7
 10
2.9643272058322054
 20
34.921256289668577
 40
0.2999999999999999
 50
135.00000000000006
 51
179.99999999999997
  0
ARC
  8
_0-0_
  6
CONTINUOUS
 62
    7
 10
2.2643272058319326
 20
35.211205783329774
 40
1
 50
135
 51
180
  0
ARC
  8
_0-0_
  6
CONTINUOUS
 62
    7
 10
8.5473178479483067
 20
35.271656751004571
 40
0.2999999999999999
 50
135
 51
180
  0
ARC
  8
_0-0_
  6
CONTINUOUS
 62
    7
 10
19.971076853271597
 20
31.139066570223918
 40
0.2999999999999999
 50
45
 51
135
  0
ARC
  8
_0-0_
  6
CONTINUOUS
 62
    7
 10
8.5473178479483067
 20
32.663330638936031
 40
0.2999999999999999
 50
180
 51
224.99999999999994
  0
ARC
  8
_0-0_
  6
CONTINUOUS
 62
    7
 10
19.12254871584787
 20
30.290538432800076
 40
0.2999999999999999
 50
135
 51
225
  0
ARC
  8
_0-0_
  6
CONTINUOUS
 62
    7
 10
19.971076853271825
 20
28.593482157952394
 40
0.2999999999999999
 50
315
 51
45
  0
ARC
  8
_0-0_
  6
CONTINUOUS
 62
    7
 10
18.008335153474718
 20
26.630740458155401
 40
0.2999999999999999
 50
269.99999999999966
 51
315
  0
ARC
  8
_0-0_
  6
CONTINUOUS
 62
    7
 10
16.559807016051082
 20
26.630740458155742
 40
0.2999999999999999
 50
225
 51
270
  0
ARC
  8
_0-0_
  6
CONTINUOUS
 62
    7
 10
6.1400631371200234
 20
25.470080286375492
 40
0.2999999999999999
 50
44.999999999999645
 51
90.000000000000028
  0
ARC
  8
_0-0_
  6
CONTINUOUS
 62
    7
 10
3.3643272058318416
 20
25.470080286375492
 40
0.2999999999999999
 50
90
 51
180
  0
ARC
  8
_0-0_
  6
CONTINUOUS
 62
    7
 10
13.992040063084914
 20
26.370080286375583
 40
0.2999999999999999
 50
270
 51
45
  0
ARC
  8
_0-0_
  6
CONTINUOUS
 62
    7
 10
8.068490261865918
 20
26.370080286375583
 40
0.2999999999999999
 50
225.00000000000637
 51
270
  0
ARC
  8
_0-0_
  6
CONTINUOUS
 62
    7
 10
20.364327205832069
 20
26.158305385766539
 40
0.2999999999999999
 50
134.9999999999998
 51
180
  0
ARC
  8
_0-0_
  6
CONTINUOUS
 62
    7
 10
21.668133128119507
 20
27.462111308053977
 40
0.2999999999999999
 50
45
 51
134.9999999999998
  0
ARC
  8
_0-0_
  6
CONTINUOUS
 62
    7
 10
2.9643272058319781
 20
27.470080286375492
 40
0.2999999999999999
 50
180
 51
270
  0
ARC
  8
_0-0_
  6
CONTINUOUS
 62
    7
 10
6.7199621244419632
 20
26.870080286375469
 40
0.2999999999999999
 50
45.000000000006665
 51
90
  0
ARC
  8
_0-0_
  6
CONTINUOUS
 62
    7
 10
18.264327205831933
 20
24.370080286375583
 40
0.2999999999999999
 50
0
 51
90
  0
ARC
  8
_0-0_
  6
CONTINUOUS
 62
    7
 10
18.264327205831933
 20
22.902202171415979
 40
0.2999999999999999
 50
285
 51
0
  0
ARC
  8
_0-0_
  6
CONTINUOUS
 62
    7
 10
9.2643272058319326
 20
22.902202171415979
 40
0.2999999999999999
 50
180
 51
254.9999999999998
  0
ARC
  8
_0-0_
  6
CONTINUOUS
 62
    7
 10
9.2643272058319326
 20
24.370080286375583
 40
0.2999999999999999
 50
90
 51
180
  0
ARC
  8
_0-0_
  6
CONTINUOUS
 62
    7
 10
1.5643272058318871
 20
23.670080286375537
 40
0.2999999999999999
 50
180
 51
270
  0
ARC
  8
_0-0_
  6
CONTINUOUS
 62
    7
 10
2.7643272058319326
 20
23.670080286375537
 40
0.2999999999999999
 50
270
 51
0
  0
ARC
  8
_0-0_
  6
CONTINUOUS
 62
    7
 10
7.1643272058315688
 20
24.445816217663491
 40
0.2999999999999999
 50
0
 51
45
  0
ARC
  8
_0-0_
  6
CONTINUOUS
 62
    7
 10
25.264327205831933
 20
24.85586672400234
 40
1
 50
0
 51
44.999999999999872
  0
ARC
  8
_0-0_
  6
CONTINUOUS
 62
    7
 10
24.564327205832114
 20
24.56591723034137
 40
0.2999999999999999
 50
0
 51
45
  0
ARC
  8
_0-0_
  6
CONTINUOUS
 62
    7
 10
17.364327205831842
 20
22.039882189981768
 40
0.2999999999999999
 50
105.00000000000021
 51
180.00000000000006
  0
ARC
  8
_0-0_
  6
CONTINUOUS
 62
    7
 10
10.164327205832024
 20
22.039882189981768
 40
0.2999999999999999
 50
0
 51
75
  0
ARC
  8
_0-0_
  6
CONTINUOUS
 62
    7
 10
17.364327205831842
 20
17.500278382769125
 40
0.2999999999999999
 50
180
 51
255.00000000000003
  0
ARC
  8
_0-0_
  6
CONTINUOUS
 62
    7
 10
18.264327205831933
 20
16.63795840133514
 40
0.2999999999999999
 50
0
 51
74.999999999999815
  0
ARC
  8
_0-0_
  6
CONTINUOUS
 62
    7
 10
9.2643272058319326
 20
16.63795840133514
 40
0.2999999999999999
 50
104.99999999999997
 51
180
  0
ARC
  8
_0-0_
  6
CONTINUOUS
 62
    7
 10
10.164327205832024
 20
17.500278382769125
 40
0.2999999999999999
 50
285.00000000000017
 51
0.0000000000000763
  0
ARC
  8
_0-0_
  6
CONTINUOUS
 62
    7
 10
1.5643272058318871
 20
15.870080286375355
 40
0.2999999999999999
 50
90
 51
180
  0
ARC
  8
_0-0_
  6
CONTINUOUS
 62
    7
 10
2.7643272058319326
 20
15.870080286375583
 40
0.2999999999999999
 50
0
 51
90
  0
ARC
  8
_0-0_
  6
CONTINUOUS
 62
    7
 10
18.264327205831933
 20
15.17008028637531
 40
0.2999999999999999
 50
270
 51
0
  0
ARC
  8
_0-0_
  6
CONTINUOUS
 62
    7
 10
9.2643272058319326
 20
15.17008028637531
 40
0.2999999999999999
 50
180
 51
270
  0
ARC
  8
_0-0_
  6
CONTINUOUS
 62
    7
 10
18.440063137119978
 20
13.170080286375082
 40
0.2999999999999999
 50
45.000000000000384
 51
90
  0
ARC
  8
_0-0_
  6
CONTINUOUS
 62
    7
 10
9.0885912745438873
 20
13.170080286375082
 40
0.2999999999999999
 50
90
 51
135
  0
ARC
  8
_0-0_
  6
CONTINUOUS
 62
    7
 10
3.3643272058318416
 20
14.070080286375401
 40
0.2999999999999999
 50
180
 51
270
  0
ARC
  8
_0-0_
  6
CONTINUOUS
 62
    7
 10
6.1400631371200234
 20
14.070080286375401
 40
0.2999999999999999
 50
270
 51
315
  0
ARC
  8
_0-0_
  6
CONTINUOUS
 62
    7
 10
7.1643272058315688
 20
15.094344355087401
 40
0.2999999999999999
 50
315.0000000000004
 51
0.0000000000000063
  0
ARC
  8
_0-0_
  6
CONTINUOUS
 62
    7
 10
20.364327205832069
 20
14.074243342409318
 40
0.2999999999999999
 50
180
 51
225
  0
ARC
  8
_0-0_
  6
CONTINUOUS
 62
    7
 10
19.464327205831978
 20
12.145816217663537
 40
0.2999999999999999
 50
0
 51
45
  0
ARC
  8
_0-0_
  6
CONTINUOUS
 62
    7
 10
8.0643272058318871
 20
12.145816217663537
 40
0.2999999999999999
 50
134.99999999999963
 51
180.00000000000006
  0
CIRCLE
  8
_0-0_
  6
CONTINUOUS
 62
    7
 10
4.5143272058319326
 20
10.520080286375446
 40
2.1000000000000001
  0
ARC
  8
_0-0_
  6
CONTINUOUS
 62
    7
 10
20.864327205831842
 20
12.725715204985704
 40
0.2999999999999999
 50
0
 51
45
  0
ARC
  8
_0-0_
  6
CONTINUOUS
 62
    7
 10
17.664327205831796
 20
8.7700802863754461
 40
0.2999999999999999
 50
90
 51
180
  0
ARC
  8
_0-0_
  6
CONTINUOUS
 62
    7
 10
19.464327205831978
 20
9.3700802863753552
 40
0.2999999999999999
 50
270
 51
0
  0
ARC
  8
_0-0_
  6
CONTINUOUS
 62
    7
 10
8.0643272058318871
 20
9.3700802863753552
 40
0.2999999999999999
 50
180
 51
270
  0
ARC
  8
_0-0_
  6
CONTINUOUS
 62
    7
 10
9.8643272058318416
 20
8.7700802863754461
 40
0.2999999999999999
 50
0
 51
90
  0
ARC
  8
_0-0_
  6
CONTINUOUS
 62
    7
 10
25.264327205831933
 20
8.2700802863754461
 40
1
 50
270
 51
0
  0
ARC
  8
_0-0_
  6
CONTINUOUS
 62
    7
 10
2.2643272058319326
 20
8.2700802863754461
 40
1
 50
180
 51
270
  0
ARC
  8
_0-0_
  6
CONTINUOUS
 62
    7
 10
21.464327205831978
 20
8.9700802863754916
 40
0.2999999999999999
 50
180
 51
270
  0
ARC
  8
_0-0_
  6
CONTINUOUS
 62
    7
 10
24.564327205832114
 20
8.9700802863754916
 40
0.2999999999999999
 50
270
 51
0
  0
ARC
  8
_0-0_
  6
CONTINUOUS
 62
    7
 10
17.664327205831796
 20
7.5700802863754006
 40
0.2999999999999999
 50
180
 51
270
  0
ARC
  8
_0-0_
  6
CONTINUOUS
 62
    7
 10
9.8643272058318416
 20
7.5700802863754006
 40
0.2999999999999999
 50
270
 51
0
  0
LINE
  8
_0-1_
  6
CENTER2
 62
  152
 10
26.264327205831933
 20
19.770080286375446
 11
1.2643272058319326
 21
19.770080286375446
  0
LINE
  8
_0-1_
  6
CENTER2
 62
  152
 10
13.764327205831933
 20
7.2700802863754461
 11
13.764327205831933
 21
25.449347420072854
  0
ENDSEC
  0
EOF
