  0
SECTION
  2
HEADER
  9
$ACADVER
  1
AC1009
  9
$INSBASE
 10
0
 20
0
 30
0
  9
$EXTMIN
 10
0
 20
0
  9
$EXTMAX
 10
1189
 20
841
  9
$LIMMIN
 10
0
 20
0
  9
$LIMMAX
 10
1189
 20
841
  9
$LTSCALE
 40
1
  0
ENDSEC
  0
SECTION
  2
TABLES
  0
TABLE
  2
LTYPE
 70
     9
  0
LTYPE
  2
CONTINUOUS
 70
    64
  3
実線
 72
    65
 73
     0
 40
0.0
  0
LTYPE
  2
DASHED1
 70
    64
  3
--  --  --  --  --  --  --  --  
 72
    65
 73
     2
 40
2.5
 49
1.25
 49
-1.25
  0
LTYPE
  2
DASHED2
 70
    64
  3
----    ----    ----    ----    
 72
    65
 73
     2
 40
5.0
 49
2.5
 49
-2.5
  0
LTYPE
  2
DASHED3
 70
    64
  3
------  ------  ------  ------  
 72
    65
 73
     2
 40
5.0
 49
3.75
 49
-1.25
  0
LTYPE
  2
CENTER1
 70
    64
  3
----- - ----- - ----- - ----- - 
 72
    65
 73
     4
 40
10.0
 49
6.25
 49
-1.25
 49
1.25
 49
-1.25
  0
LTYPE
  2
CENTER2
 70
    64
  3
----------  --  ----------  --  
 72
    65
 73
     4
 40
20.0
 49
12.5
 49
-2.5
 49
2.5
 49
-2.5
  0
LTYPE
  2
PHANTOM1
 70
    64
  3
--- - - --- - - --- - - --- - - 
 72
    65
 73
     6
 40
10.0
 49
3.25
 49
-1.25
 49
1.25
 49
-1.25
 49
1.25
 49
-1.25
  0
LTYPE
  2
PHANTOM2
 70
    64
  3
--------  -  -  --------  -  -  
 72
    65
 73
     6
 40
20.0
 49
10.0
 49
-2.5
 49
1.25
 49
-2.5
 49
1.25
 49
-2.5
  0
LTYPE
  2
DOT
 70
    64
  3
-   -   -   -   -   -   -   -   
 72
    65
 73
     2
 40
2.5
 49
0.625
 49
-1.875
  0
LTYPE
  2
DUMMY
 70
    64
  3
ダミー
 72
    65
 73
     0
 40
0.0
  0
LTYPE
  2
RAND1
 70
    64
  3
ランダム線1
 72
    65
 73
     4
 40
10.0
 49
1.0
 49
-2.0
 49
3.0
 49
-4.0
  0
LTYPE
  2
RAND2
 70
    64
  3
ランダム線2
 72
    65
 73
     4
 40
14.0
 49
2.0
 49
-3.0
 49
4.0
 49
-5.0
  0
LTYPE
  2
RAND3
 70
    64
  3
ランダム線3
 72
    65
 73
     4
 40
18.0
 49
3.0
 49
-4.0
 49
5.0
 49
-6.0
  0
LTYPE
  2
RAND4
 70
    64
  3
ランダム線4
 72
    65
 73
     4
 40
22.0
 49
4.0
 49
-5.0
 49
6.0
 49
-7.0
  0
LTYPE
  2
RAND5
 70
    64
  3
ランダム線5
 72
    65
 73
     4
 40
26.0
 49
5.0
 49
-6.0
 49
7.0
 49
-8.0
  0
LTYPE
  2
LONG1
 70
    64
  3
----------  --  ----------  --  
 72
    65
 73
     4
 40
40.0
 49
32.5
 49
-2.5
 49
2.5
 49
-2.5
  0
LTYPE
  2
LONG2
 70
    64
  3
--------  -  -  --------  -  -  
 72
    65
 73
     6
 40
40.0
 49
30.0
 49
-2.5
 49
1.25
 49
-2.5
 49
1.25
 49
-2.5
  0
LTYPE
  2
LONG3
 70
    64
  3
+++++++++++++++..+++++++++++++++
 72
    65
 73
     2
 40
40.0
 49
37.5
 49
-2.5
  0
LTYPE
  2
LONG4
 70
    64
  3
+++++++++++++++..+++++++++++++++
 72
    65
 73
     2
 40
80.0
 49
75.0
 49
-5.0
  0
LTYPE
  2
LONG5
 70
    64
  3
----------  --  ----------  --  
 72
    65
 73
     4
 40
60.0
 49
37.5
 49
-7.5
 49
7.5
 49
-7.5
  0
LTYPE
  2
dashed
 70
   64
  3
-------   -------------   ------
 72
   65
 73
    2
 40
7.5
 49
6
 49
-1.5
  0
LTYPE
  2
dashed_spaced
 70
   64
  3
----        --------        ----
 72
   65
 73
    2
 40
12
 49
6
 49
-6
  0
LTYPE
  2
long_dashed_dotted
 70
   64
  3
------------- --- --------------
 72
   65
 73
    4
 40
15.25
 49
12
 49
-1.5
 49
0.25
 49
-1.5
  0
LTYPE
  2
long_dashed_double-dotted
 70
   64
  3
----------- --- --- ------------
 72
   65
 73
    6
 40
17
 49
12
 49
-1.5
 49
0.25
 49
-1.5
 49
0.25
 49
-1.5
  0
LTYPE
  2
long_dashed_triplicate-dotted
 70
   64
  3
--------- --- --- --- ----------
 72
   65
 73
    8
 40
18.75
 49
12
 49
-1.5
 49
0.25
 49
-1.5
 49
0.25
 49
-1.5
 49
0.25
 49
-1.5
  0
LTYPE
  2
dotted
 70
   64
  3
   -       -       -       -    
 72
   65
 73
    2
 40
1.75
 49
0.25
 49
-1.5
  0
LTYPE
  2
chain
 70
   64
  3
-------------- -- --------------
 72
   65
 73
    4
 40
18.5
 49
12
 49
-1.5
 49
3.5
 49
-1.5
  0
LTYPE
  2
chain_double_dash
 70
   64
  3
------------ -- -- -------------
 72
   65
 73
    6
 40
23.5
 49
12
 49
-1.5
 49
3.5
 49
-1.5
 49
3.5
 49
-1.5
  0
LTYPE
  2
dashed_dotted
 70
   64
  3
-----------     -     ----------
 72
   65
 73
    4
 40
9.25
 49
6
 49
-1.5
 49
0.25
 49
-1.5
  0
LTYPE
  2
double-dashed_dotted
 70
   64
  3
------   -----------   -   -----
 72
   65
 73
    6
 40
16.75
 49
6
 49
-1.5
 49
6
 49
-1.5
 49
0.25
 49
-1.5
  0
LTYPE
  2
dashed_double-dotted
 70
   64
  3
---------    -    -    ---------
 72
   65
 73
    6
 40
11
 49
6
 49
-1.5
 49
0.25
 49
-1.5
 49
0.25
 49
-1.5
  0
LTYPE
  2
double-dashed_double-dotted
 70
   64
  3
-----   ---------   -   -   ----
 72
   65
 73
    8
 40
18.5
 49
6
 49
-1.5
 49
6
 49
-1.5
 49
0.25
 49
-1.5
 49
0.25
 49
-1.5
  0
LTYPE
  2
dashed_triplicate-dotted
 70
   64
  3
-------    -    -    -    ------
 72
   65
 73
    8
 40
12.75
 49
6
 49
-1.5
 49
0.25
 49
-1.5
 49
0.25
 49
-1.5
 49
0.25
 49
-1.5
  0
LTYPE
  2
double-dashed_triplicate-dotted
 70
   64
  3
-----  ---------  -  -  -  -----
 72
   65
 73
   10
 40
20.25
 49
6
 49
-1.5
 49
6
 49
-1.5
 49
0.25
 49
-1.5
 49
0.25
 49
-1.5
 49
0.25
 49
-1.5
  0
LTYPE
  2
undefined
 70
   64
  3
--------------------------------
 72
   65
 73
    0
 40
0
  0
ENDTAB
  0
TABLE
  2
STYLE
  5
3
100
AcDbSymbolTable
 70
     1
  0
STYLE
  5
10
100
AcDbSymbolTableRecord
100
AcDbTextStyleTableRecord
  2
STANDARD
 70
     0
 40
0.0
 41
1.0
 50
0.0
 71
     0
 42
0.2
  3
txt
  4
bigfont.shx
  0
STYLE
  5
26
100
AcDbSymbolTableRecord
100
AcDbTextStyleTableRecord
  2
TATEGAKI
 70
    68
 40
0.0
 41
1.0
 50
0.0
 71
     0
 42
1.0
  3
txt
  4
bigfont.shx
  0
ENDTAB
  0
TABLE
  2
LAYER
 70
    4
  0
LAYER
  2
_0-0_
 70
   64
 62
    7
  6
CONTINUOUS
  0
LAYER
  2
_0-1_
 70
   64
 62
    7
  6
CONTINUOUS
  0
LAYER
  2
_0-f_
 70
   64
 62
    7
  6
CONTINUOUS
  0
LAYER
  2
ADD_LINE
 70
   64
 62
    7
  6
CONTINUOUS
  0
ENDTAB
  0
ENDSEC
  0
SECTION
  2
BLOCKS
  0
ENDSEC
  0
SECTION
  2
ENTITIES
  0
TEXT
  8
_0-f_
 62
    7
 10
1.1249482585297983
 20
1.6735606015806752
 40
4.2999999999999998
 41
0.744186046511628
 50
0
  1
F255
  0
LINE
  8
_0-0_
  6
CONTINUOUS
 62
    7
 10
57.739597837699648
 20
24.770766162451423
 11
56.539597837699375
 21
24.770766162451423
  0
LINE
  8
_0-0_
  6
CONTINUOUS
 62
    7
 10
56.239597837699648
 20
25.070766162451605
 11
56.239597837699648
 21
26.870766162451559
  0
LINE
  8
_0-0_
  6
CONTINUOUS
 62
    7
 10
55.939597837699466
 20
27.170766162451514
 11
53.163861906411285
 21
27.170766162451514
  0
LINE
  8
_0-0_
  6
CONTINUOUS
 62
    7
 10
52.951729872055466
 20
27.082898196807378
 11
51.927465803343466
 21
26.058634128095605
  0
LINE
  8
_0-0_
  6
CONTINUOUS
 62
    7
 10
51.839597837699557
 20
25.846502093739559
 11
51.839597837699557
 21
16.495030231163469
  0
LINE
  8
_0-0_
  6
CONTINUOUS
 62
    7
 10
51.927465803343466
 20
16.28289819680765
 11
52.951729872055466
 21
15.25863412809565
  0
LINE
  8
_0-0_
  6
CONTINUOUS
 62
    7
 10
53.163861906411285
 20
15.170766162451514
 11
55.939597837699466
 21
15.170766162451514
  0
LINE
  8
_0-0_
  6
CONTINUOUS
 62
    7
 10
56.239597837699648
 20
15.470766162451469
 11
56.239597837699648
 21
17.27076616245165
  0
LINE
  8
_0-0_
  6
CONTINUOUS
 62
    7
 10
56.539597837699375
 20
17.570766162451605
 11
57.739597837699648
 21
17.570766162451605
  0
LINE
  8
_0-0_
  6
CONTINUOUS
 62
    7
 10
58.039597837699375
 20
17.270766162451423
 11
58.039597837699375
 21
9.670766162451514
  0
LINE
  8
_0-0_
  6
CONTINUOUS
 62
    7
 10
57.039597837699375
 20
8.670766162451514
 11
49.439597837699466
 21
8.670766162451514
  0
LINE
  8
_0-0_
  6
CONTINUOUS
 62
    7
 10
49.139597837699739
 20
8.9707661624516959
 11
49.139597837699739
 21
10.170766162451514
  0
LINE
  8
_0-0_
  6
CONTINUOUS
 62
    7
 10
49.439597837699466
 20
10.470766162451241
 11
51.239597837699648
 21
10.470766162451241
  0
LINE
  8
_0-0_
  6
CONTINUOUS
 62
    7
 10
51.539597837699375
 20
10.770766162451423
 11
51.539597837699375
 21
13.546502093739605
  0
LINE
  8
_0-0_
  6
CONTINUOUS
 62
    7
 10
51.451729872055466
 20
13.758634128095423
 11
50.427465803343466
 21
14.782898196807423
  0
LINE
  8
_0-0_
  6
CONTINUOUS
 62
    7
 10
50.215333768987648
 20
14.870766162451332
 11
45.739597837699648
 21
14.870766162451332
  0
LINE
  8
_0-0_
  6
CONTINUOUS
 62
    7
 10
45.739597837699648
 20
14.870766162451332
 11
45.539597837699375
 21
15.070766162451378
  0
LINE
  8
_0-0_
  6
CONTINUOUS
 62
    7
 10
45.539597837699375
 20
15.070766162451378
 11
45.339597837699557
 21
14.870766162451332
  0
LINE
  8
_0-0_
  6
CONTINUOUS
 62
    7
 10
45.339597837699557
 20
14.870766162451332
 11
40.863861906411557
 21
14.870766162451332
  0
LINE
  8
_0-0_
  6
CONTINUOUS
 62
    7
 10
40.651729872055284
 20
14.782898196807423
 11
39.327465803343557
 21
13.458634128095468
  0
LINE
  8
_0-0_
  6
CONTINUOUS
 62
    7
 10
39.239597837699648
 20
13.246502093739423
 11
39.239597837699648
 21
10.770766162451423
  0
LINE
  8
_0-0_
  6
CONTINUOUS
 62
    7
 10
39.53959783769983
 20
10.470766162451241
 11
41.639597837699284
 21
10.470766162451241
  0
LINE
  8
_0-0_
  6
CONTINUOUS
 62
    7
 10
41.939597837699466
 20
10.170766162451514
 11
41.939597837699466
 21
8.9707661624516959
  0
LINE
  8
_0-0_
  6
CONTINUOUS
 62
    7
 10
41.639597837699739
 20
8.670766162451514
 11
34.439597837699012
 21
8.670766162451514
  0
LINE
  8
_0-0_
  6
CONTINUOUS
 62
    7
 10
34.139597837699284
 20
8.9707661624516959
 11
34.139597837699284
 21
10.170766162451514
  0
LINE
  8
_0-0_
  6
CONTINUOUS
 62
    7
 10
34.439597837699466
 20
10.470766162451241
 11
36.539597837698921
 21
10.470766162451241
  0
LINE
  8
_0-0_
  6
CONTINUOUS
 62
    7
 10
36.839597837699102
 20
10.770766162451423
 11
36.839597837699102
 21
13.246502093739423
  0
LINE
  8
_0-0_
  6
CONTINUOUS
 62
    7
 10
36.751729872055193
 20
13.458634128095468
 11
35.427465803343466
 21
14.782898196807423
  0
LINE
  8
_0-0_
  6
CONTINUOUS
 62
    7
 10
35.215333768987193
 20
14.870766162451332
 11
30.739597837699193
 21
14.870766162451332
  0
LINE
  8
_0-0_
  6
CONTINUOUS
 62
    7
 10
30.739597837699193
 20
14.870766162451332
 11
30.539597837699375
 21
15.070766162451378
  0
LINE
  8
_0-0_
  6
CONTINUOUS
 62
    7
 10
30.539597837699375
 20
15.070766162451378
 11
30.339597837699557
 21
14.870766162451332
  0
LINE
  8
_0-0_
  6
CONTINUOUS
 62
    7
 10
30.339597837699557
 20
14.870766162451332
 11
25.863861906411557
 21
14.870766162451332
  0
LINE
  8
_0-0_
  6
CONTINUOUS
 62
    7
 10
25.651729872055284
 20
14.782898196807423
 11
24.327465803343557
 21
13.458634128095468
  0
LINE
  8
_0-0_
  6
CONTINUOUS
 62
    7
 10
24.239597837699648
 20
13.246502093739423
 11
24.239597837699648
 21
10.770766162451423
  0
LINE
  8
_0-0_
  6
CONTINUOUS
 62
    7
 10
24.53959783769983
 20
10.470766162451241
 11
26.639597837699284
 21
10.470766162451241
  0
LINE
  8
_0-0_
  6
CONTINUOUS
 62
    7
 10
26.939597837699466
 20
10.170766162451514
 11
26.939597837699466
 21
8.9707661624516959
  0
LINE
  8
_0-0_
  6
CONTINUOUS
 62
    7
 10
26.639597837699284
 20
8.670766162451514
 11
19.439597837699012
 21
8.670766162451514
  0
LINE
  8
_0-0_
  6
CONTINUOUS
 62
    7
 10
19.139597837699284
 20
8.9707661624516959
 11
19.139597837699284
 21
10.170766162451514
  0
LINE
  8
_0-0_
  6
CONTINUOUS
 62
    7
 10
19.439597837699466
 20
10.470766162451241
 11
21.539597837698921
 21
10.470766162451241
  0
LINE
  8
_0-0_
  6
CONTINUOUS
 62
    7
 10
21.839597837699102
 20
10.770766162451423
 11
21.839597837699102
 21
13.246502093739423
  0
LINE
  8
_0-0_
  6
CONTINUOUS
 62
    7
 10
21.751729872055193
 20
13.458634128095582
 11
20.427465803343466
 21
14.782898196807423
  0
LINE
  8
_0-0_
  6
CONTINUOUS
 62
    7
 10
20.215333768987193
 20
14.870766162451332
 11
15.739597837699193
 21
14.870766162451332
  0
LINE
  8
_0-0_
  6
CONTINUOUS
 62
    7
 10
15.739597837699193
 20
14.870766162451332
 11
15.539597837699375
 21
15.070766162451378
  0
LINE
  8
_0-0_
  6
CONTINUOUS
 62
    7
 10
15.539597837699375
 20
15.070766162451378
 11
15.339597837699102
 21
14.870766162451332
  0
LINE
  8
_0-0_
  6
CONTINUOUS
 62
    7
 10
15.339597837699102
 20
14.870766162451332
 11
10.863861906411103
 21
14.870766162451332
  0
LINE
  8
_0-0_
  6
CONTINUOUS
 62
    7
 10
10.651729872055284
 20
14.782898196807423
 11
9.6274658033432843
 21
13.758634128095423
  0
LINE
  8
_0-0_
  6
CONTINUOUS
 62
    7
 10
9.5395978376993753
 20
13.546502093739605
 11
9.5395978376993753
 21
10.770766162451423
  0
LINE
  8
_0-0_
  6
CONTINUOUS
 62
    7
 10
9.8395978376991025
 20
10.470766162451241
 11
11.639597837699284
 21
10.470766162451241
  0
LINE
  8
_0-0_
  6
CONTINUOUS
 62
    7
 10
11.939597837699012
 20
10.170766162451514
 11
11.939597837699012
 21
8.9707661624516959
  0
LINE
  8
_0-0_
  6
CONTINUOUS
 62
    7
 10
11.639597837699284
 20
8.670766162451514
 11
4.0395978376993753
 21
8.670766162451514
  0
LINE
  8
_0-0_
  6
CONTINUOUS
 62
    7
 10
3.0395978376993753
 20
9.670766162451514
 11
3.0395978376993753
 21
17.270766162451423
  0
LINE
  8
_0-0_
  6
CONTINUOUS
 62
    7
 10
3.3395978376991025
 20
17.570766162451605
 11
4.5395978376993753
 21
17.570766162451605
  0
LINE
  8
_0-0_
  6
CONTINUOUS
 62
    7
 10
4.8395978376991025
 20
17.27076616245165
 11
4.8395978376991025
 21
15.470766162451469
  0
LINE
  8
_0-0_
  6
CONTINUOUS
 62
    7
 10
5.1395978376992844
 20
15.170766162451514
 11
7.9153337689874661
 21
15.170766162451514
  0
LINE
  8
_0-0_
  6
CONTINUOUS
 62
    7
 10
8.1274658033432843
 20
15.25863412809565
 11
9.1517298720552844
 21
16.28289819680765
  0
LINE
  8
_0-0_
  6
CONTINUOUS
 62
    7
 10
9.2395978376991934
 20
16.495030231163469
 11
9.2395978376991934
 21
25.846502093739559
  0
LINE
  8
_0-0_
  6
CONTINUOUS
 62
    7
 10
9.1517298720552844
 20
26.058634128095605
 11
8.1274658033432843
 21
27.082898196807378
  0
LINE
  8
_0-0_
  6
CONTINUOUS
 62
    7
 10
7.9153337689874661
 20
27.170766162451514
 11
5.1395978376992844
 21
27.170766162451514
  0
LINE
  8
_0-0_
  6
CONTINUOUS
 62
    7
 10
4.8395978376991025
 20
26.870766162451559
 11
4.8395978376991025
 21
25.070766162451605
  0
LINE
  8
_0-0_
  6
CONTINUOUS
 62
    7
 10
4.5395978376993753
 20
24.770766162451423
 11
3.3395978376991025
 21
24.770766162451423
  0
LINE
  8
_0-0_
  6
CONTINUOUS
 62
    7
 10
3.0395978376993753
 20
25.070766162451605
 11
3.0395978376993753
 21
32.670766162451514
  0
LINE
  8
_0-0_
  6
CONTINUOUS
 62
    7
 10
4.0395978376993753
 20
33.670766162451514
 11
11.639597837699284
 21
33.670766162451514
  0
LINE
  8
_0-0_
  6
CONTINUOUS
 62
    7
 10
11.939597837699012
 20
33.370766162451559
 11
11.939597837699012
 21
32.170766162451514
  0
LINE
  8
_0-0_
  6
CONTINUOUS
 62
    7
 10
11.639597837699284
 20
31.870766162451787
 11
9.8395978376991025
 21
31.870766162451787
  0
LINE
  8
_0-0_
  6
CONTINUOUS
 62
    7
 10
9.5395978376993753
 20
31.570766162451605
 11
9.5395978376993753
 21
28.795030231163423
  0
LINE
  8
_0-0_
  6
CONTINUOUS
 62
    7
 10
9.6274658033432843
 20
28.582898196807605
 11
10.651729872055284
 21
27.558634128095605
  0
LINE
  8
_0-0_
  6
CONTINUOUS
 62
    7
 10
10.863861906411103
 20
27.470766162451696
 11
15.339597837699102
 21
27.470766162451696
  0
LINE
  8
_0-0_
  6
CONTINUOUS
 62
    7
 10
15.339597837699102
 20
27.470766162451696
 11
15.539597837699375
 21
27.27076616245165
  0
LINE
  8
_0-0_
  6
CONTINUOUS
 62
    7
 10
15.539597837699375
 20
27.27076616245165
 11
15.739597837699193
 21
27.470766162451696
  0
LINE
  8
_0-0_
  6
CONTINUOUS
 62
    7
 10
15.739597837699193
 20
27.470766162451696
 11
20.215333768987193
 21
27.470766162451696
  0
LINE
  8
_0-0_
  6
CONTINUOUS
 62
    7
 10
20.427465803343011
 20
27.558634128095605
 11
21.751729872055193
 21
28.88289819680756
  0
LINE
  8
_0-0_
  6
CONTINUOUS
 62
    7
 10
21.839597837699102
 20
29.095030231163605
 11
21.839597837699102
 21
31.570766162451832
  0
LINE
  8
_0-0_
  6
CONTINUOUS
 62
    7
 10
21.539597837698921
 20
31.870766162451787
 11
19.439597837699012
 21
31.870766162451787
  0
LINE
  8
_0-0_
  6
CONTINUOUS
 62
    7
 10
19.139597837699284
 20
32.170766162451514
 11
19.139597837699284
 21
33.370766162451559
  0
LINE
  8
_0-0_
  6
CONTINUOUS
 62
    7
 10
19.439597837699012
 20
33.670766162451514
 11
26.639597837699284
 21
33.670766162451514
  0
LINE
  8
_0-0_
  6
CONTINUOUS
 62
    7
 10
26.939597837699466
 20
33.370766162451559
 11
26.939597837699466
 21
32.170766162451514
  0
LINE
  8
_0-0_
  6
CONTINUOUS
 62
    7
 10
26.639597837699739
 20
31.870766162451787
 11
24.53959783769983
 21
31.870766162451787
  0
LINE
  8
_0-0_
  6
CONTINUOUS
 62
    7
 10
24.239597837699648
 20
31.570766162451832
 11
24.239597837699648
 21
29.095030231163605
  0
LINE
  8
_0-0_
  6
CONTINUOUS
 62
    7
 10
24.327465803343557
 20
28.88289819680756
 11
25.651729872055739
 21
27.558634128095605
  0
LINE
  8
_0-0_
  6
CONTINUOUS
 62
    7
 10
25.863861906411557
 20
27.470766162451696
 11
30.339597837699557
 21
27.470766162451696
  0
LINE
  8
_0-0_
  6
CONTINUOUS
 62
    7
 10
30.339597837699557
 20
27.470766162451696
 11
30.539597837699375
 21
27.27076616245165
  0
LINE
  8
_0-0_
  6
CONTINUOUS
 62
    7
 10
30.539597837699375
 20
27.27076616245165
 11
30.739597837699193
 21
27.470766162451696
  0
LINE
  8
_0-0_
  6
CONTINUOUS
 62
    7
 10
30.739597837699193
 20
27.470766162451696
 11
35.215333768987193
 21
27.470766162451696
  0
LINE
  8
_0-0_
  6
CONTINUOUS
 62
    7
 10
35.427465803343011
 20
27.558634128095605
 11
36.751729872055193
 21
28.88289819680756
  0
LINE
  8
_0-0_
  6
CONTINUOUS
 62
    7
 10
36.839597837699102
 20
29.095030231163605
 11
36.839597837699102
 21
31.570766162451832
  0
LINE
  8
_0-0_
  6
CONTINUOUS
 62
    7
 10
36.539597837698921
 20
31.870766162451787
 11
34.439597837699012
 21
31.870766162451787
  0
LINE
  8
_0-0_
  6
CONTINUOUS
 62
    7
 10
34.139597837699284
 20
32.170766162451514
 11
34.139597837699284
 21
33.370766162451559
  0
LINE
  8
_0-0_
  6
CONTINUOUS
 62
    7
 10
34.439597837699012
 20
33.670766162451514
 11
41.639597837699739
 21
33.670766162451514
  0
LINE
  8
_0-0_
  6
CONTINUOUS
 62
    7
 10
41.939597837699466
 20
33.370766162451559
 11
41.939597837699466
 21
32.170766162451514
  0
LINE
  8
_0-0_
  6
CONTINUOUS
 62
    7
 10
41.639597837699739
 20
31.870766162451787
 11
39.53959783769983
 21
31.870766162451787
  0
LINE
  8
_0-0_
  6
CONTINUOUS
 62
    7
 10
39.239597837699648
 20
31.570766162451832
 11
39.239597837699648
 21
29.095030231163605
  0
LINE
  8
_0-0_
  6
CONTINUOUS
 62
    7
 10
39.327465803343557
 20
28.88289819680756
 11
40.651729872055739
 21
27.558634128095605
  0
LINE
  8
_0-0_
  6
CONTINUOUS
 62
    7
 10
40.863861906411557
 20
27.470766162451696
 11
45.339597837699557
 21
27.470766162451696
  0
LINE
  8
_0-0_
  6
CONTINUOUS
 62
    7
 10
45.339597837699557
 20
27.470766162451696
 11
45.539597837699375
 21
27.27076616245165
  0
LINE
  8
_0-0_
  6
CONTINUOUS
 62
    7
 10
45.539597837699375
 20
27.27076616245165
 11
45.739597837699648
 21
27.470766162451696
  0
LINE
  8
_0-0_
  6
CONTINUOUS
 62
    7
 10
45.739597837699648
 20
27.470766162451696
 11
50.215333768987648
 21
27.470766162451696
  0
LINE
  8
_0-0_
  6
CONTINUOUS
 62
    7
 10
50.427465803343466
 20
27.558634128095605
 11
51.451729872055466
 21
28.582898196807605
  0
LINE
  8
_0-0_
  6
CONTINUOUS
 62
    7
 10
51.539597837699375
 20
28.795030231163423
 11
51.539597837699375
 21
31.570766162451605
  0
LINE
  8
_0-0_
  6
CONTINUOUS
 62
    7
 10
51.239597837699648
 20
31.870766162451787
 11
49.439597837699466
 21
31.870766162451787
  0
LINE
  8
_0-0_
  6
CONTINUOUS
 62
    7
 10
49.139597837699739
 20
32.170766162451514
 11
49.139597837699739
 21
33.370766162451559
  0
LINE
  8
_0-0_
  6
CONTINUOUS
 62
    7
 10
49.439597837699466
 20
33.670766162451514
 11
57.039597837699375
 21
33.670766162451514
  0
LINE
  8
_0-0_
  6
CONTINUOUS
 62
    7
 10
58.039597837699375
 20
32.670766162451514
 11
58.039597837699375
 21
25.070766162451605
  0
LINE
  8
_0-0_
  6
CONTINUOUS
 62
    7
 10
50.439597837699466
 20
25.670766162451514
 11
50.439597837699466
 21
16.670766162451514
  0
LINE
  8
_0-0_
  6
CONTINUOUS
 62
    7
 10
50.139597837699739
 20
16.370766162451559
 11
48.671719722740136
 21
16.370766162451559
  0
LINE
  8
_0-0_
  6
CONTINUOUS
 62
    7
 10
48.381941974853135
 20
16.593120448920786
 11
48.099177489192471
 21
17.648411875982333
  0
LINE
  8
_0-0_
  6
CONTINUOUS
 62
    7
 10
47.809399741305924
 20
17.870766162451559
 11
46.978347294693549
 21
17.870766162451559
  0
LINE
  8
_0-0_
  6
CONTINUOUS
 62
    7
 10
44.100848380705656
 20
17.870766162451559
 11
43.269795934093281
 21
17.870766162451559
  0
LINE
  8
_0-0_
  6
CONTINUOUS
 62
    7
 10
42.980018186206735
 20
17.648411875982333
 11
42.697253700546071
 21
16.593120448920786
  0
LINE
  8
_0-0_
  6
CONTINUOUS
 62
    7
 10
42.40747595265907
 20
16.370766162451559
 11
33.671719722739681
 21
16.370766162451559
  0
LINE
  8
_0-0_
  6
CONTINUOUS
 62
    7
 10
33.38194197485268
 20
16.593120448920786
 11
33.099177489192016
 21
17.648411875982333
  0
LINE
  8
_0-0_
  6
CONTINUOUS
 62
    7
 10
32.809399741305469
 20
17.870766162451559
 11
31.978347294693094
 21
17.870766162451559
  0
LINE
  8
_0-0_
  6
CONTINUOUS
 62
    7
 10
29.100848380705202
 20
17.870766162451559
 11
28.269795934092826
 21
17.870766162451559
  0
LINE
  8
_0-0_
  6
CONTINUOUS
 62
    7
 10
27.98001818620628
 20
17.648411875982333
 11
27.697253700545616
 21
16.593120448920786
  0
LINE
  8
_0-0_
  6
CONTINUOUS
 62
    7
 10
27.407475952658615
 20
16.370766162451559
 11
18.671719722739681
 21
16.370766162451559
  0
LINE
  8
_0-0_
  6
CONTINUOUS
 62
    7
 10
18.38194197485268
 20
16.593120448920786
 11
18.099177489192016
 21
17.648411875982333
  0
LINE
  8
_0-0_
  6
CONTINUOUS
 62
    7
 10
17.809399741305469
 20
17.870766162451559
 11
16.978347294693094
 21
17.870766162451559
  0
LINE
  8
_0-0_
  6
CONTINUOUS
 62
    7
 10
14.100848380705202
 20
17.870766162451559
 11
13.269795934092826
 21
17.870766162451559
  0
LINE
  8
_0-0_
  6
CONTINUOUS
 62
    7
 10
12.98001818620628
 20
17.648411875982333
 11
12.697253700545616
 21
16.593120448920786
  0
LINE
  8
_0-0_
  6
CONTINUOUS
 62
    7
 10
12.407475952658615
 20
16.370766162451559
 11
10.939597837699012
 21
16.370766162451559
  0
LINE
  8
_0-0_
  6
CONTINUOUS
 62
    7
 10
10.639597837699284
 20
16.670766162451514
 11
10.639597837699284
 21
25.670766162451514
  0
LINE
  8
_0-0_
  6
CONTINUOUS
 62
    7
 10
10.939597837699012
 20
25.970766162451696
 11
12.407475952658615
 21
25.970766162451696
  0
LINE
  8
_0-0_
  6
CONTINUOUS
 62
    7
 10
12.697253700545616
 20
25.748411875982242
 11
12.98001818620628
 21
24.693120448920695
  0
LINE
  8
_0-0_
  6
CONTINUOUS
 62
    7
 10
13.269795934092826
 20
24.470766162451696
 11
14.100848380705884
 21
24.470766162451696
  0
LINE
  8
_0-0_
  6
CONTINUOUS
 62
    7
 10
16.978347294692639
 20
24.470766162451696
 11
17.809399741305469
 21
24.470766162451696
  0
LINE
  8
_0-0_
  6
CONTINUOUS
 62
    7
 10
18.099177489192016
 20
24.693120448920695
 11
18.38194197485268
 21
25.748411875982242
  0
LINE
  8
_0-0_
  6
CONTINUOUS
 62
    7
 10
18.671719722739681
 20
25.970766162451469
 11
27.407475952658615
 21
25.970766162451469
  0
LINE
  8
_0-0_
  6
CONTINUOUS
 62
    7
 10
27.697253700545616
 20
25.748411875982242
 11
27.98001818620628
 21
24.693120448920695
  0
LINE
  8
_0-0_
  6
CONTINUOUS
 62
    7
 10
28.269795934092826
 20
24.470766162451696
 11
29.100848380705884
 21
24.470766162451696
  0
LINE
  8
_0-0_
  6
CONTINUOUS
 62
    7
 10
31.978347294692639
 20
24.470766162451696
 11
32.809399741305469
 21
24.470766162451696
  0
LINE
  8
_0-0_
  6
CONTINUOUS
 62
    7
 10
33.099177489192016
 20
24.693120448920695
 11
33.38194197485268
 21
25.748411875982242
  0
LINE
  8
_0-0_
  6
CONTINUOUS
 62
    7
 10
33.671719722739681
 20
25.970766162451469
 11
42.40747595265907
 21
25.970766162451469
  0
LINE
  8
_0-0_
  6
CONTINUOUS
 62
    7
 10
42.697253700546071
 20
25.748411875982242
 11
42.980018186206735
 21
24.693120448920695
  0
LINE
  8
_0-0_
  6
CONTINUOUS
 62
    7
 10
43.269795934093281
 20
24.470766162451696
 11
44.100848380706111
 21
24.470766162451696
  0
LINE
  8
_0-0_
  6
CONTINUOUS
 62
    7
 10
46.978347294692867
 20
24.470766162451696
 11
47.809399741305924
 21
24.470766162451696
  0
LINE
  8
_0-0_
  6
CONTINUOUS
 62
    7
 10
48.099177489192471
 20
24.693120448920695
 11
48.381941974853135
 21
25.748411875982242
  0
LINE
  8
_0-0_
  6
CONTINUOUS
 62
    7
 10
48.671719722740136
 20
25.970766162451696
 11
50.139597837699739
 21
25.970766162451696
  0
ARC
  8
_0-0_
  6
CONTINUOUS
 62
    7
 10
30.539597837699375
 20
21.170766162451514
 40
3.6000000000000001
 50
246.44353569089697
 51
293.55646430910303
  0
ARC
  8
_0-0_
  6
CONTINUOUS
 62
    7
 10
30.539597837699375
 20
21.170766162451514
 40
3.6000000000000001
 50
66.443535690906103
 51
113.55646430909388
  0
ARC
  8
_0-0_
  6
CONTINUOUS
 62
    7
 10
32.809399741305469
 20
24.770766162451423
 40
0.2999999999999999
 50
270
 51
345
  0
ARC
  8
_0-0_
  6
CONTINUOUS
 62
    7
 10
28.269795934092826
 20
24.770766162451423
 40
0.2999999999999999
 50
195.0000000000002
 51
270.00000000000006
  0
ARC
  8
_0-0_
  6
CONTINUOUS
 62
    7
 10
28.269795934092826
 20
17.570766162451605
 40
0.2999999999999999
 50
90
 51
165.00000000000003
  0
ARC
  8
_0-0_
  6
CONTINUOUS
 62
    7
 10
32.809399741305469
 20
17.570766162451605
 40
0.2999999999999999
 50
15.000000000000162
 51
90
  0
ARC
  8
_0-0_
  6
CONTINUOUS
 62
    7
 10
27.407475952658615
 20
25.670766162451514
 40
0.2999999999999999
 50
15.000000000000162
 51
90
  0
ARC
  8
_0-0_
  6
CONTINUOUS
 62
    7
 10
33.671719722739681
 20
25.670766162451514
 40
0.2999999999999999
 50
90
 51
165.00000000000003
  0
ARC
  8
_0-0_
  6
CONTINUOUS
 62
    7
 10
33.671719722739681
 20
16.670766162451514
 40
0.2999999999999999
 50
195.0000000000002
 51
270
  0
ARC
  8
_0-0_
  6
CONTINUOUS
 62
    7
 10
27.407475952658615
 20
16.670766162451514
 40
0.2999999999999999
 50
270
 51
345
  0
ARC
  8
_0-0_
  6
CONTINUOUS
 62
    7
 10
36.539597837698921
 20
13.246502093739423
 40
0.2999999999999999
 50
0
 51
44.999999999993634
  0
ARC
  8
_0-0_
  6
CONTINUOUS
 62
    7
 10
36.539597837698921
 20
10.770766162451423
 40
0.2999999999999999
 50
270
 51
0
  0
ARC
  8
_0-0_
  6
CONTINUOUS
 62
    7
 10
36.539597837698921
 20
31.570766162451832
 40
0.2999999999999999
 50
0
 51
90
  0
ARC
  8
_0-0_
  6
CONTINUOUS
 62
    7
 10
36.539597837698921
 20
29.095030231163605
 40
0.2999999999999999
 50
315
 51
0
  0
ARC
  8
_0-0_
  6
CONTINUOUS
 62
    7
 10
35.215333768987193
 20
14.57076616245115
 40
0.2999999999999999
 50
45
 51
90
  0
ARC
  8
_0-0_
  6
CONTINUOUS
 62
    7
 10
34.439597837699466
 20
10.170766162451514
 40
0.2999999999999999
 50
90
 51
180
  0
ARC
  8
_0-0_
  6
CONTINUOUS
 62
    7
 10
35.215333768987193
 20
27.770766162451878
 40
0.2999999999999999
 50
270
 51
314.99999999999966
  0
ARC
  8
_0-0_
  6
CONTINUOUS
 62
    7
 10
34.439597837699012
 20
32.170766162451514
 40
0.2999999999999999
 50
180
 51
270
  0
ARC
  8
_0-0_
  6
CONTINUOUS
 62
    7
 10
34.439597837699012
 20
33.370766162451559
 40
0.2999999999999999
 50
90
 51
180
  0
ARC
  8
_0-0_
  6
CONTINUOUS
 62
    7
 10
34.439597837699012
 20
8.9707661624516959
 40
0.2999999999999999
 50
180
 51
270
  0
ARC
  8
_0-0_
  6
CONTINUOUS
 62
    7
 10
45.539597837699375
 20
21.170766162451514
 40
3.6000000000000001
 50
246.44353569089697
 51
293.55646430910303
  0
ARC
  8
_0-0_
  6
CONTINUOUS
 62
    7
 10
45.539597837699375
 20
21.170766162451514
 40
3.6000000000000001
 50
66.443535690906117
 51
113.55646430909391
  0
ARC
  8
_0-0_
  6
CONTINUOUS
 62
    7
 10
43.269795934093281
 20
24.770766162451423
 40
0.2999999999999999
 50
194.99999999999997
 51
270
  0
ARC
  8
_0-0_
  6
CONTINUOUS
 62
    7
 10
47.809399741305924
 20
24.770766162451423
 40
0.2999999999999999
 50
269.99999999999994
 51
344.99999999999983
  0
ARC
  8
_0-0_
  6
CONTINUOUS
 62
    7
 10
47.809399741305924
 20
17.570766162451605
 40
0.2999999999999999
 50
14.999999999999982
 51
89.999999999999986
  0
ARC
  8
_0-0_
  6
CONTINUOUS
 62
    7
 10
43.269795934093281
 20
17.570766162451605
 40
0.2999999999999999
 50
90
 51
164.99999999999983
  0
ARC
  8
_0-0_
  6
CONTINUOUS
 62
    7
 10
50.139597837699739
 20
25.670766162451514
 40
0.2999999999999999
 50
0
 51
90
  0
ARC
  8
_0-0_
  6
CONTINUOUS
 62
    7
 10
48.671719722740136
 20
25.670766162451514
 40
0.2999999999999999
 50
90
 51
164.99999999999983
  0
ARC
  8
_0-0_
  6
CONTINUOUS
 62
    7
 10
42.40747595265907
 20
25.670766162451514
 40
0.2999999999999999
 50
14.999999999999982
 51
89.999999999999986
  0
ARC
  8
_0-0_
  6
CONTINUOUS
 62
    7
 10
42.40747595265907
 20
16.670766162451514
 40
0.2999999999999999
 50
270
 51
344.99999999999983
  0
ARC
  8
_0-0_
  6
CONTINUOUS
 62
    7
 10
48.671719722740136
 20
16.670766162451514
 40
0.2999999999999999
 50
194.99999999999997
 51
270
  0
ARC
  8
_0-0_
  6
CONTINUOUS
 62
    7
 10
50.139597837699739
 20
16.670766162451514
 40
0.2999999999999999
 50
270
 51
0
  0
ARC
  8
_0-0_
  6
CONTINUOUS
 62
    7
 10
39.53959783769983
 20
13.246502093739423
 40
0.2999999999999999
 50
135.00000000000639
 51
180.00000000000003
  0
ARC
  8
_0-0_
  6
CONTINUOUS
 62
    7
 10
39.53959783769983
 20
10.770766162451423
 40
0.2999999999999999
 50
180
 51
270
  0
ARC
  8
_0-0_
  6
CONTINUOUS
 62
    7
 10
39.53959783769983
 20
31.570766162451832
 40
0.2999999999999999
 50
90
 51
180
  0
ARC
  8
_0-0_
  6
CONTINUOUS
 62
    7
 10
39.53959783769983
 20
29.095030231163605
 40
0.2999999999999999
 50
180
 51
225
  0
ARC
  8
_0-0_
  6
CONTINUOUS
 62
    7
 10
40.863861906411557
 20
14.57076616245115
 40
0.2999999999999999
 50
90
 51
135
  0
ARC
  8
_0-0_
  6
CONTINUOUS
 62
    7
 10
41.639597837699284
 20
10.170766162451514
 40
0.2999999999999999
 50
0
 51
90
  0
ARC
  8
_0-0_
  6
CONTINUOUS
 62
    7
 10
50.215333768987648
 20
14.57076616245115
 40
0.2999999999999999
 50
45.000000000000384
 51
90
  0
ARC
  8
_0-0_
  6
CONTINUOUS
 62
    7
 10
51.239597837699648
 20
13.546502093739605
 40
0.2999999999999999
 50
0
 51
45
  0
ARC
  8
_0-0_
  6
CONTINUOUS
 62
    7
 10
51.239597837699648
 20
10.770766162451423
 40
0.2999999999999999
 50
270
 51
0
  0
ARC
  8
_0-0_
  6
CONTINUOUS
 62
    7
 10
49.439597837699466
 20
10.170766162451514
 40
0.2999999999999999
 50
90
 51
180
  0
ARC
  8
_0-0_
  6
CONTINUOUS
 62
    7
 10
50.215333768987648
 20
27.770766162451878
 40
0.2999999999999999
 50
270
 51
315
  0
ARC
  8
_0-0_
  6
CONTINUOUS
 62
    7
 10
49.439597837699466
 20
32.170766162451514
 40
0.2999999999999999
 50
180
 51
270
  0
ARC
  8
_0-0_
  6
CONTINUOUS
 62
    7
 10
51.239597837699648
 20
31.570766162451605
 40
0.2999999999999999
 50
0
 51
90
  0
ARC
  8
_0-0_
  6
CONTINUOUS
 62
    7
 10
51.239597837699648
 20
28.795030231163423
 40
0.2999999999999999
 50
314.99999999999966
 51
0
  0
ARC
  8
_0-0_
  6
CONTINUOUS
 62
    7
 10
40.863861906411557
 20
27.770766162451878
 40
0.2999999999999999
 50
225.00000000000037
 51
270
  0
ARC
  8
_0-0_
  6
CONTINUOUS
 62
    7
 10
41.639597837699739
 20
32.170766162451514
 40
0.2999999999999999
 50
270
 51
0
  0
ARC
  8
_0-0_
  6
CONTINUOUS
 62
    7
 10
49.439597837699466
 20
33.370766162451559
 40
0.2999999999999999
 50
90
 51
180
  0
ARC
  8
_0-0_
  6
CONTINUOUS
 62
    7
 10
41.639597837699739
 20
33.370766162451559
 40
0.2999999999999999
 50
0
 51
90
  0
ARC
  8
_0-0_
  6
CONTINUOUS
 62
    7
 10
41.639597837699739
 20
8.9707661624516959
 40
0.2999999999999999
 50
270
 51
0
  0
ARC
  8
_0-0_
  6
CONTINUOUS
 62
    7
 10
49.439597837699466
 20
8.9707661624516959
 40
0.2999999999999999
 50
180
 51
270
  0
CIRCLE
  8
_0-0_
  6
CONTINUOUS
 62
    7
 10
54.789597837699375
 20
30.420766162451514
 40
2.1000000000000001
  0
CIRCLE
  8
_0-0_
  6
CONTINUOUS
 62
    7
 10
54.789597837699375
 20
11.920766162451514
 40
2.1000000000000001
  0
ARC
  8
_0-0_
  6
CONTINUOUS
 62
    7
 10
52.139597837699739
 20
25.846502093739559
 40
0.2999999999999999
 50
135
 51
180
  0
ARC
  8
_0-0_
  6
CONTINUOUS
 62
    7
 10
56.539597837699375
 20
25.070766162451605
 40
0.2999999999999999
 50
180
 51
270
  0
ARC
  8
_0-0_
  6
CONTINUOUS
 62
    7
 10
55.939597837699466
 20
26.870766162451559
 40
0.2999999999999999
 50
0
 51
90
  0
ARC
  8
_0-0_
  6
CONTINUOUS
 62
    7
 10
53.163861906411285
 20
26.870766162451559
 40
0.2999999999999999
 50
89.999999999999972
 51
135.00000000000037
  0
ARC
  8
_0-0_
  6
CONTINUOUS
 62
    7
 10
52.139597837699739
 20
16.495030231163469
 40
0.2999999999999999
 50
180
 51
224.99999999999963
  0
ARC
  8
_0-0_
  6
CONTINUOUS
 62
    7
 10
53.163861906411285
 20
15.470766162451469
 40
0.2999999999999999
 50
225
 51
270
  0
ARC
  8
_0-0_
  6
CONTINUOUS
 62
    7
 10
55.939597837699466
 20
15.470766162451469
 40
0.2999999999999999
 50
270
 51
0
  0
ARC
  8
_0-0_
  6
CONTINUOUS
 62
    7
 10
56.539597837699375
 20
17.27076616245165
 40
0.2999999999999999
 50
90
 51
180
  0
ARC
  8
_0-0_
  6
CONTINUOUS
 62
    7
 10
57.739597837699648
 20
25.070766162451605
 40
0.2999999999999999
 50
270
 51
0
  0
ARC
  8
_0-0_
  6
CONTINUOUS
 62
    7
 10
57.739597837699648
 20
17.270766162451423
 40
0.2999999999999999
 50
0
 51
90
  0
ARC
  8
_0-0_
  6
CONTINUOUS
 62
    7
 10
57.039597837699375
 20
32.670766162451514
 40
1
 50
0
 51
90
  0
ARC
  8
_0-0_
  6
CONTINUOUS
 62
    7
 10
57.039597837699375
 20
9.670766162451514
 40
1
 50
270
 51
0
  0
ARC
  8
_0-0_
  6
CONTINUOUS
 62
    7
 10
15.539597837699375
 20
21.170766162451514
 40
3.6000000000000001
 50
246.44353569089697
 51
293.55646430910303
  0
ARC
  8
_0-0_
  6
CONTINUOUS
 62
    7
 10
15.539597837699375
 20
21.170766162451514
 40
3.6000000000000001
 50
66.443535690906103
 51
113.55646430909388
  0
ARC
  8
_0-0_
  6
CONTINUOUS
 62
    7
 10
17.809399741305469
 20
24.770766162451423
 40
0.2999999999999999
 50
270
 51
345
  0
ARC
  8
_0-0_
  6
CONTINUOUS
 62
    7
 10
13.269795934092826
 20
24.770766162451423
 40
0.2999999999999999
 50
195.0000000000002
 51
270.00000000000006
  0
ARC
  8
_0-0_
  6
CONTINUOUS
 62
    7
 10
13.269795934092826
 20
17.570766162451605
 40
0.2999999999999999
 50
90
 51
165.00000000000003
  0
ARC
  8
_0-0_
  6
CONTINUOUS
 62
    7
 10
17.809399741305469
 20
17.570766162451605
 40
0.2999999999999999
 50
15.000000000000162
 51
90
  0
ARC
  8
_0-0_
  6
CONTINUOUS
 62
    7
 10
10.939597837699012
 20
25.670766162451514
 40
0.2999999999999999
 50
90
 51
180
  0
ARC
  8
_0-0_
  6
CONTINUOUS
 62
    7
 10
12.407475952658615
 20
25.670766162451514
 40
0.2999999999999999
 50
15.000000000000162
 51
90
  0
ARC
  8
_0-0_
  6
CONTINUOUS
 62
    7
 10
18.671719722739681
 20
25.670766162451514
 40
0.2999999999999999
 50
90
 51
165.00000000000003
  0
ARC
  8
_0-0_
  6
CONTINUOUS
 62
    7
 10
18.671719722739681
 20
16.670766162451514
 40
0.2999999999999999
 50
195.0000000000002
 51
270
  0
ARC
  8
_0-0_
  6
CONTINUOUS
 62
    7
 10
12.407475952658615
 20
16.670766162451514
 40
0.2999999999999999
 50
270
 51
345
  0
ARC
  8
_0-0_
  6
CONTINUOUS
 62
    7
 10
10.939597837699012
 20
16.670766162451514
 40
0.2999999999999999
 50
180
 51
270
  0
ARC
  8
_0-0_
  6
CONTINUOUS
 62
    7
 10
21.539597837698921
 20
13.246502093739423
 40
0.2999999999999999
 50
0
 51
44.999999999993634
  0
ARC
  8
_0-0_
  6
CONTINUOUS
 62
    7
 10
21.539597837698921
 20
10.770766162451423
 40
0.2999999999999999
 50
270
 51
0
  0
ARC
  8
_0-0_
  6
CONTINUOUS
 62
    7
 10
21.539597837698921
 20
31.570766162451832
 40
0.2999999999999999
 50
0
 51
90
  0
ARC
  8
_0-0_
  6
CONTINUOUS
 62
    7
 10
21.539597837698921
 20
29.095030231163605
 40
0.2999999999999999
 50
315
 51
0
  0
ARC
  8
_0-0_
  6
CONTINUOUS
 62
    7
 10
20.215333768987193
 20
14.57076616245115
 40
0.2999999999999999
 50
45
 51
90
  0
ARC
  8
_0-0_
  6
CONTINUOUS
 62
    7
 10
19.439597837699466
 20
10.170766162451514
 40
0.2999999999999999
 50
90
 51
180
  0
ARC
  8
_0-0_
  6
CONTINUOUS
 62
    7
 10
10.863861906411103
 20
14.57076616245115
 40
0.2999999999999999
 50
90
 51
134.99999999999963
  0
ARC
  8
_0-0_
  6
CONTINUOUS
 62
    7
 10
9.8395978376991025
 20
13.546502093739605
 40
0.2999999999999999
 50
135
 51
180
  0
ARC
  8
_0-0_
  6
CONTINUOUS
 62
    7
 10
9.8395978376991025
 20
10.770766162451423
 40
0.2999999999999999
 50
180
 51
270
  0
ARC
  8
_0-0_
  6
CONTINUOUS
 62
    7
 10
11.639597837699284
 20
10.170766162451514
 40
0.2999999999999999
 50
0
 51
90
  0
ARC
  8
_0-0_
  6
CONTINUOUS
 62
    7
 10
10.863861906411103
 20
27.770766162451878
 40
0.2999999999999999
 50
225
 51
270
  0
ARC
  8
_0-0_
  6
CONTINUOUS
 62
    7
 10
11.639597837699284
 20
32.170766162451514
 40
0.2999999999999999
 50
270
 51
0
  0
ARC
  8
_0-0_
  6
CONTINUOUS
 62
    7
 10
9.8395978376991025
 20
31.570766162451605
 40
0.2999999999999999
 50
90
 51
180
  0
ARC
  8
_0-0_
  6
CONTINUOUS
 62
    7
 10
9.8395978376991025
 20
28.795030231163423
 40
0.2999999999999999
 50
179.99999999999997
 51
225.00000000000034
  0
ARC
  8
_0-0_
  6
CONTINUOUS
 62
    7
 10
20.215333768987193
 20
27.770766162451878
 40
0.2999999999999999
 50
270
 51
314.99999999999966
  0
ARC
  8
_0-0_
  6
CONTINUOUS
 62
    7
 10
19.439597837699012
 20
32.170766162451514
 40
0.2999999999999999
 50
180
 51
270
  0
ARC
  8
_0-0_
  6
CONTINUOUS
 62
    7
 10
11.639597837699284
 20
33.370766162451559
 40
0.2999999999999999
 50
0
 51
90
  0
ARC
  8
_0-0_
  6
CONTINUOUS
 62
    7
 10
19.439597837699012
 20
33.370766162451559
 40
0.2999999999999999
 50
90
 51
180
  0
ARC
  8
_0-0_
  6
CONTINUOUS
 62
    7
 10
19.439597837699012
 20
8.9707661624516959
 40
0.2999999999999999
 50
180
 51
270
  0
ARC
  8
_0-0_
  6
CONTINUOUS
 62
    7
 10
11.639597837699284
 20
8.9707661624516959
 40
0.2999999999999999
 50
270
 51
0
  0
CIRCLE
  8
_0-0_
  6
CONTINUOUS
 62
    7
 10
6.2895978376993753
 20
30.420766162451514
 40
2.1000000000000001
  0
CIRCLE
  8
_0-0_
  6
CONTINUOUS
 62
    7
 10
6.2895978376993753
 20
11.920766162451514
 40
2.1000000000000001
  0
ARC
  8
_0-0_
  6
CONTINUOUS
 62
    7
 10
8.9395978376990115
 20
25.846502093739559
 40
0.2999999999999999
 50
0
 51
45
  0
ARC
  8
_0-0_
  6
CONTINUOUS
 62
    7
 10
4.5395978376993753
 20
25.070766162451605
 40
0.2999999999999999
 50
270
 51
0
  0
ARC
  8
_0-0_
  6
CONTINUOUS
 62
    7
 10
5.1395978376992844
 20
26.870766162451559
 40
0.2999999999999999
 50
90
 51
180
  0
ARC
  8
_0-0_
  6
CONTINUOUS
 62
    7
 10
7.9153337689874661
 20
26.870766162451559
 40
0.2999999999999999
 50
44.999999999999645
 51
90.000000000000028
  0
ARC
  8
_0-0_
  6
CONTINUOUS
 62
    7
 10
8.9395978376990115
 20
16.495030231163469
 40
0.2999999999999999
 50
315.0000000000004
 51
0.0000000000000063
  0
ARC
  8
_0-0_
  6
CONTINUOUS
 62
    7
 10
7.9153337689874661
 20
15.470766162451469
 40
0.2999999999999999
 50
270
 51
315
  0
ARC
  8
_0-0_
  6
CONTINUOUS
 62
    7
 10
5.1395978376992844
 20
15.470766162451469
 40
0.2999999999999999
 50
180
 51
270
  0
ARC
  8
_0-0_
  6
CONTINUOUS
 62
    7
 10
4.5395978376993753
 20
17.27076616245165
 40
0.2999999999999999
 50
0
 51
90
  0
ARC
  8
_0-0_
  6
CONTINUOUS
 62
    7
 10
3.3395978376991025
 20
25.070766162451605
 40
0.2999999999999999
 50
180
 51
270
  0
ARC
  8
_0-0_
  6
CONTINUOUS
 62
    7
 10
3.3395978376991025
 20
17.270766162451423
 40
0.2999999999999999
 50
90
 51
180
  0
ARC
  8
_0-0_
  6
CONTINUOUS
 62
    7
 10
4.0395978376993753
 20
32.670766162451514
 40
1
 50
90
 51
180
  0
ARC
  8
_0-0_
  6
CONTINUOUS
 62
    7
 10
4.0395978376993753
 20
9.670766162451514
 40
1
 50
180
 51
270
  0
ARC
  8
_0-0_
  6
CONTINUOUS
 62
    7
 10
24.53959783769983
 20
13.246502093739423
 40
0.2999999999999999
 50
135.00000000000639
 51
180.00000000000003
  0
ARC
  8
_0-0_
  6
CONTINUOUS
 62
    7
 10
24.53959783769983
 20
10.770766162451423
 40
0.2999999999999999
 50
180
 51
270
  0
ARC
  8
_0-0_
  6
CONTINUOUS
 62
    7
 10
25.863861906411557
 20
14.57076616245115
 40
0.2999999999999999
 50
90
 51
135
  0
ARC
  8
_0-0_
  6
CONTINUOUS
 62
    7
 10
26.639597837699284
 20
10.170766162451514
 40
0.2999999999999999
 50
0
 51
90
  0
ARC
  8
_0-0_
  6
CONTINUOUS
 62
    7
 10
26.639597837699739
 20
8.9707661624516959
 40
0.2999999999999999
 50
270
 51
0
  0
ARC
  8
_0-0_
  6
CONTINUOUS
 62
    7
 10
24.53959783769983
 20
31.570766162451832
 40
0.2999999999999999
 50
90
 51
180
  0
ARC
  8
_0-0_
  6
CONTINUOUS
 62
    7
 10
24.53959783769983
 20
29.095030231163605
 40
0.2999999999999999
 50
180
 51
225
  0
ARC
  8
_0-0_
  6
CONTINUOUS
 62
    7
 10
25.863861906411557
 20
27.770766162451878
 40
0.2999999999999999
 50
225.00000000000037
 51
270
  0
ARC
  8
_0-0_
  6
CONTINUOUS
 62
    7
 10
26.639597837699739
 20
32.170766162451514
 40
0.2999999999999999
 50
270
 51
0
  0
ARC
  8
_0-0_
  6
CONTINUOUS
 62
    7
 10
26.639597837699739
 20
33.370766162451559
 40
0.2999999999999999
 50
0
 51
90
  0
LINE
  8
_0-1_
  6
CENTER1
 62
  152
 10
58.039597837699375
 20
21.170766162451514
 11
3.0395978376993753
 21
21.170766162451514
  0
LINE
  8
_0-1_
  6
CENTER1
 62
  152
 10
15.539597837699375
 20
8.670766162451514
 11
15.539597837699375
 21
33.670766162451514
  0
LINE
  8
_0-1_
  6
CENTER1
 62
  152
 10
23.039597837699375
 20
33.670766162451514
 11
23.039597837699375
 21
8.670766162451514
  0
LINE
  8
_0-1_
  6
CENTER1
 62
  152
 10
30.539597837699375
 20
8.670766162451514
 11
30.539597837699375
 21
33.670766162451514
  0
LINE
  8
_0-1_
  6
CENTER1
 62
  152
 10
38.039597837699375
 20
33.670766162451514
 11
38.039597837699375
 21
8.670766162451514
  0
LINE
  8
_0-1_
  6
CENTER1
 62
  152
 10
45.539597837699375
 20
8.670766162451514
 11
45.539597837699375
 21
33.670766162451514
  0
ENDSEC
  0
EOF
