  0
SECTION
  2
HEADER
  9
$ACADVER
  1
AC1009
  9
$INSBASE
 10
0
 20
0
 30
0
  9
$EXTMIN
 10
0
 20
0
  9
$EXTMAX
 10
1189
 20
841
  9
$LIMMIN
 10
0
 20
0
  9
$LIMMAX
 10
1189
 20
841
  9
$LTSCALE
 40
1
  0
ENDSEC
  0
SECTION
  2
TABLES
  0
TABLE
  2
LTYPE
 70
     9
  0
LTYPE
  2
CONTINUOUS
 70
    64
  3
実線
 72
    65
 73
     0
 40
0.0
  0
LTYPE
  2
DASHED1
 70
    64
  3
--  --  --  --  --  --  --  --  
 72
    65
 73
     2
 40
2.5
 49
1.25
 49
-1.25
  0
LTYPE
  2
DASHED2
 70
    64
  3
----    ----    ----    ----    
 72
    65
 73
     2
 40
5.0
 49
2.5
 49
-2.5
  0
LTYPE
  2
DASHED3
 70
    64
  3
------  ------  ------  ------  
 72
    65
 73
     2
 40
5.0
 49
3.75
 49
-1.25
  0
LTYPE
  2
CENTER1
 70
    64
  3
----- - ----- - ----- - ----- - 
 72
    65
 73
     4
 40
10.0
 49
6.25
 49
-1.25
 49
1.25
 49
-1.25
  0
LTYPE
  2
CENTER2
 70
    64
  3
----------  --  ----------  --  
 72
    65
 73
     4
 40
20.0
 49
12.5
 49
-2.5
 49
2.5
 49
-2.5
  0
LTYPE
  2
PHANTOM1
 70
    64
  3
--- - - --- - - --- - - --- - - 
 72
    65
 73
     6
 40
10.0
 49
3.25
 49
-1.25
 49
1.25
 49
-1.25
 49
1.25
 49
-1.25
  0
LTYPE
  2
PHANTOM2
 70
    64
  3
--------  -  -  --------  -  -  
 72
    65
 73
     6
 40
20.0
 49
10.0
 49
-2.5
 49
1.25
 49
-2.5
 49
1.25
 49
-2.5
  0
LTYPE
  2
DOT
 70
    64
  3
-   -   -   -   -   -   -   -   
 72
    65
 73
     2
 40
2.5
 49
0.625
 49
-1.875
  0
LTYPE
  2
DUMMY
 70
    64
  3
ダミー
 72
    65
 73
     0
 40
0.0
  0
LTYPE
  2
RAND1
 70
    64
  3
ランダム線1
 72
    65
 73
     4
 40
10.0
 49
1.0
 49
-2.0
 49
3.0
 49
-4.0
  0
LTYPE
  2
RAND2
 70
    64
  3
ランダム線2
 72
    65
 73
     4
 40
14.0
 49
2.0
 49
-3.0
 49
4.0
 49
-5.0
  0
LTYPE
  2
RAND3
 70
    64
  3
ランダム線3
 72
    65
 73
     4
 40
18.0
 49
3.0
 49
-4.0
 49
5.0
 49
-6.0
  0
LTYPE
  2
RAND4
 70
    64
  3
ランダム線4
 72
    65
 73
     4
 40
22.0
 49
4.0
 49
-5.0
 49
6.0
 49
-7.0
  0
LTYPE
  2
RAND5
 70
    64
  3
ランダム線5
 72
    65
 73
     4
 40
26.0
 49
5.0
 49
-6.0
 49
7.0
 49
-8.0
  0
LTYPE
  2
LONG1
 70
    64
  3
----------  --  ----------  --  
 72
    65
 73
     4
 40
40.0
 49
32.5
 49
-2.5
 49
2.5
 49
-2.5
  0
LTYPE
  2
LONG2
 70
    64
  3
--------  -  -  --------  -  -  
 72
    65
 73
     6
 40
40.0
 49
30.0
 49
-2.5
 49
1.25
 49
-2.5
 49
1.25
 49
-2.5
  0
LTYPE
  2
LONG3
 70
    64
  3
+++++++++++++++..+++++++++++++++
 72
    65
 73
     2
 40
40.0
 49
37.5
 49
-2.5
  0
LTYPE
  2
LONG4
 70
    64
  3
+++++++++++++++..+++++++++++++++
 72
    65
 73
     2
 40
80.0
 49
75.0
 49
-5.0
  0
LTYPE
  2
LONG5
 70
    64
  3
----------  --  ----------  --  
 72
    65
 73
     4
 40
60.0
 49
37.5
 49
-7.5
 49
7.5
 49
-7.5
  0
LTYPE
  2
dashed
 70
   64
  3
-------   -------------   ------
 72
   65
 73
    2
 40
7.5
 49
6
 49
-1.5
  0
LTYPE
  2
dashed_spaced
 70
   64
  3
----        --------        ----
 72
   65
 73
    2
 40
12
 49
6
 49
-6
  0
LTYPE
  2
long_dashed_dotted
 70
   64
  3
------------- --- --------------
 72
   65
 73
    4
 40
15.25
 49
12
 49
-1.5
 49
0.25
 49
-1.5
  0
LTYPE
  2
long_dashed_double-dotted
 70
   64
  3
----------- --- --- ------------
 72
   65
 73
    6
 40
17
 49
12
 49
-1.5
 49
0.25
 49
-1.5
 49
0.25
 49
-1.5
  0
LTYPE
  2
long_dashed_triplicate-dotted
 70
   64
  3
--------- --- --- --- ----------
 72
   65
 73
    8
 40
18.75
 49
12
 49
-1.5
 49
0.25
 49
-1.5
 49
0.25
 49
-1.5
 49
0.25
 49
-1.5
  0
LTYPE
  2
dotted
 70
   64
  3
   -       -       -       -    
 72
   65
 73
    2
 40
1.75
 49
0.25
 49
-1.5
  0
LTYPE
  2
chain
 70
   64
  3
-------------- -- --------------
 72
   65
 73
    4
 40
18.5
 49
12
 49
-1.5
 49
3.5
 49
-1.5
  0
LTYPE
  2
chain_double_dash
 70
   64
  3
------------ -- -- -------------
 72
   65
 73
    6
 40
23.5
 49
12
 49
-1.5
 49
3.5
 49
-1.5
 49
3.5
 49
-1.5
  0
LTYPE
  2
dashed_dotted
 70
   64
  3
-----------     -     ----------
 72
   65
 73
    4
 40
9.25
 49
6
 49
-1.5
 49
0.25
 49
-1.5
  0
LTYPE
  2
double-dashed_dotted
 70
   64
  3
------   -----------   -   -----
 72
   65
 73
    6
 40
16.75
 49
6
 49
-1.5
 49
6
 49
-1.5
 49
0.25
 49
-1.5
  0
LTYPE
  2
dashed_double-dotted
 70
   64
  3
---------    -    -    ---------
 72
   65
 73
    6
 40
11
 49
6
 49
-1.5
 49
0.25
 49
-1.5
 49
0.25
 49
-1.5
  0
LTYPE
  2
double-dashed_double-dotted
 70
   64
  3
-----   ---------   -   -   ----
 72
   65
 73
    8
 40
18.5
 49
6
 49
-1.5
 49
6
 49
-1.5
 49
0.25
 49
-1.5
 49
0.25
 49
-1.5
  0
LTYPE
  2
dashed_triplicate-dotted
 70
   64
  3
-------    -    -    -    ------
 72
   65
 73
    8
 40
12.75
 49
6
 49
-1.5
 49
0.25
 49
-1.5
 49
0.25
 49
-1.5
 49
0.25
 49
-1.5
  0
LTYPE
  2
double-dashed_triplicate-dotted
 70
   64
  3
-----  ---------  -  -  -  -----
 72
   65
 73
   10
 40
20.25
 49
6
 49
-1.5
 49
6
 49
-1.5
 49
0.25
 49
-1.5
 49
0.25
 49
-1.5
 49
0.25
 49
-1.5
  0
LTYPE
  2
undefined
 70
   64
  3
--------------------------------
 72
   65
 73
    0
 40
0
  0
ENDTAB
  0
TABLE
  2
STYLE
  5
3
100
AcDbSymbolTable
 70
     1
  0
STYLE
  5
10
100
AcDbSymbolTableRecord
100
AcDbTextStyleTableRecord
  2
STANDARD
 70
     0
 40
0.0
 41
1.0
 50
0.0
 71
     0
 42
0.2
  3
txt
  4
bigfont.shx
  0
STYLE
  5
26
100
AcDbSymbolTableRecord
100
AcDbTextStyleTableRecord
  2
TATEGAKI
 70
    68
 40
0.0
 41
1.0
 50
0.0
 71
     0
 42
1.0
  3
txt
  4
bigfont.shx
  0
ENDTAB
  0
TABLE
  2
LAYER
 70
    4
  0
LAYER
  2
_0-0_
 70
   64
 62
    7
  6
CONTINUOUS
  0
LAYER
  2
_0-1_
 70
   64
 62
    7
  6
CONTINUOUS
  0
LAYER
  2
_0-f_
 70
   64
 62
    7
  6
CONTINUOUS
  0
LAYER
  2
ADD_LINE
 70
   64
 62
    7
  6
CONTINUOUS
  0
ENDTAB
  0
ENDSEC
  0
SECTION
  2
BLOCKS
  0
ENDSEC
  0
SECTION
  2
ENTITIES
  0
TEXT
  8
_0-f_
 62
    7
 10
1.5102386969983854
 20
1.3815818435074902
 40
4.2999999999999998
 41
0.744186046511628
 50
0
  1
F24M
  0
LINE
  8
_0-0_
  6
CONTINUOUS
 62
    7
 10
8.2060286204247177
 20
7.3384187806753403
 11
8.2060286204247177
 21
9.1203847919253462
  0
LINE
  8
_0-0_
  6
CONTINUOUS
 62
    7
 10
8.1532422159247062
 20
9.3439915896754542
 11
7.7442252215497547
 21
10.162025578425357
  0
LINE
  8
_0-0_
  6
CONTINUOUS
 62
    7
 10
7.2970116260497662
 20
10.438418780675249
 11
5.8060286204246268
 21
10.438418780675249
  0
LINE
  8
_0-0_
  6
CONTINUOUS
 62
    7
 10
5.3060286204246268
 20
10.938418780675249
 11
5.3060286204246268
 21
15.131311999488673
  0
LINE
  8
_0-0_
  6
CONTINUOUS
 62
    7
 10
5.4524752298315207
 20
15.484865390082007
 11
6.6595820110179602
 21
16.691972171268674
  0
LINE
  8
_0-0_
  6
CONTINUOUS
 62
    7
 10
7.0131354016112937
 20
16.83841878067534
 11
19.598921839238187
 21
16.83841878067534
  0
LINE
  8
_0-0_
  6
CONTINUOUS
 62
    7
 10
19.952475229831521
 20
16.691972171268674
 11
21.15958201101796
 21
15.484865390082007
  0
LINE
  8
_0-0_
  6
CONTINUOUS
 62
    7
 10
21.306028620424627
 20
15.131311999488673
 11
21.306028620424627
 21
10.938418780675249
  0
LINE
  8
_0-0_
  6
CONTINUOUS
 62
    7
 10
20.806028620424627
 20
10.438418780675249
 11
19.315045614799715
 21
10.438418780675249
  0
LINE
  8
_0-0_
  6
CONTINUOUS
 62
    7
 10
18.867832019299726
 20
10.162025578425357
 11
18.458815024924775
 21
9.3439915896754542
  0
LINE
  8
_0-0_
  6
CONTINUOUS
 62
    7
 10
18.406028620424763
 20
9.1203847919253462
 11
18.406028620424763
 21
7.3384187806753403
  0
LINE
  8
_0-0_
  6
CONTINUOUS
 62
    7
 10
18.906028620424763
 20
6.8384187806753403
 11
21.806028620424627
 21
6.8384187806753403
  0
LINE
  8
_0-0_
  6
CONTINUOUS
 62
    7
 10
23.306028620424627
 20
8.3384187806753403
 11
23.306028620424627
 21
45.33841878067534
  0
LINE
  8
_0-0_
  6
CONTINUOUS
 62
    7
 10
21.806028620424627
 20
46.83841878067534
 11
18.906028620424763
 21
46.83841878067534
  0
LINE
  8
_0-0_
  6
CONTINUOUS
 62
    7
 10
18.406028620424763
 20
46.33841878067534
 11
18.406028620424763
 21
44.556452769425334
  0
LINE
  8
_0-0_
  6
CONTINUOUS
 62
    7
 10
18.458815024924775
 20
44.332845971675226
 11
18.867832019299726
 21
43.514811982925323
  0
LINE
  8
_0-0_
  6
CONTINUOUS
 62
    7
 10
19.315045614799715
 20
43.238418780675431
 11
20.806028620424627
 21
43.238418780675431
  0
LINE
  8
_0-0_
  6
CONTINUOUS
 62
    7
 10
21.306028620424627
 20
42.738418780675431
 11
21.306028620424627
 21
38.545525561862007
  0
LINE
  8
_0-0_
  6
CONTINUOUS
 62
    7
 10
21.15958201101796
 20
38.191972171268674
 11
19.952475229831521
 21
36.984865390082007
  0
LINE
  8
_0-0_
  6
CONTINUOUS
 62
    7
 10
19.598921839238187
 20
36.83841878067534
 11
7.0131354016112937
 21
36.83841878067534
  0
LINE
  8
_0-0_
  6
CONTINUOUS
 62
    7
 10
6.6595820110179602
 20
36.984865390082007
 11
5.4524752298315207
 21
38.191972171268674
  0
LINE
  8
_0-0_
  6
CONTINUOUS
 62
    7
 10
5.3060286204246268
 20
38.545525561862007
 11
5.3060286204246268
 21
42.738418780675431
  0
LINE
  8
_0-0_
  6
CONTINUOUS
 62
    7
 10
5.8060286204246268
 20
43.238418780675431
 11
7.2970116260497662
 21
43.238418780675431
  0
LINE
  8
_0-0_
  6
CONTINUOUS
 62
    7
 10
7.7442252215497547
 20
43.514811982925323
 11
8.1532422159247062
 21
44.332845971675226
  0
LINE
  8
_0-0_
  6
CONTINUOUS
 62
    7
 10
8.2060286204247177
 20
44.556452769425334
 11
8.2060286204247177
 21
46.33841878067534
  0
LINE
  8
_0-0_
  6
CONTINUOUS
 62
    7
 10
7.7060286204247177
 20
46.83841878067534
 11
4.8060286204246268
 21
46.83841878067534
  0
LINE
  8
_0-0_
  6
CONTINUOUS
 62
    7
 10
3.3060286204246268
 20
45.33841878067534
 11
3.3060286204246268
 21
8.3384187806753403
  0
LINE
  8
_0-0_
  6
CONTINUOUS
 62
    7
 10
4.8060286204246268
 20
6.8384187806753403
 11
7.7060286204247177
 21
6.8384187806753403
  0
LINE
  8
_0-0_
  6
CONTINUOUS
 62
    7
 10
6.3060286204246268
 20
18.938418780675249
 11
20.306028620424627
 21
18.938418780675249
  0
LINE
  8
_0-0_
  6
CONTINUOUS
 62
    7
 10
20.806028620424627
 20
19.438418780675249
 11
20.806028620424627
 21
21.543728032419779
  0
LINE
  8
_0-0_
  6
CONTINUOUS
 62
    7
 10
20.43543814297584
 20
22.026690945564326
 11
17.776619097873322
 21
22.739119361520181
  0
LINE
  8
_0-0_
  6
CONTINUOUS
 62
    7
 10
17.406028620424536
 20
23.222082274664729
 11
17.406028620424536
 21
30.454755286685497
  0
LINE
  8
_0-0_
  6
CONTINUOUS
 62
    7
 10
17.776619097873322
 20
30.937718199830044
 11
20.43543814297584
 21
31.6501466157859
  0
LINE
  8
_0-0_
  6
CONTINUOUS
 62
    7
 10
20.806028620424627
 20
32.133109528930447
 11
20.806028620424627
 21
34.238418780674976
  0
LINE
  8
_0-0_
  6
CONTINUOUS
 62
    7
 10
20.306028620424627
 20
34.738418780674976
 11
6.3060286204246268
 21
34.738418780674976
  0
LINE
  8
_0-0_
  6
CONTINUOUS
 62
    7
 10
5.8060286204246268
 20
34.238418780674976
 11
5.8060286204246268
 21
32.133109528930447
  0
LINE
  8
_0-0_
  6
CONTINUOUS
 62
    7
 10
6.1766190978731856
 20
31.6501466157859
 11
8.8354381429757041
 21
30.937718199830044
  0
LINE
  8
_0-0_
  6
CONTINUOUS
 62
    7
 10
9.2060286204244903
 20
30.454755286685497
 11
9.2060286204244903
 21
23.222082274664729
  0
LINE
  8
_0-0_
  6
CONTINUOUS
 62
    7
 10
8.8354381429757041
 20
22.739119361520181
 11
6.1766190978731856
 21
22.026690945564326
  0
LINE
  8
_0-0_
  6
CONTINUOUS
 62
    7
 10
5.8060286204246268
 20
21.543728032419779
 11
5.8060286204246268
 21
19.438418780675249
  0
ARC
  8
_0-0_
  6
CONTINUOUS
 62
    7
 10
4.8060286204246268
 20
45.33841878067534
 40
1.5
 50
90
 51
180
  0
ARC
  8
_0-0_
  6
CONTINUOUS
 62
    7
 10
5.8060286204246268
 20
42.738418780675431
 40
0.5
 50
90
 51
180
  0
ARC
  8
_0-0_
  6
CONTINUOUS
 62
    7
 10
21.806028620424627
 20
45.33841878067534
 40
1.5
 50
0
 51
90
  0
ARC
  8
_0-0_
  6
CONTINUOUS
 62
    7
 10
20.806028620424627
 20
42.738418780675431
 40
0.5
 50
0
 51
90
  0
ARC
  8
_0-0_
  6
CONTINUOUS
 62
    7
 10
18.906028620424763
 20
46.33841878067534
 40
0.5
 50
90
 51
180
  0
ARC
  8
_0-0_
  6
CONTINUOUS
 62
    7
 10
18.906028620424763
 20
44.556452769425334
 40
0.5
 50
180
 51
206.56505117707786
  0
ARC
  8
_0-0_
  6
CONTINUOUS
 62
    7
 10
19.315045614799715
 20
43.738418780675431
 40
0.5
 50
206.56505117707772
 51
270
  0
ARC
  8
_0-0_
  6
CONTINUOUS
 62
    7
 10
7.7060286204247177
 20
46.33841878067534
 40
0.5
 50
0
 51
90
  0
ARC
  8
_0-0_
  6
CONTINUOUS
 62
    7
 10
7.7060286204247177
 20
44.556452769425334
 40
0.5
 50
333.43494882292214
 51
359.99999999999994
  0
ARC
  8
_0-0_
  6
CONTINUOUS
 62
    7
 10
7.2970116260497662
 20
43.738418780675431
 40
0.5
 50
270
 51
333.43494882292231
  0
ARC
  8
_0-0_
  6
CONTINUOUS
 62
    7
 10
5.8060286204246268
 20
38.545525561862007
 40
0.5
 50
180
 51
225.00000000000006
  0
ARC
  8
_0-0_
  6
CONTINUOUS
 62
    7
 10
7.0131354016112937
 20
37.33841878067534
 40
0.5
 50
224.99999999999994
 51
270
  0
ARC
  8
_0-0_
  6
CONTINUOUS
 62
    7
 10
19.598921839238187
 20
37.33841878067534
 40
0.5
 50
270
 51
314.99999999999994
  0
ARC
  8
_0-0_
  6
CONTINUOUS
 62
    7
 10
20.806028620424627
 20
38.545525561862007
 40
0.5
 50
315
 51
0
  0
ARC
  8
_0-0_
  6
CONTINUOUS
 62
    7
 10
4.8060286204246268
 20
8.3384187806753403
 40
1.5
 50
180
 51
270
  0
ARC
  8
_0-0_
  6
CONTINUOUS
 62
    7
 10
5.8060286204246268
 20
10.938418780675249
 40
0.5
 50
180
 51
270
  0
ARC
  8
_0-0_
  6
CONTINUOUS
 62
    7
 10
21.806028620424627
 20
8.3384187806753403
 40
1.5
 50
270
 51
0
  0
ARC
  8
_0-0_
  6
CONTINUOUS
 62
    7
 10
20.806028620424627
 20
10.938418780675249
 40
0.5
 50
270
 51
0
  0
ARC
  8
_0-0_
  6
CONTINUOUS
 62
    7
 10
18.906028620424763
 20
7.3384187806753403
 40
0.5
 50
180
 51
270
  0
ARC
  8
_0-0_
  6
CONTINUOUS
 62
    7
 10
18.906028620424763
 20
9.1203847919253462
 40
0.5
 50
153.43494882292217
 51
180
  0
ARC
  8
_0-0_
  6
CONTINUOUS
 62
    7
 10
19.315045614799715
 20
9.9384187806752493
 40
0.5
 50
90
 51
153.43494882292231
  0
ARC
  8
_0-0_
  6
CONTINUOUS
 62
    7
 10
7.7060286204247177
 20
7.3384187806753403
 40
0.5
 50
270
 51
0
  0
ARC
  8
_0-0_
  6
CONTINUOUS
 62
    7
 10
7.7060286204247177
 20
9.1203847919253462
 40
0.5
 50
0.0000000000000254
 51
26.565051177077834
  0
ARC
  8
_0-0_
  6
CONTINUOUS
 62
    7
 10
7.2970116260497662
 20
9.9384187806752493
 40
0.5
 50
26.565051177077688
 51
90
  0
ARC
  8
_0-0_
  6
CONTINUOUS
 62
    7
 10
5.8060286204246268
 20
15.131311999488673
 40
0.5
 50
134.99999999999994
 51
180
  0
ARC
  8
_0-0_
  6
CONTINUOUS
 62
    7
 10
7.0131354016112937
 20
16.33841878067534
 40
0.5
 50
90
 51
135.00000000000006
  0
ARC
  8
_0-0_
  6
CONTINUOUS
 62
    7
 10
19.598921839238187
 20
16.33841878067534
 40
0.5
 50
45.00000000000005
 51
90
  0
ARC
  8
_0-0_
  6
CONTINUOUS
 62
    7
 10
20.806028620424627
 20
15.131311999488673
 40
0.5
 50
0
 51
45
  0
ARC
  8
_0-0_
  6
CONTINUOUS
 62
    7
 10
6.3060286204246268
 20
34.238418780674976
 40
0.5
 50
90
 51
180
  0
ARC
  8
_0-0_
  6
CONTINUOUS
 62
    7
 10
20.306028620424627
 20
34.238418780674976
 40
0.5
 50
0
 51
90
  0
ARC
  8
_0-0_
  6
CONTINUOUS
 62
    7
 10
6.3060286204246268
 20
32.133109528930447
 40
0.5
 50
180
 51
254.99999999999991
  0
ARC
  8
_0-0_
  6
CONTINUOUS
 62
    7
 10
8.7060286204244903
 20
30.454755286685497
 40
0.5
 50
0
 51
74.999999999999972
  0
ARC
  8
_0-0_
  6
CONTINUOUS
 62
    7
 10
20.306028620424627
 20
32.133109528930447
 40
0.5
 50
285
 51
359.99999999999994
  0
ARC
  8
_0-0_
  6
CONTINUOUS
 62
    7
 10
17.906028620424536
 20
30.454755286685497
 40
0.5
 50
104.99999999999997
 51
180
  0
ARC
  8
_0-0_
  6
CONTINUOUS
 62
    7
 10
6.3060286204246268
 20
19.438418780675249
 40
0.5
 50
180
 51
270
  0
ARC
  8
_0-0_
  6
CONTINUOUS
 62
    7
 10
20.306028620424627
 20
19.438418780675249
 40
0.5
 50
270
 51
0
  0
ARC
  8
_0-0_
  6
CONTINUOUS
 62
    7
 10
6.3060286204246268
 20
21.543728032419779
 40
0.5
 50
105.00000000000001
 51
180
  0
ARC
  8
_0-0_
  6
CONTINUOUS
 62
    7
 10
8.7060286204244903
 20
23.222082274664729
 40
0.5
 50
285
 51
0
  0
ARC
  8
_0-0_
  6
CONTINUOUS
 62
    7
 10
20.306028620424627
 20
21.543728032419779
 40
0.5
 50
0.0000000000000254
 51
75.000000000000028
  0
ARC
  8
_0-0_
  6
CONTINUOUS
 62
    7
 10
17.906028620424536
 20
23.222082274664729
 40
0.5
 50
180
 51
255.00000000000003
  0
LINE
  8
_0-1_
  6
CENTER2
 62
  152
 10
13.306028620424627
 20
46.83841878067534
 11
13.306028620424627
 21
6.8384187806753403
  0
LINE
  8
_0-1_
  6
CENTER2
 62
  152
 10
3.3060286204246268
 20
26.83841878067534
 11
23.306028620424627
 21
26.83841878067534
  0
ENDSEC
  0
EOF
