  0
SECTION
  2
HEADER
  9
$ACADVER
  1
AC1009
  9
$INSBASE
 10
0
 20
0
 30
0
  9
$EXTMIN
 10
0
 20
0
  9
$EXTMAX
 10
1189
 20
841
  9
$LIMMIN
 10
0
 20
0
  9
$LIMMAX
 10
1189
 20
841
  9
$LTSCALE
 40
1
  0
ENDSEC
  0
SECTION
  2
TABLES
  0
TABLE
  2
LTYPE
 70
     9
  0
LTYPE
  2
CONTINUOUS
 70
    64
  3
実線
 72
    65
 73
     0
 40
0.0
  0
LTYPE
  2
DASHED1
 70
    64
  3
--  --  --  --  --  --  --  --  
 72
    65
 73
     2
 40
2.5
 49
1.25
 49
-1.25
  0
LTYPE
  2
DASHED2
 70
    64
  3
----    ----    ----    ----    
 72
    65
 73
     2
 40
5.0
 49
2.5
 49
-2.5
  0
LTYPE
  2
DASHED3
 70
    64
  3
------  ------  ------  ------  
 72
    65
 73
     2
 40
5.0
 49
3.75
 49
-1.25
  0
LTYPE
  2
CENTER1
 70
    64
  3
----- - ----- - ----- - ----- - 
 72
    65
 73
     4
 40
10.0
 49
6.25
 49
-1.25
 49
1.25
 49
-1.25
  0
LTYPE
  2
CENTER2
 70
    64
  3
----------  --  ----------  --  
 72
    65
 73
     4
 40
20.0
 49
12.5
 49
-2.5
 49
2.5
 49
-2.5
  0
LTYPE
  2
PHANTOM1
 70
    64
  3
--- - - --- - - --- - - --- - - 
 72
    65
 73
     6
 40
10.0
 49
3.25
 49
-1.25
 49
1.25
 49
-1.25
 49
1.25
 49
-1.25
  0
LTYPE
  2
PHANTOM2
 70
    64
  3
--------  -  -  --------  -  -  
 72
    65
 73
     6
 40
20.0
 49
10.0
 49
-2.5
 49
1.25
 49
-2.5
 49
1.25
 49
-2.5
  0
LTYPE
  2
DOT
 70
    64
  3
-   -   -   -   -   -   -   -   
 72
    65
 73
     2
 40
2.5
 49
0.625
 49
-1.875
  0
LTYPE
  2
DUMMY
 70
    64
  3
ダミー
 72
    65
 73
     0
 40
0.0
  0
LTYPE
  2
RAND1
 70
    64
  3
ランダム線1
 72
    65
 73
     4
 40
10.0
 49
1.0
 49
-2.0
 49
3.0
 49
-4.0
  0
LTYPE
  2
RAND2
 70
    64
  3
ランダム線2
 72
    65
 73
     4
 40
14.0
 49
2.0
 49
-3.0
 49
4.0
 49
-5.0
  0
LTYPE
  2
RAND3
 70
    64
  3
ランダム線3
 72
    65
 73
     4
 40
18.0
 49
3.0
 49
-4.0
 49
5.0
 49
-6.0
  0
LTYPE
  2
RAND4
 70
    64
  3
ランダム線4
 72
    65
 73
     4
 40
22.0
 49
4.0
 49
-5.0
 49
6.0
 49
-7.0
  0
LTYPE
  2
RAND5
 70
    64
  3
ランダム線5
 72
    65
 73
     4
 40
26.0
 49
5.0
 49
-6.0
 49
7.0
 49
-8.0
  0
LTYPE
  2
LONG1
 70
    64
  3
----------  --  ----------  --  
 72
    65
 73
     4
 40
40.0
 49
32.5
 49
-2.5
 49
2.5
 49
-2.5
  0
LTYPE
  2
LONG2
 70
    64
  3
--------  -  -  --------  -  -  
 72
    65
 73
     6
 40
40.0
 49
30.0
 49
-2.5
 49
1.25
 49
-2.5
 49
1.25
 49
-2.5
  0
LTYPE
  2
LONG3
 70
    64
  3
+++++++++++++++..+++++++++++++++
 72
    65
 73
     2
 40
40.0
 49
37.5
 49
-2.5
  0
LTYPE
  2
LONG4
 70
    64
  3
+++++++++++++++..+++++++++++++++
 72
    65
 73
     2
 40
80.0
 49
75.0
 49
-5.0
  0
LTYPE
  2
LONG5
 70
    64
  3
----------  --  ----------  --  
 72
    65
 73
     4
 40
60.0
 49
37.5
 49
-7.5
 49
7.5
 49
-7.5
  0
LTYPE
  2
dashed
 70
   64
  3
-------   -------------   ------
 72
   65
 73
    2
 40
7.5
 49
6
 49
-1.5
  0
LTYPE
  2
dashed_spaced
 70
   64
  3
----        --------        ----
 72
   65
 73
    2
 40
12
 49
6
 49
-6
  0
LTYPE
  2
long_dashed_dotted
 70
   64
  3
------------- --- --------------
 72
   65
 73
    4
 40
15.25
 49
12
 49
-1.5
 49
0.25
 49
-1.5
  0
LTYPE
  2
long_dashed_double-dotted
 70
   64
  3
----------- --- --- ------------
 72
   65
 73
    6
 40
17
 49
12
 49
-1.5
 49
0.25
 49
-1.5
 49
0.25
 49
-1.5
  0
LTYPE
  2
long_dashed_triplicate-dotted
 70
   64
  3
--------- --- --- --- ----------
 72
   65
 73
    8
 40
18.75
 49
12
 49
-1.5
 49
0.25
 49
-1.5
 49
0.25
 49
-1.5
 49
0.25
 49
-1.5
  0
LTYPE
  2
dotted
 70
   64
  3
   -       -       -       -    
 72
   65
 73
    2
 40
1.75
 49
0.25
 49
-1.5
  0
LTYPE
  2
chain
 70
   64
  3
-------------- -- --------------
 72
   65
 73
    4
 40
18.5
 49
12
 49
-1.5
 49
3.5
 49
-1.5
  0
LTYPE
  2
chain_double_dash
 70
   64
  3
------------ -- -- -------------
 72
   65
 73
    6
 40
23.5
 49
12
 49
-1.5
 49
3.5
 49
-1.5
 49
3.5
 49
-1.5
  0
LTYPE
  2
dashed_dotted
 70
   64
  3
-----------     -     ----------
 72
   65
 73
    4
 40
9.25
 49
6
 49
-1.5
 49
0.25
 49
-1.5
  0
LTYPE
  2
double-dashed_dotted
 70
   64
  3
------   -----------   -   -----
 72
   65
 73
    6
 40
16.75
 49
6
 49
-1.5
 49
6
 49
-1.5
 49
0.25
 49
-1.5
  0
LTYPE
  2
dashed_double-dotted
 70
   64
  3
---------    -    -    ---------
 72
   65
 73
    6
 40
11
 49
6
 49
-1.5
 49
0.25
 49
-1.5
 49
0.25
 49
-1.5
  0
LTYPE
  2
double-dashed_double-dotted
 70
   64
  3
-----   ---------   -   -   ----
 72
   65
 73
    8
 40
18.5
 49
6
 49
-1.5
 49
6
 49
-1.5
 49
0.25
 49
-1.5
 49
0.25
 49
-1.5
  0
LTYPE
  2
dashed_triplicate-dotted
 70
   64
  3
-------    -    -    -    ------
 72
   65
 73
    8
 40
12.75
 49
6
 49
-1.5
 49
0.25
 49
-1.5
 49
0.25
 49
-1.5
 49
0.25
 49
-1.5
  0
LTYPE
  2
double-dashed_triplicate-dotted
 70
   64
  3
-----  ---------  -  -  -  -----
 72
   65
 73
   10
 40
20.25
 49
6
 49
-1.5
 49
6
 49
-1.5
 49
0.25
 49
-1.5
 49
0.25
 49
-1.5
 49
0.25
 49
-1.5
  0
LTYPE
  2
undefined
 70
   64
  3
--------------------------------
 72
   65
 73
    0
 40
0
  0
ENDTAB
  0
TABLE
  2
STYLE
  5
3
100
AcDbSymbolTable
 70
     1
  0
STYLE
  5
10
100
AcDbSymbolTableRecord
100
AcDbTextStyleTableRecord
  2
STANDARD
 70
     0
 40
0.0
 41
1.0
 50
0.0
 71
     0
 42
0.2
  3
txt
  4
bigfont.shx
  0
STYLE
  5
26
100
AcDbSymbolTableRecord
100
AcDbTextStyleTableRecord
  2
TATEGAKI
 70
    68
 40
0.0
 41
1.0
 50
0.0
 71
     0
 42
1.0
  3
txt
  4
bigfont.shx
  0
ENDTAB
  0
TABLE
  2
LAYER
 70
    3
  0
LAYER
  2
_0-0_
 70
   64
 62
    7
  6
CONTINUOUS
  0
LAYER
  2
_0-f_
 70
   64
 62
    7
  6
CONTINUOUS
  0
LAYER
  2
ADD_LINE
 70
   64
 62
    7
  6
CONTINUOUS
  0
ENDTAB
  0
ENDSEC
  0
SECTION
  2
BLOCKS
  0
ENDSEC
  0
SECTION
  2
ENTITIES
  0
TEXT
  8
_0-f_
 62
    7
 10
1.1571733388525445
 20
0.8324127663451008
 40
4.2999999999999998
 41
0.744186046511628
 50
0
  1
F24K
  0
LINE
  8
_0-0_
  6
CONTINUOUS
 62
    7
 10
20.94367838989001
 20
31.169757139769899
 11
20.94367838989001
 21
44.06975713976999
  0
LINE
  8
_0-0_
  6
CONTINUOUS
 62
    7
 10
19.44367838989001
 20
45.56975713976999
 11
16.543678389890147
 21
45.56975713976999
  0
LINE
  8
_0-0_
  6
CONTINUOUS
 62
    7
 10
16.043678389890147
 20
45.06975713976999
 11
16.043678389890147
 21
43.287791128519984
  0
LINE
  8
_0-0_
  6
CONTINUOUS
 62
    7
 10
16.096464794390158
 20
43.064184330769876
 11
16.50548178876511
 21
42.246150342019973
  0
LINE
  8
_0-0_
  6
CONTINUOUS
 62
    7
 10
16.952695384265098
 20
41.969757139770081
 11
18.44367838989001
 21
41.969757139770081
  0
LINE
  8
_0-0_
  6
CONTINUOUS
 62
    7
 10
18.94367838989001
 20
41.469757139770081
 11
18.94367838989001
 21
37.876863920956566
  0
LINE
  8
_0-0_
  6
CONTINUOUS
 62
    7
 10
18.797231780483344
 20
37.523310530363233
 11
17.590124999296904
 21
36.316203749176566
  0
LINE
  8
_0-0_
  6
CONTINUOUS
 62
    7
 10
17.236571608703571
 20
36.169757139769899
 11
4.6507851710766772
 21
36.169757139769899
  0
LINE
  8
_0-0_
  6
CONTINUOUS
 62
    7
 10
4.2972317804833438
 20
36.316203749176566
 11
3.0901249992969042
 21
37.523310530363233
  0
LINE
  8
_0-0_
  6
CONTINUOUS
 62
    7
 10
2.9436783898900103
 20
37.876863920956566
 11
2.9436783898900103
 21
41.469757139770081
  0
LINE
  8
_0-0_
  6
CONTINUOUS
 62
    7
 10
3.4436783898900103
 20
41.969757139770081
 11
4.9346613955151497
 21
41.969757139770081
  0
LINE
  8
_0-0_
  6
CONTINUOUS
 62
    7
 10
5.3818749910151382
 20
42.246150342019973
 11
5.7908919853900898
 21
43.064184330769876
  0
LINE
  8
_0-0_
  6
CONTINUOUS
 62
    7
 10
5.8436783898901012
 20
43.287791128519984
 11
5.8436783898901012
 21
45.06975713976999
  0
LINE
  8
_0-0_
  6
CONTINUOUS
 62
    7
 10
5.3436783898901012
 20
45.56975713976999
 11
2.4436783898900103
 21
45.56975713976999
  0
LINE
  8
_0-0_
  6
CONTINUOUS
 62
    7
 10
0.9436783898900102
 20
44.06975713976999
 11
0.9436783898900102
 21
29.469757139769627
  0
LINE
  8
_0-0_
  6
CONTINUOUS
 62
    7
 10
1.2436783898899648
 20
29.169757139769899
 11
2.4436783898900103
 21
29.169757139769899
  0
LINE
  8
_0-0_
  6
CONTINUOUS
 62
    7
 10
2.7436783898899648
 20
29.469757139769627
 11
2.7436783898899648
 21
31.503930890976335
  0
LINE
  8
_0-0_
  6
CONTINUOUS
 62
    7
 10
2.760715476745645
 20
31.633340413527549
 11
3.1802773555973545
 21
33.199166662321204
  0
LINE
  8
_0-0_
  6
CONTINUOUS
 62
    7
 10
3.6632402687419017
 20
33.56975713976999
 11
6.6436783898900558
 21
33.56975713976999
  0
LINE
  8
_0-0_
  6
CONTINUOUS
 62
    7
 10
7.1436783898900558
 20
33.06975713976999
 11
7.1436783898900558
 21
18.06975713976999
  0
LINE
  8
_0-0_
  6
CONTINUOUS
 62
    7
 10
6.6436783898900558
 20
17.56975713976999
 11
3.6632402687419017
 21
17.56975713976999
  0
LINE
  8
_0-0_
  6
CONTINUOUS
 62
    7
 10
3.1802773555973545
 20
17.940347617218777
 11
2.760715476745645
 21
19.506173866012432
  0
LINE
  8
_0-0_
  6
CONTINUOUS
 62
    7
 10
2.7436783898899648
 20
19.635583388563646
 11
2.7436783898899648
 21
21.669757139769899
  0
LINE
  8
_0-0_
  6
CONTINUOUS
 62
    7
 10
2.4436783898900103
 20
21.969757139769627
 11
1.2436783898899648
 21
21.969757139769627
  0
LINE
  8
_0-0_
  6
CONTINUOUS
 62
    7
 10
0.9436783898900102
 20
21.669757139769899
 11
0.9436783898900102
 21
7.0697571397699903
  0
LINE
  8
_0-0_
  6
CONTINUOUS
 62
    7
 10
2.4436783898900103
 20
5.5697571397699903
 11
5.3436783898901012
 21
5.5697571397699903
  0
LINE
  8
_0-0_
  6
CONTINUOUS
 62
    7
 10
5.8436783898901012
 20
6.0697571397699903
 11
5.8436783898901012
 21
7.8517231510199963
  0
LINE
  8
_0-0_
  6
CONTINUOUS
 62
    7
 10
5.7908919853900898
 20
8.0753299487701042
 11
5.3818749910151382
 21
8.8933639375200073
  0
LINE
  8
_0-0_
  6
CONTINUOUS
 62
    7
 10
4.9346613955151497
 20
9.1697571397698994
 11
3.4436783898900103
 21
9.1697571397698994
  0
LINE
  8
_0-0_
  6
CONTINUOUS
 62
    7
 10
2.9436783898900103
 20
9.6697571397698994
 11
2.9436783898900103
 21
13.262650358583414
  0
LINE
  8
_0-0_
  6
CONTINUOUS
 62
    7
 10
3.0901249992969042
 20
13.616203749176748
 11
4.2972317804833438
 21
14.82331053036296
  0
LINE
  8
_0-0_
  6
CONTINUOUS
 62
    7
 10
4.6507851710766772
 20
14.969757139769627
 11
17.236571608703571
 21
14.969757139769627
  0
LINE
  8
_0-0_
  6
CONTINUOUS
 62
    7
 10
17.590124999296904
 20
14.82331053036296
 11
18.797231780483344
 21
13.616203749176748
  0
LINE
  8
_0-0_
  6
CONTINUOUS
 62
    7
 10
18.94367838989001
 20
13.262650358583414
 11
18.94367838989001
 21
9.6697571397698994
  0
LINE
  8
_0-0_
  6
CONTINUOUS
 62
    7
 10
18.44367838989001
 20
9.1697571397698994
 11
16.952695384265098
 21
9.1697571397698994
  0
LINE
  8
_0-0_
  6
CONTINUOUS
 62
    7
 10
16.50548178876511
 20
8.8933639375200073
 11
16.096464794390158
 21
8.0753299487701042
  0
LINE
  8
_0-0_
  6
CONTINUOUS
 62
    7
 10
16.043678389890147
 20
7.8517231510199963
 11
16.043678389890147
 21
6.0697571397699903
  0
LINE
  8
_0-0_
  6
CONTINUOUS
 62
    7
 10
16.543678389890147
 20
5.5697571397699903
 11
19.44367838989001
 21
5.5697571397699903
  0
LINE
  8
_0-0_
  6
CONTINUOUS
 62
    7
 10
20.94367838989001
 20
7.0697571397699903
 11
20.94367838989001
 21
19.969757139769627
  0
LINE
  8
_0-0_
  6
CONTINUOUS
 62
    7
 10
20.44367838989001
 20
20.469757139769627
 11
18.661712378640004
 21
20.469757139769627
  0
LINE
  8
_0-0_
  6
CONTINUOUS
 62
    7
 10
18.438105580889896
 20
20.416970735269842
 11
17.620071592139993
 21
20.007953740894663
  0
LINE
  8
_0-0_
  6
CONTINUOUS
 62
    7
 10
17.343678389890101
 20
19.560740145394902
 11
17.343678389890101
 21
18.06975713976999
  0
LINE
  8
_0-0_
  6
CONTINUOUS
 62
    7
 10
16.843678389890101
 20
17.56975713976999
 11
12.650785171076677
 21
17.56975713976999
  0
LINE
  8
_0-0_
  6
CONTINUOUS
 62
    7
 10
12.297231780483344
 20
17.716203749176657
 11
11.090124999296677
 21
18.923310530363324
  0
LINE
  8
_0-0_
  6
CONTINUOUS
 62
    7
 10
10.94367838989001
 20
19.276863920956202
 11
10.94367838989001
 21
31.862650358583323
  0
LINE
  8
_0-0_
  6
CONTINUOUS
 62
    7
 10
12.297231780483344
 20
33.423310530363324
 11
11.090124999296677
 21
32.216203749176657
  0
LINE
  8
_0-0_
  6
CONTINUOUS
 62
    7
 10
12.650785171076677
 20
33.56975713976999
 11
16.843678389890101
 21
33.56975713976999
  0
LINE
  8
_0-0_
  6
CONTINUOUS
 62
    7
 10
17.343678389890101
 20
33.06975713976999
 11
17.343678389890101
 21
31.578774134144624
  0
LINE
  8
_0-0_
  6
CONTINUOUS
 62
    7
 10
17.620071592139993
 20
31.131560538644862
 11
18.438105580889896
 21
30.722543544269683
  0
LINE
  8
_0-0_
  6
CONTINUOUS
 62
    7
 10
18.661712378640004
 20
30.669757139769899
 11
20.44367838989001
 21
30.669757139769899
  0
ARC
  8
_0-0_
  6
CONTINUOUS
 62
    7
 10
3.2436783898899648
 20
31.503930890976335
 40
0.5
 50
165.00000000000003
 51
180.00000000000006
  0
ARC
  8
_0-0_
  6
CONTINUOUS
 62
    7
 10
3.6632402687419017
 20
33.06975713976999
 40
0.5
 50
90
 51
165.00000000000003
  0
ARC
  8
_0-0_
  6
CONTINUOUS
 62
    7
 10
6.6436783898900558
 20
33.06975713976999
 40
0.5
 50
0
 51
90
  0
ARC
  8
_0-0_
  6
CONTINUOUS
 62
    7
 10
2.4436783898900103
 20
44.06975713976999
 40
1.5
 50
90
 51
180
  0
ARC
  8
_0-0_
  6
CONTINUOUS
 62
    7
 10
19.44367838989001
 20
44.06975713976999
 40
1.5
 50
0
 51
90
  0
ARC
  8
_0-0_
  6
CONTINUOUS
 62
    7
 10
5.3436783898901012
 20
45.06975713976999
 40
0.5
 50
0
 51
90
  0
ARC
  8
_0-0_
  6
CONTINUOUS
 62
    7
 10
5.3436783898901012
 20
43.287791128519984
 40
0.5
 50
333.43494882292214
 51
359.99999999999994
  0
ARC
  8
_0-0_
  6
CONTINUOUS
 62
    7
 10
4.9346613955151497
 20
42.469757139770081
 40
0.5
 50
270
 51
333.43494882292225
  0
ARC
  8
_0-0_
  6
CONTINUOUS
 62
    7
 10
3.4436783898900103
 20
41.469757139770081
 40
0.5
 50
90
 51
180
  0
ARC
  8
_0-0_
  6
CONTINUOUS
 62
    7
 10
3.4436783898900103
 20
37.876863920956566
 40
0.5
 50
180
 51
225
  0
ARC
  8
_0-0_
  6
CONTINUOUS
 62
    7
 10
4.6507851710766772
 20
36.669757139769899
 40
0.5
 50
224.99999999999994
 51
270
  0
ARC
  8
_0-0_
  6
CONTINUOUS
 62
    7
 10
17.236571608703571
 20
36.669757139769899
 40
0.5
 50
270
 51
315
  0
ARC
  8
_0-0_
  6
CONTINUOUS
 62
    7
 10
18.44367838989001
 20
37.876863920956566
 40
0.5
 50
315.00000000000006
 51
0
  0
ARC
  8
_0-0_
  6
CONTINUOUS
 62
    7
 10
18.44367838989001
 20
41.469757139770081
 40
0.5
 50
0
 51
90
  0
ARC
  8
_0-0_
  6
CONTINUOUS
 62
    7
 10
16.952695384265098
 20
42.469757139770081
 40
0.5
 50
206.56505117707792
 51
270.00000000000011
  0
ARC
  8
_0-0_
  6
CONTINUOUS
 62
    7
 10
16.543678389890147
 20
43.287791128519984
 40
0.5
 50
180
 51
206.56505117707786
  0
ARC
  8
_0-0_
  6
CONTINUOUS
 62
    7
 10
16.543678389890147
 20
45.06975713976999
 40
0.5
 50
90
 51
180
  0
ARC
  8
_0-0_
  6
CONTINUOUS
 62
    7
 10
20.44367838989001
 20
31.169757139769899
 40
0.5
 50
270
 51
0
  0
ARC
  8
_0-0_
  6
CONTINUOUS
 62
    7
 10
2.4436783898900103
 20
29.469757139769627
 40
0.2999999999999998
 50
270
 51
0
  0
ARC
  8
_0-0_
  6
CONTINUOUS
 62
    7
 10
1.2436783898899648
 20
29.469757139769627
 40
0.2999999999999998
 50
180
 51
270
  0
ARC
  8
_0-0_
  6
CONTINUOUS
 62
    7
 10
1.2436783898899648
 20
21.669757139769899
 40
0.2999999999999998
 50
90
 51
180
  0
ARC
  8
_0-0_
  6
CONTINUOUS
 62
    7
 10
2.4436783898900103
 20
21.669757139769899
 40
0.2999999999999998
 50
0
 51
90
  0
ARC
  8
_0-0_
  6
CONTINUOUS
 62
    7
 10
20.44367838989001
 20
19.969757139769627
 40
0.5
 50
0
 51
90
  0
ARC
  8
_0-0_
  6
CONTINUOUS
 62
    7
 10
16.543678389890147
 20
6.0697571397699903
 40
0.5
 50
180
 51
270
  0
ARC
  8
_0-0_
  6
CONTINUOUS
 62
    7
 10
16.543678389890147
 20
7.8517231510199963
 40
0.5
 50
153.43494882292217
 51
180
  0
ARC
  8
_0-0_
  6
CONTINUOUS
 62
    7
 10
16.952695384265098
 20
8.6697571397698994
 40
0.5
 50
89.999999999999972
 51
153.43494882292217
  0
ARC
  8
_0-0_
  6
CONTINUOUS
 62
    7
 10
18.44367838989001
 20
9.6697571397698994
 40
0.5
 50
270
 51
0
  0
ARC
  8
_0-0_
  6
CONTINUOUS
 62
    7
 10
18.44367838989001
 20
13.262650358583414
 40
0.5
 50
0
 51
44.999999999999943
  0
ARC
  8
_0-0_
  6
CONTINUOUS
 62
    7
 10
17.236571608703571
 20
14.469757139769627
 40
0.5
 50
45
 51
90
  0
ARC
  8
_0-0_
  6
CONTINUOUS
 62
    7
 10
4.6507851710766772
 20
14.469757139769627
 40
0.5
 50
89.999999999999972
 51
135.00000000000006
  0
ARC
  8
_0-0_
  6
CONTINUOUS
 62
    7
 10
3.4436783898900103
 20
13.262650358583414
 40
0.5
 50
135
 51
180
  0
ARC
  8
_0-0_
  6
CONTINUOUS
 62
    7
 10
3.4436783898900103
 20
9.6697571397698994
 40
0.5
 50
180
 51
270
  0
ARC
  8
_0-0_
  6
CONTINUOUS
 62
    7
 10
4.9346613955151497
 20
8.6697571397698994
 40
0.5
 50
26.565051177077763
 51
90
  0
ARC
  8
_0-0_
  6
CONTINUOUS
 62
    7
 10
5.3436783898901012
 20
7.8517231510199963
 40
0.5
 50
0
 51
26.565051177077834
  0
ARC
  8
_0-0_
  6
CONTINUOUS
 62
    7
 10
5.3436783898901012
 20
6.0697571397699903
 40
0.5
 50
270
 51
0
  0
ARC
  8
_0-0_
  6
CONTINUOUS
 62
    7
 10
19.44367838989001
 20
7.0697571397699903
 40
1.5
 50
270
 51
0
  0
ARC
  8
_0-0_
  6
CONTINUOUS
 62
    7
 10
2.4436783898900103
 20
7.0697571397699903
 40
1.5
 50
180
 51
270
  0
ARC
  8
_0-0_
  6
CONTINUOUS
 62
    7
 10
6.6436783898900558
 20
18.06975713976999
 40
0.5
 50
270
 51
0
  0
ARC
  8
_0-0_
  6
CONTINUOUS
 62
    7
 10
3.6632402687419017
 20
18.06975713976999
 40
0.5
 50
194.99999999999997
 51
270
  0
ARC
  8
_0-0_
  6
CONTINUOUS
 62
    7
 10
3.2436783898899648
 20
19.635583388563646
 40
0.5
 50
180
 51
195
  0
ARC
  8
_0-0_
  6
CONTINUOUS
 62
    7
 10
12.650785171076677
 20
33.06975713976999
 40
0.5
 50
90
 51
134.99999999999994
  0
ARC
  8
_0-0_
  6
CONTINUOUS
 62
    7
 10
11.44367838989001
 20
31.862650358583323
 40
0.5
 50
135
 51
180
  0
ARC
  8
_0-0_
  6
CONTINUOUS
 62
    7
 10
11.44367838989001
 20
19.276863920956202
 40
0.5
 50
180
 51
225.00000000000006
  0
ARC
  8
_0-0_
  6
CONTINUOUS
 62
    7
 10
12.650785171076677
 20
18.06975713976999
 40
0.5
 50
225
 51
270
  0
ARC
  8
_0-0_
  6
CONTINUOUS
 62
    7
 10
17.843678389890101
 20
31.578774134144624
 40
0.5
 50
180
 51
243.43494882292191
  0
ARC
  8
_0-0_
  6
CONTINUOUS
 62
    7
 10
18.661712378640004
 20
31.169757139769899
 40
0.5
 50
243.43494882292146
 51
270
  0
ARC
  8
_0-0_
  6
CONTINUOUS
 62
    7
 10
18.661712378640004
 20
19.969757139769627
 40
0.5
 50
90
 51
116.56505117707815
  0
ARC
  8
_0-0_
  6
CONTINUOUS
 62
    7
 10
17.843678389890101
 20
19.560740145394902
 40
0.5
 50
116.56505117707783
 51
180
  0
ARC
  8
_0-0_
  6
CONTINUOUS
 62
    7
 10
16.843678389890101
 20
33.06975713976999
 40
0.5
 50
0
 51
90
  0
ARC
  8
_0-0_
  6
CONTINUOUS
 62
    7
 10
16.843678389890101
 20
18.06975713976999
 40
0.5
 50
270
 51
0
  0
LINE
  8
_0-0_
  6
CENTER2
 62
  152
 10
10.94367838989001
 20
31.862650358583323
 11
10.94367838989001
 21
45.228567035750984
  0
LINE
  8
_0-0_
  6
CENTER2
 62
  152
 10
0.9436783898900102
 20
25.56975713976999
 11
20.94367838989001
 21
25.56975713976999
  0
LINE
  8
_0-0_
  6
CENTER2
 62
  152
 10
10.94367838989001
 20
19.276863920956202
 11
10.94367838989001
 21
5.593935077795777
  0
ENDSEC
  0
EOF
