  0
SECTION
  2
HEADER
  9
$ACADVER
  1
AC1009
  9
$INSBASE
 10
0
 20
0
 30
0
  9
$EXTMIN
 10
0
 20
0
  9
$EXTMAX
 10
1189
 20
841
  9
$LIMMIN
 10
0
 20
0
  9
$LIMMAX
 10
1189
 20
841
  9
$LTSCALE
 40
1
  0
ENDSEC
  0
SECTION
  2
TABLES
  0
TABLE
  2
LTYPE
 70
     9
  0
LTYPE
  2
CONTINUOUS
 70
    64
  3
実線
 72
    65
 73
     0
 40
0.0
  0
LTYPE
  2
DASHED1
 70
    64
  3
--  --  --  --  --  --  --  --  
 72
    65
 73
     2
 40
2.5
 49
1.25
 49
-1.25
  0
LTYPE
  2
DASHED2
 70
    64
  3
----    ----    ----    ----    
 72
    65
 73
     2
 40
5.0
 49
2.5
 49
-2.5
  0
LTYPE
  2
DASHED3
 70
    64
  3
------  ------  ------  ------  
 72
    65
 73
     2
 40
5.0
 49
3.75
 49
-1.25
  0
LTYPE
  2
CENTER1
 70
    64
  3
----- - ----- - ----- - ----- - 
 72
    65
 73
     4
 40
10.0
 49
6.25
 49
-1.25
 49
1.25
 49
-1.25
  0
LTYPE
  2
CENTER2
 70
    64
  3
----------  --  ----------  --  
 72
    65
 73
     4
 40
20.0
 49
12.5
 49
-2.5
 49
2.5
 49
-2.5
  0
LTYPE
  2
PHANTOM1
 70
    64
  3
--- - - --- - - --- - - --- - - 
 72
    65
 73
     6
 40
10.0
 49
3.25
 49
-1.25
 49
1.25
 49
-1.25
 49
1.25
 49
-1.25
  0
LTYPE
  2
PHANTOM2
 70
    64
  3
--------  -  -  --------  -  -  
 72
    65
 73
     6
 40
20.0
 49
10.0
 49
-2.5
 49
1.25
 49
-2.5
 49
1.25
 49
-2.5
  0
LTYPE
  2
DOT
 70
    64
  3
-   -   -   -   -   -   -   -   
 72
    65
 73
     2
 40
2.5
 49
0.625
 49
-1.875
  0
LTYPE
  2
DUMMY
 70
    64
  3
ダミー
 72
    65
 73
     0
 40
0.0
  0
LTYPE
  2
RAND1
 70
    64
  3
ランダム線1
 72
    65
 73
     4
 40
10.0
 49
1.0
 49
-2.0
 49
3.0
 49
-4.0
  0
LTYPE
  2
RAND2
 70
    64
  3
ランダム線2
 72
    65
 73
     4
 40
14.0
 49
2.0
 49
-3.0
 49
4.0
 49
-5.0
  0
LTYPE
  2
RAND3
 70
    64
  3
ランダム線3
 72
    65
 73
     4
 40
18.0
 49
3.0
 49
-4.0
 49
5.0
 49
-6.0
  0
LTYPE
  2
RAND4
 70
    64
  3
ランダム線4
 72
    65
 73
     4
 40
22.0
 49
4.0
 49
-5.0
 49
6.0
 49
-7.0
  0
LTYPE
  2
RAND5
 70
    64
  3
ランダム線5
 72
    65
 73
     4
 40
26.0
 49
5.0
 49
-6.0
 49
7.0
 49
-8.0
  0
LTYPE
  2
LONG1
 70
    64
  3
----------  --  ----------  --  
 72
    65
 73
     4
 40
40.0
 49
32.5
 49
-2.5
 49
2.5
 49
-2.5
  0
LTYPE
  2
LONG2
 70
    64
  3
--------  -  -  --------  -  -  
 72
    65
 73
     6
 40
40.0
 49
30.0
 49
-2.5
 49
1.25
 49
-2.5
 49
1.25
 49
-2.5
  0
LTYPE
  2
LONG3
 70
    64
  3
+++++++++++++++..+++++++++++++++
 72
    65
 73
     2
 40
40.0
 49
37.5
 49
-2.5
  0
LTYPE
  2
LONG4
 70
    64
  3
+++++++++++++++..+++++++++++++++
 72
    65
 73
     2
 40
80.0
 49
75.0
 49
-5.0
  0
LTYPE
  2
LONG5
 70
    64
  3
----------  --  ----------  --  
 72
    65
 73
     4
 40
60.0
 49
37.5
 49
-7.5
 49
7.5
 49
-7.5
  0
LTYPE
  2
dashed
 70
   64
  3
-------   -------------   ------
 72
   65
 73
    2
 40
7.5
 49
6
 49
-1.5
  0
LTYPE
  2
dashed_spaced
 70
   64
  3
----        --------        ----
 72
   65
 73
    2
 40
12
 49
6
 49
-6
  0
LTYPE
  2
long_dashed_dotted
 70
   64
  3
------------- --- --------------
 72
   65
 73
    4
 40
15.25
 49
12
 49
-1.5
 49
0.25
 49
-1.5
  0
LTYPE
  2
long_dashed_double-dotted
 70
   64
  3
----------- --- --- ------------
 72
   65
 73
    6
 40
17
 49
12
 49
-1.5
 49
0.25
 49
-1.5
 49
0.25
 49
-1.5
  0
LTYPE
  2
long_dashed_triplicate-dotted
 70
   64
  3
--------- --- --- --- ----------
 72
   65
 73
    8
 40
18.75
 49
12
 49
-1.5
 49
0.25
 49
-1.5
 49
0.25
 49
-1.5
 49
0.25
 49
-1.5
  0
LTYPE
  2
dotted
 70
   64
  3
   -       -       -       -    
 72
   65
 73
    2
 40
1.75
 49
0.25
 49
-1.5
  0
LTYPE
  2
chain
 70
   64
  3
-------------- -- --------------
 72
   65
 73
    4
 40
18.5
 49
12
 49
-1.5
 49
3.5
 49
-1.5
  0
LTYPE
  2
chain_double_dash
 70
   64
  3
------------ -- -- -------------
 72
   65
 73
    6
 40
23.5
 49
12
 49
-1.5
 49
3.5
 49
-1.5
 49
3.5
 49
-1.5
  0
LTYPE
  2
dashed_dotted
 70
   64
  3
-----------     -     ----------
 72
   65
 73
    4
 40
9.25
 49
6
 49
-1.5
 49
0.25
 49
-1.5
  0
LTYPE
  2
double-dashed_dotted
 70
   64
  3
------   -----------   -   -----
 72
   65
 73
    6
 40
16.75
 49
6
 49
-1.5
 49
6
 49
-1.5
 49
0.25
 49
-1.5
  0
LTYPE
  2
dashed_double-dotted
 70
   64
  3
---------    -    -    ---------
 72
   65
 73
    6
 40
11
 49
6
 49
-1.5
 49
0.25
 49
-1.5
 49
0.25
 49
-1.5
  0
LTYPE
  2
double-dashed_double-dotted
 70
   64
  3
-----   ---------   -   -   ----
 72
   65
 73
    8
 40
18.5
 49
6
 49
-1.5
 49
6
 49
-1.5
 49
0.25
 49
-1.5
 49
0.25
 49
-1.5
  0
LTYPE
  2
dashed_triplicate-dotted
 70
   64
  3
-------    -    -    -    ------
 72
   65
 73
    8
 40
12.75
 49
6
 49
-1.5
 49
0.25
 49
-1.5
 49
0.25
 49
-1.5
 49
0.25
 49
-1.5
  0
LTYPE
  2
double-dashed_triplicate-dotted
 70
   64
  3
-----  ---------  -  -  -  -----
 72
   65
 73
   10
 40
20.25
 49
6
 49
-1.5
 49
6
 49
-1.5
 49
0.25
 49
-1.5
 49
0.25
 49
-1.5
 49
0.25
 49
-1.5
  0
LTYPE
  2
undefined
 70
   64
  3
--------------------------------
 72
   65
 73
    0
 40
0
  0
ENDTAB
  0
TABLE
  2
STYLE
  5
3
100
AcDbSymbolTable
 70
     1
  0
STYLE
  5
10
100
AcDbSymbolTableRecord
100
AcDbTextStyleTableRecord
  2
STANDARD
 70
     0
 40
0.0
 41
1.0
 50
0.0
 71
     0
 42
0.2
  3
txt
  4
bigfont.shx
  0
STYLE
  5
26
100
AcDbSymbolTableRecord
100
AcDbTextStyleTableRecord
  2
TATEGAKI
 70
    68
 40
0.0
 41
1.0
 50
0.0
 71
     0
 42
1.0
  3
txt
  4
bigfont.shx
  0
ENDTAB
  0
TABLE
  2
LAYER
 70
    4
  0
LAYER
  2
_0-0_
 70
   64
 62
    7
  6
CONTINUOUS
  0
LAYER
  2
_0-1_
 70
   64
 62
    7
  6
CONTINUOUS
  0
LAYER
  2
_0-f_
 70
   64
 62
    7
  6
CONTINUOUS
  0
LAYER
  2
ADD_LINE
 70
   64
 62
    7
  6
CONTINUOUS
  0
ENDTAB
  0
ENDSEC
  0
SECTION
  2
BLOCKS
  0
ENDSEC
  0
SECTION
  2
ENTITIES
  0
TEXT
  8
_0-f_
 62
    7
 10
1.4669735428619788
 20
0.8353423191018691
 40
4.2999999999999998
 41
0.744186046511628
 50
0
  1
F24H
  0
LINE
  8
_0-0_
  6
CONTINUOUS
 62
    7
 10
13.455712992183294
 20
34.516684741794961
 11
13.455712992183294
 21
20.516684741794961
  0
LINE
  8
_0-0_
  6
CONTINUOUS
 62
    7
 10
22.05571299218343
 20
21.916684741795052
 11
22.05571299218343
 21
9.0166847417949612
  0
LINE
  8
_0-0_
  6
CONTINUOUS
 62
    7
 10
20.55571299218343
 20
7.5166847417949612
 11
17.655712992183339
 21
7.5166847417949612
  0
LINE
  8
_0-0_
  6
CONTINUOUS
 62
    7
 10
17.155712992183339
 20
8.0166847417949612
 11
17.155712992183339
 21
9.7986507530449671
  0
LINE
  8
_0-0_
  6
CONTINUOUS
 62
    7
 10
17.208499396683351
 20
10.022257550795075
 11
17.617516391058302
 21
10.840291539544978
  0
LINE
  8
_0-0_
  6
CONTINUOUS
 62
    7
 10
18.064729986558291
 20
11.11668474179487
 11
19.55571299218343
 21
11.11668474179487
  0
LINE
  8
_0-0_
  6
CONTINUOUS
 62
    7
 10
20.05571299218343
 20
11.61668474179487
 11
20.05571299218343
 21
14.709577960608385
  0
LINE
  8
_0-0_
  6
CONTINUOUS
 62
    7
 10
19.909266382776536
 20
15.063131351201719
 11
18.202159601590097
 21
16.770238132388386
  0
LINE
  8
_0-0_
  6
CONTINUOUS
 62
    7
 10
17.848606210996763
 20
16.916684741795052
 11
6.2628197733698698
 21
16.916684741795052
  0
LINE
  8
_0-0_
  6
CONTINUOUS
 62
    7
 10
5.9092663827765364
 20
16.770238132388386
 11
4.2021596015900968
 21
15.063131351201719
  0
LINE
  8
_0-0_
  6
CONTINUOUS
 62
    7
 10
4.0557129921834303
 20
14.709577960608385
 11
4.0557129921834303
 21
11.61668474179487
  0
LINE
  8
_0-0_
  6
CONTINUOUS
 62
    7
 10
4.5557129921834303
 20
11.11668474179487
 11
6.0466959978083423
 21
11.11668474179487
  0
LINE
  8
_0-0_
  6
CONTINUOUS
 62
    7
 10
6.4939095933083308
 20
10.840291539544978
 11
6.9029265876832824
 21
10.022257550795075
  0
LINE
  8
_0-0_
  6
CONTINUOUS
 62
    7
 10
6.9557129921832939
 20
9.7986507530449671
 11
6.9557129921832939
 21
8.0166847417949612
  0
LINE
  8
_0-0_
  6
CONTINUOUS
 62
    7
 10
6.4557129921832939
 20
7.5166847417949612
 11
3.5557129921834303
 21
7.5166847417949612
  0
LINE
  8
_0-0_
  6
CONTINUOUS
 62
    7
 10
2.0557129921834303
 20
9.0166847417949612
 11
2.0557129921834303
 21
21.916684741795052
  0
LINE
  8
_0-0_
  6
CONTINUOUS
 62
    7
 10
2.5557129921834303
 20
22.416684741795052
 11
4.3376790034334363
 21
22.416684741795052
  0
LINE
  8
_0-0_
  6
CONTINUOUS
 62
    7
 10
4.5612858011835442
 20
22.363898337294813
 11
5.3793197899334473
 21
21.954881342920089
  0
LINE
  8
_0-0_
  6
CONTINUOUS
 62
    7
 10
5.6557129921833393
 20
21.507667747419873
 11
5.6557129921833393
 21
20.016726421993553
  0
LINE
  8
_0-0_
  6
CONTINUOUS
 62
    7
 10
6.1557070378743219
 20
19.516726422029024
 11
9.6557129921833393
 21
19.516684741794961
  0
LINE
  8
_0-0_
  6
CONTINUOUS
 62
    7
 10
10.655712992183339
 20
20.516684741794961
 11
10.655712992183339
 21
34.516684741794961
  0
LINE
  8
_0-0_
  6
CONTINUOUS
 62
    7
 10
9.6557129921833393
 20
35.516684741794961
 11
6.1557070378743219
 21
35.516643061560899
  0
LINE
  8
_0-0_
  6
CONTINUOUS
 62
    7
 10
5.6557129921833393
 20
35.016643061596369
 11
5.6557129921833393
 21
33.525701736170049
  0
LINE
  8
_0-0_
  6
CONTINUOUS
 62
    7
 10
5.3793197899334473
 20
33.078488140669833
 11
4.5612858011835442
 21
32.669471146295109
  0
LINE
  8
_0-0_
  6
CONTINUOUS
 62
    7
 10
4.3376790034334363
 20
32.61668474179487
 11
2.5557129921834303
 21
32.61668474179487
  0
LINE
  8
_0-0_
  6
CONTINUOUS
 62
    7
 10
2.0557129921834303
 20
33.11668474179487
 11
2.0557129921834303
 21
46.016684741794961
  0
LINE
  8
_0-0_
  6
CONTINUOUS
 62
    7
 10
3.5557129921834303
 20
47.516684741794961
 11
6.4557129921832939
 21
47.516684741794961
  0
LINE
  8
_0-0_
  6
CONTINUOUS
 62
    7
 10
6.9557129921832939
 20
47.016684741794961
 11
6.9557129921832939
 21
45.234718730544955
  0
LINE
  8
_0-0_
  6
CONTINUOUS
 62
    7
 10
6.9029265876832824
 20
45.011111932794847
 11
6.4939095933083308
 21
44.193077944044944
  0
LINE
  8
_0-0_
  6
CONTINUOUS
 62
    7
 10
6.0466959978083423
 20
43.916684741795052
 11
4.5557129921834303
 21
43.916684741795052
  0
LINE
  8
_0-0_
  6
CONTINUOUS
 62
    7
 10
4.0557129921834303
 20
43.416684741795052
 11
4.0557129921834303
 21
40.323791522981537
  0
LINE
  8
_0-0_
  6
CONTINUOUS
 62
    7
 10
4.2021596015900968
 20
39.970238132388204
 11
5.9092663827765364
 21
38.263131351201537
  0
LINE
  8
_0-0_
  6
CONTINUOUS
 62
    7
 10
6.2628197733698698
 20
38.11668474179487
 11
17.848606210996763
 21
38.11668474179487
  0
LINE
  8
_0-0_
  6
CONTINUOUS
 62
    7
 10
18.202159601590097
 20
38.263131351201537
 11
19.909266382776536
 21
39.970238132388204
  0
LINE
  8
_0-0_
  6
CONTINUOUS
 62
    7
 10
20.05571299218343
 20
40.323791522981537
 11
20.05571299218343
 21
43.416684741795052
  0
LINE
  8
_0-0_
  6
CONTINUOUS
 62
    7
 10
19.55571299218343
 20
43.916684741795052
 11
18.064729986558291
 21
43.916684741795052
  0
LINE
  8
_0-0_
  6
CONTINUOUS
 62
    7
 10
17.617516391058302
 20
44.193077944044944
 11
17.208499396683351
 21
45.011111932794847
  0
LINE
  8
_0-0_
  6
CONTINUOUS
 62
    7
 10
17.155712992183339
 20
45.234718730544955
 11
17.155712992183339
 21
47.016684741794961
  0
LINE
  8
_0-0_
  6
CONTINUOUS
 62
    7
 10
17.655712992183339
 20
47.516684741794961
 11
20.55571299218343
 21
47.516684741794961
  0
LINE
  8
_0-0_
  6
CONTINUOUS
 62
    7
 10
22.05571299218343
 20
46.016684741794961
 11
22.05571299218343
 21
33.11668474179487
  0
LINE
  8
_0-0_
  6
CONTINUOUS
 62
    7
 10
21.55571299218343
 20
32.61668474179487
 11
19.773746980933197
 21
32.61668474179487
  0
LINE
  8
_0-0_
  6
CONTINUOUS
 62
    7
 10
19.550140183183316
 20
32.669471146295109
 11
18.732106194433413
 21
33.078488140669833
  0
LINE
  8
_0-0_
  6
CONTINUOUS
 62
    7
 10
18.455712992183294
 20
33.525701736170049
 11
18.455712992183294
 21
35.016643061596369
  0
LINE
  8
_0-0_
  6
CONTINUOUS
 62
    7
 10
17.955718946492311
 20
35.516643061560899
 11
14.455712992183294
 21
35.516684741794961
  0
LINE
  8
_0-0_
  6
CONTINUOUS
 62
    7
 10
14.455712992183294
 20
19.516684741794961
 11
17.955718946492311
 21
19.516726422029024
  0
LINE
  8
_0-0_
  6
CONTINUOUS
 62
    7
 10
18.455712992183294
 20
20.016726421993553
 11
18.455712992183294
 21
21.507667747419873
  0
LINE
  8
_0-0_
  6
CONTINUOUS
 62
    7
 10
18.732106194433413
 20
21.954881342920089
 11
19.550140183183316
 21
22.363898337294813
  0
LINE
  8
_0-0_
  6
CONTINUOUS
 62
    7
 10
19.773746980933197
 20
22.416684741795052
 11
21.55571299218343
 21
22.416684741795052
  0
ARC
  8
_0-0_
  6
CONTINUOUS
 62
    7
 10
18.955712992183294
 20
21.507667747419873
 40
0.5
 50
116.56505117707744
 51
180
  0
ARC
  8
_0-0_
  6
CONTINUOUS
 62
    7
 10
14.455712992183294
 20
20.516684741794961
 40
1
 50
180
 51
270
  0
ARC
  8
_0-0_
  6
CONTINUOUS
 62
    7
 10
21.55571299218343
 20
21.916684741795052
 40
0.5
 50
0
 51
90
  0
ARC
  8
_0-0_
  6
CONTINUOUS
 62
    7
 10
19.773746980933197
 20
21.916684741795052
 40
0.5
 50
90
 51
116.56505117707769
  0
ARC
  8
_0-0_
  6
CONTINUOUS
 62
    7
 10
17.955712992183294
 20
20.016726421993553
 40
0.5
 50
270.0006823135534
 51
0.0000000000000381
  0
ARC
  8
_0-0_
  6
CONTINUOUS
 62
    7
 10
19.55571299218343
 20
11.61668474179487
 40
0.5
 50
270
 51
0
  0
ARC
  8
_0-0_
  6
CONTINUOUS
 62
    7
 10
19.55571299218343
 20
14.709577960608385
 40
0.5
 50
0
 51
45
  0
ARC
  8
_0-0_
  6
CONTINUOUS
 62
    7
 10
17.655712992183339
 20
8.0166847417949612
 40
0.5
 50
180
 51
270
  0
ARC
  8
_0-0_
  6
CONTINUOUS
 62
    7
 10
17.655712992183339
 20
9.7986507530449671
 40
0.5
 50
153.43494882292205
 51
180
  0
ARC
  8
_0-0_
  6
CONTINUOUS
 62
    7
 10
18.064729986558291
 20
10.61668474179487
 40
0.5
 50
90
 51
153.43494882292208
  0
ARC
  8
_0-0_
  6
CONTINUOUS
 62
    7
 10
17.848606210996763
 20
16.416684741795052
 40
0.5
 50
44.99999999999995
 51
89.999999999999943
  0
ARC
  8
_0-0_
  6
CONTINUOUS
 62
    7
 10
20.55571299218343
 20
9.0166847417949612
 40
1.4999999999999998
 50
270
 51
0
  0
ARC
  8
_0-0_
  6
CONTINUOUS
 62
    7
 10
18.955712992183294
 20
33.525701736170049
 40
0.5
 50
180
 51
243.43494882292256
  0
ARC
  8
_0-0_
  6
CONTINUOUS
 62
    7
 10
14.455712992183294
 20
34.516684741794961
 40
1
 50
90
 51
180
  0
ARC
  8
_0-0_
  6
CONTINUOUS
 62
    7
 10
21.55571299218343
 20
33.11668474179487
 40
0.5
 50
270
 51
0
  0
ARC
  8
_0-0_
  6
CONTINUOUS
 62
    7
 10
19.773746980933197
 20
33.11668474179487
 40
0.5
 50
243.43494882292231
 51
270
  0
ARC
  8
_0-0_
  6
CONTINUOUS
 62
    7
 10
17.955712992183294
 20
35.016643061596369
 40
0.5
 50
0
 51
89.999317686446545
  0
ARC
  8
_0-0_
  6
CONTINUOUS
 62
    7
 10
19.55571299218343
 20
43.416684741795052
 40
0.5
 50
0
 51
90
  0
ARC
  8
_0-0_
  6
CONTINUOUS
 62
    7
 10
19.55571299218343
 20
40.323791522981537
 40
0.5
 50
314.99999999999994
 51
0.0000000000000063
  0
ARC
  8
_0-0_
  6
CONTINUOUS
 62
    7
 10
17.655712992183339
 20
47.016684741794961
 40
0.5
 50
90
 51
180
  0
ARC
  8
_0-0_
  6
CONTINUOUS
 62
    7
 10
17.655712992183339
 20
45.234718730544955
 40
0.5
 50
180
 51
206.56505117707795
  0
ARC
  8
_0-0_
  6
CONTINUOUS
 62
    7
 10
18.064729986558291
 20
44.416684741795052
 40
0.5
 50
206.56505117707792
 51
270
  0
ARC
  8
_0-0_
  6
CONTINUOUS
 62
    7
 10
17.848606210996763
 20
38.61668474179487
 40
0.5
 50
270.00000000000006
 51
315.00000000000006
  0
ARC
  8
_0-0_
  6
CONTINUOUS
 62
    7
 10
20.55571299218343
 20
46.016684741794961
 40
1.4999999999999998
 50
0
 51
90
  0
ARC
  8
_0-0_
  6
CONTINUOUS
 62
    7
 10
5.1557129921833393
 20
33.525701736170049
 40
0.5
 50
296.56505117707741
 51
0
  0
ARC
  8
_0-0_
  6
CONTINUOUS
 62
    7
 10
9.6557129921833393
 20
34.516684741794961
 40
1
 50
0
 51
90
  0
ARC
  8
_0-0_
  6
CONTINUOUS
 62
    7
 10
2.5557129921834303
 20
33.11668474179487
 40
0.5
 50
180
 51
270
  0
ARC
  8
_0-0_
  6
CONTINUOUS
 62
    7
 10
4.3376790034334363
 20
33.11668474179487
 40
0.5
 50
270
 51
296.56505117707769
  0
ARC
  8
_0-0_
  6
CONTINUOUS
 62
    7
 10
6.1557129921833393
 20
35.016643061596369
 40
0.5
 50
90.000682313553412
 51
180
  0
ARC
  8
_0-0_
  6
CONTINUOUS
 62
    7
 10
4.5557129921834303
 20
43.416684741795052
 40
0.5
 50
90
 51
180
  0
ARC
  8
_0-0_
  6
CONTINUOUS
 62
    7
 10
4.5557129921834303
 20
40.323791522981537
 40
0.5
 50
180
 51
225.00000000000003
  0
ARC
  8
_0-0_
  6
CONTINUOUS
 62
    7
 10
6.4557129921832939
 20
47.016684741794961
 40
0.5
 50
0
 51
90
  0
ARC
  8
_0-0_
  6
CONTINUOUS
 62
    7
 10
6.4557129921832939
 20
45.234718730544955
 40
0.5
 50
333.43494882292214
 51
0.0000000000000254
  0
ARC
  8
_0-0_
  6
CONTINUOUS
 62
    7
 10
6.0466959978083423
 20
44.416684741795052
 40
0.5
 50
270
 51
333.43494882292208
  0
ARC
  8
_0-0_
  6
CONTINUOUS
 62
    7
 10
6.2628197733698698
 20
38.61668474179487
 40
0.5
 50
224.99999999999994
 51
269.99999999999994
  0
ARC
  8
_0-0_
  6
CONTINUOUS
 62
    7
 10
3.5557129921834303
 20
46.016684741794961
 40
1.4999999999999998
 50
90
 51
180
  0
ARC
  8
_0-0_
  6
CONTINUOUS
 62
    7
 10
5.1557129921833393
 20
21.507667747419873
 40
0.5
 50
0
 51
63.434948822922593
  0
ARC
  8
_0-0_
  6
CONTINUOUS
 62
    7
 10
9.6557129921833393
 20
20.516684741794961
 40
1
 50
270
 51
0
  0
ARC
  8
_0-0_
  6
CONTINUOUS
 62
    7
 10
2.5557129921834303
 20
21.916684741795052
 40
0.5
 50
90
 51
180
  0
ARC
  8
_0-0_
  6
CONTINUOUS
 62
    7
 10
4.3376790034334363
 20
21.916684741795052
 40
0.5
 50
63.434948822922316
 51
90
  0
ARC
  8
_0-0_
  6
CONTINUOUS
 62
    7
 10
6.1557129921833393
 20
20.016726421993553
 40
0.5
 50
180
 51
269.99931768644655
  0
ARC
  8
_0-0_
  6
CONTINUOUS
 62
    7
 10
4.5557129921834303
 20
11.61668474179487
 40
0.5
 50
180
 51
270
  0
ARC
  8
_0-0_
  6
CONTINUOUS
 62
    7
 10
4.5557129921834303
 20
14.709577960608385
 40
0.5
 50
135
 51
180.00000000000003
  0
ARC
  8
_0-0_
  6
CONTINUOUS
 62
    7
 10
6.4557129921832939
 20
8.0166847417949612
 40
0.5
 50
270
 51
0
  0
ARC
  8
_0-0_
  6
CONTINUOUS
 62
    7
 10
6.4557129921832939
 20
9.7986507530449671
 40
0.5
 50
0
 51
26.565051177077915
  0
ARC
  8
_0-0_
  6
CONTINUOUS
 62
    7
 10
6.0466959978083423
 20
10.61668474179487
 40
0.5
 50
26.565051177077894
 51
90.000000000000043
  0
ARC
  8
_0-0_
  6
CONTINUOUS
 62
    7
 10
6.2628197733698698
 20
16.416684741795052
 40
0.5
 50
90.000000000000057
 51
135.00000000000006
  0
ARC
  8
_0-0_
  6
CONTINUOUS
 62
    7
 10
3.5557129921834303
 20
9.0166847417949612
 40
1.4999999999999998
 50
180
 51
270
  0
LINE
  8
_0-1_
  6
CENTER1
 62
  152
 10
2.0557129921834303
 20
27.516684741794961
 11
22.05571299218343
 21
27.516684741794961
  0
LINE
  8
_0-1_
  6
CENTER1
 62
  152
 10
12.05571299218343
 20
7.5166847417949612
 11
12.05571299218343
 21
47.516684741794961
  0
ENDSEC
  0
EOF
