  0
SECTION
  2
HEADER
  9
$ACADVER
  1
AC1009
  9
$INSBASE
 10
0
 20
0
 30
0
  9
$EXTMIN
 10
0
 20
0
  9
$EXTMAX
 10
1189
 20
841
  9
$LIMMIN
 10
0
 20
0
  9
$LIMMAX
 10
1189
 20
841
  9
$LTSCALE
 40
1
  0
ENDSEC
  0
SECTION
  2
TABLES
  0
TABLE
  2
LTYPE
 70
     9
  0
LTYPE
  2
CONTINUOUS
 70
    64
  3
実線
 72
    65
 73
     0
 40
0.0
  0
LTYPE
  2
DASHED1
 70
    64
  3
--  --  --  --  --  --  --  --  
 72
    65
 73
     2
 40
2.5
 49
1.25
 49
-1.25
  0
LTYPE
  2
DASHED2
 70
    64
  3
----    ----    ----    ----    
 72
    65
 73
     2
 40
5.0
 49
2.5
 49
-2.5
  0
LTYPE
  2
DASHED3
 70
    64
  3
------  ------  ------  ------  
 72
    65
 73
     2
 40
5.0
 49
3.75
 49
-1.25
  0
LTYPE
  2
CENTER1
 70
    64
  3
----- - ----- - ----- - ----- - 
 72
    65
 73
     4
 40
10.0
 49
6.25
 49
-1.25
 49
1.25
 49
-1.25
  0
LTYPE
  2
CENTER2
 70
    64
  3
----------  --  ----------  --  
 72
    65
 73
     4
 40
20.0
 49
12.5
 49
-2.5
 49
2.5
 49
-2.5
  0
LTYPE
  2
PHANTOM1
 70
    64
  3
--- - - --- - - --- - - --- - - 
 72
    65
 73
     6
 40
10.0
 49
3.25
 49
-1.25
 49
1.25
 49
-1.25
 49
1.25
 49
-1.25
  0
LTYPE
  2
PHANTOM2
 70
    64
  3
--------  -  -  --------  -  -  
 72
    65
 73
     6
 40
20.0
 49
10.0
 49
-2.5
 49
1.25
 49
-2.5
 49
1.25
 49
-2.5
  0
LTYPE
  2
DOT
 70
    64
  3
-   -   -   -   -   -   -   -   
 72
    65
 73
     2
 40
2.5
 49
0.625
 49
-1.875
  0
LTYPE
  2
DUMMY
 70
    64
  3
ダミー
 72
    65
 73
     0
 40
0.0
  0
LTYPE
  2
RAND1
 70
    64
  3
ランダム線1
 72
    65
 73
     4
 40
10.0
 49
1.0
 49
-2.0
 49
3.0
 49
-4.0
  0
LTYPE
  2
RAND2
 70
    64
  3
ランダム線2
 72
    65
 73
     4
 40
14.0
 49
2.0
 49
-3.0
 49
4.0
 49
-5.0
  0
LTYPE
  2
RAND3
 70
    64
  3
ランダム線3
 72
    65
 73
     4
 40
18.0
 49
3.0
 49
-4.0
 49
5.0
 49
-6.0
  0
LTYPE
  2
RAND4
 70
    64
  3
ランダム線4
 72
    65
 73
     4
 40
22.0
 49
4.0
 49
-5.0
 49
6.0
 49
-7.0
  0
LTYPE
  2
RAND5
 70
    64
  3
ランダム線5
 72
    65
 73
     4
 40
26.0
 49
5.0
 49
-6.0
 49
7.0
 49
-8.0
  0
LTYPE
  2
LONG1
 70
    64
  3
----------  --  ----------  --  
 72
    65
 73
     4
 40
40.0
 49
32.5
 49
-2.5
 49
2.5
 49
-2.5
  0
LTYPE
  2
LONG2
 70
    64
  3
--------  -  -  --------  -  -  
 72
    65
 73
     6
 40
40.0
 49
30.0
 49
-2.5
 49
1.25
 49
-2.5
 49
1.25
 49
-2.5
  0
LTYPE
  2
LONG3
 70
    64
  3
+++++++++++++++..+++++++++++++++
 72
    65
 73
     2
 40
40.0
 49
37.5
 49
-2.5
  0
LTYPE
  2
LONG4
 70
    64
  3
+++++++++++++++..+++++++++++++++
 72
    65
 73
     2
 40
80.0
 49
75.0
 49
-5.0
  0
LTYPE
  2
LONG5
 70
    64
  3
----------  --  ----------  --  
 72
    65
 73
     4
 40
60.0
 49
37.5
 49
-7.5
 49
7.5
 49
-7.5
  0
LTYPE
  2
dashed
 70
   64
  3
-------   -------------   ------
 72
   65
 73
    2
 40
7.5
 49
6
 49
-1.5
  0
LTYPE
  2
dashed_spaced
 70
   64
  3
----        --------        ----
 72
   65
 73
    2
 40
12
 49
6
 49
-6
  0
LTYPE
  2
long_dashed_dotted
 70
   64
  3
------------- --- --------------
 72
   65
 73
    4
 40
15.25
 49
12
 49
-1.5
 49
0.25
 49
-1.5
  0
LTYPE
  2
long_dashed_double-dotted
 70
   64
  3
----------- --- --- ------------
 72
   65
 73
    6
 40
17
 49
12
 49
-1.5
 49
0.25
 49
-1.5
 49
0.25
 49
-1.5
  0
LTYPE
  2
long_dashed_triplicate-dotted
 70
   64
  3
--------- --- --- --- ----------
 72
   65
 73
    8
 40
18.75
 49
12
 49
-1.5
 49
0.25
 49
-1.5
 49
0.25
 49
-1.5
 49
0.25
 49
-1.5
  0
LTYPE
  2
dotted
 70
   64
  3
   -       -       -       -    
 72
   65
 73
    2
 40
1.75
 49
0.25
 49
-1.5
  0
LTYPE
  2
chain
 70
   64
  3
-------------- -- --------------
 72
   65
 73
    4
 40
18.5
 49
12
 49
-1.5
 49
3.5
 49
-1.5
  0
LTYPE
  2
chain_double_dash
 70
   64
  3
------------ -- -- -------------
 72
   65
 73
    6
 40
23.5
 49
12
 49
-1.5
 49
3.5
 49
-1.5
 49
3.5
 49
-1.5
  0
LTYPE
  2
dashed_dotted
 70
   64
  3
-----------     -     ----------
 72
   65
 73
    4
 40
9.25
 49
6
 49
-1.5
 49
0.25
 49
-1.5
  0
LTYPE
  2
double-dashed_dotted
 70
   64
  3
------   -----------   -   -----
 72
   65
 73
    6
 40
16.75
 49
6
 49
-1.5
 49
6
 49
-1.5
 49
0.25
 49
-1.5
  0
LTYPE
  2
dashed_double-dotted
 70
   64
  3
---------    -    -    ---------
 72
   65
 73
    6
 40
11
 49
6
 49
-1.5
 49
0.25
 49
-1.5
 49
0.25
 49
-1.5
  0
LTYPE
  2
double-dashed_double-dotted
 70
   64
  3
-----   ---------   -   -   ----
 72
   65
 73
    8
 40
18.5
 49
6
 49
-1.5
 49
6
 49
-1.5
 49
0.25
 49
-1.5
 49
0.25
 49
-1.5
  0
LTYPE
  2
dashed_triplicate-dotted
 70
   64
  3
-------    -    -    -    ------
 72
   65
 73
    8
 40
12.75
 49
6
 49
-1.5
 49
0.25
 49
-1.5
 49
0.25
 49
-1.5
 49
0.25
 49
-1.5
  0
LTYPE
  2
double-dashed_triplicate-dotted
 70
   64
  3
-----  ---------  -  -  -  -----
 72
   65
 73
   10
 40
20.25
 49
6
 49
-1.5
 49
6
 49
-1.5
 49
0.25
 49
-1.5
 49
0.25
 49
-1.5
 49
0.25
 49
-1.5
  0
LTYPE
  2
undefined
 70
   64
  3
--------------------------------
 72
   65
 73
    0
 40
0
  0
ENDTAB
  0
TABLE
  2
STYLE
  5
3
100
AcDbSymbolTable
 70
     1
  0
STYLE
  5
10
100
AcDbSymbolTableRecord
100
AcDbTextStyleTableRecord
  2
STANDARD
 70
     0
 40
0.0
 41
1.0
 50
0.0
 71
     0
 42
0.2
  3
txt
  4
bigfont.shx
  0
STYLE
  5
26
100
AcDbSymbolTableRecord
100
AcDbTextStyleTableRecord
  2
TATEGAKI
 70
    68
 40
0.0
 41
1.0
 50
0.0
 71
     0
 42
1.0
  3
txt
  4
bigfont.shx
  0
ENDTAB
  0
TABLE
  2
LAYER
 70
    4
  0
LAYER
  2
_0-0_
 70
   64
 62
    7
  6
CONTINUOUS
  0
LAYER
  2
_0-1_
 70
   64
 62
    7
  6
CONTINUOUS
  0
LAYER
  2
_0-f_
 70
   64
 62
    7
  6
CONTINUOUS
  0
LAYER
  2
ADD_LINE
 70
   64
 62
    7
  6
CONTINUOUS
  0
ENDTAB
  0
ENDSEC
  0
SECTION
  2
BLOCKS
  0
ENDSEC
  0
SECTION
  2
ENTITIES
  0
TEXT
  8
_0-f_
 62
    7
 10
0.7083572668051374
 20
1.045293599990714
 40
4.2999999999999998
 41
0.744186046511628
 50
0
  1
F240
  0
LINE
  8
_0-0_
  6
CONTINUOUS
 62
    7
 10
42.910567679772839
 20
8.7717220039729114
 11
42.910567679772839
 21
16.37172200397282
  0
LINE
  8
_0-0_
  6
CONTINUOUS
 62
    7
 10
42.610567679772885
 20
16.671722003973002
 11
41.410567679772839
 21
16.671722003973002
  0
LINE
  8
_0-0_
  6
CONTINUOUS
 62
    7
 10
41.110567679773112
 20
16.37172200397282
 11
41.110567679773112
 21
14.571722003972866
  0
LINE
  8
_0-0_
  6
CONTINUOUS
 62
    7
 10
40.81056767977293
 20
14.271722003972911
 11
38.034831748484748
 21
14.271722003972911
  0
LINE
  8
_0-0_
  6
CONTINUOUS
 62
    7
 10
37.82269971412893
 20
14.359589969617048
 11
36.79843564541693
 21
15.38385403832882
  0
LINE
  8
_0-0_
  6
CONTINUOUS
 62
    7
 10
36.710567679773021
 20
15.595986072684866
 11
36.710567679773021
 21
24.947457935260957
  0
LINE
  8
_0-0_
  6
CONTINUOUS
 62
    7
 10
36.79843564541693
 20
25.159589969616775
 11
37.82269971412893
 21
26.183854038328775
  0
LINE
  8
_0-0_
  6
CONTINUOUS
 62
    7
 10
38.034831748484748
 20
26.271722003972911
 11
40.81056767977293
 21
26.271722003972911
  0
LINE
  8
_0-0_
  6
CONTINUOUS
 62
    7
 10
41.110567679773112
 20
25.971722003972957
 11
41.110567679773112
 21
24.171722003972775
  0
LINE
  8
_0-0_
  6
CONTINUOUS
 62
    7
 10
41.410567679772839
 20
23.87172200397282
 11
42.610567679772885
 21
23.87172200397282
  0
LINE
  8
_0-0_
  6
CONTINUOUS
 62
    7
 10
42.910567679772839
 20
24.171722003973002
 11
42.910567679772839
 21
31.771722003972911
  0
LINE
  8
_0-0_
  6
CONTINUOUS
 62
    7
 10
41.910567679772839
 20
32.771722003972911
 11
34.31056767977293
 21
32.771722003972911
  0
LINE
  8
_0-0_
  6
CONTINUOUS
 62
    7
 10
34.010567679772976
 20
32.471722003972729
 11
34.010567679772976
 21
31.271722003972911
  0
LINE
  8
_0-0_
  6
CONTINUOUS
 62
    7
 10
34.310567679772703
 20
30.971722003973184
 11
36.110567679772885
 21
30.971722003973184
  0
LINE
  8
_0-0_
  6
CONTINUOUS
 62
    7
 10
36.410567679772839
 20
30.671722003973002
 11
36.410567679772839
 21
27.895986072684821
  0
LINE
  8
_0-0_
  6
CONTINUOUS
 62
    7
 10
36.322699714128703
 20
27.683854038329002
 11
35.298435645416703
 21
26.659589969617002
  0
LINE
  8
_0-0_
  6
CONTINUOUS
 62
    7
 10
35.086303611060885
 20
26.571722003973093
 11
30.610567679772885
 21
26.571722003973093
  0
LINE
  8
_0-0_
  6
CONTINUOUS
 62
    7
 10
30.610567679772885
 20
26.571722003973093
 11
30.410567679772839
 21
26.371722003973048
  0
LINE
  8
_0-0_
  6
CONTINUOUS
 62
    7
 10
30.410567679772839
 20
26.371722003973048
 11
30.210567679772794
 21
26.571722003973093
  0
LINE
  8
_0-0_
  6
CONTINUOUS
 62
    7
 10
30.210567679772794
 20
26.571722003973093
 11
25.734831748484794
 21
26.571722003973093
  0
LINE
  8
_0-0_
  6
CONTINUOUS
 62
    7
 10
25.522699714128748
 20
26.659589969617002
 11
24.198435645417021
 21
27.983854038329014
  0
LINE
  8
_0-0_
  6
CONTINUOUS
 62
    7
 10
24.110567679773112
 20
28.195986072684946
 11
24.110567679773112
 21
30.671722003973173
  0
LINE
  8
_0-0_
  6
CONTINUOUS
 62
    7
 10
24.410567679773067
 20
30.971722003973184
 11
26.510567679772748
 21
30.971722003973184
  0
LINE
  8
_0-0_
  6
CONTINUOUS
 62
    7
 10
26.810567679772703
 20
31.271722003972911
 11
26.810567679772703
 21
32.471722003972729
  0
LINE
  8
_0-0_
  6
CONTINUOUS
 62
    7
 10
26.510567679772976
 20
32.771722003972911
 11
19.310567679772703
 21
32.771722003972911
  0
LINE
  8
_0-0_
  6
CONTINUOUS
 62
    7
 10
19.010567679772976
 20
32.471722003972729
 11
19.010567679772976
 21
31.271722003972911
  0
LINE
  8
_0-0_
  6
CONTINUOUS
 62
    7
 10
19.31056767977293
 20
30.971722003973184
 11
21.410567679773067
 21
30.971722003973184
  0
LINE
  8
_0-0_
  6
CONTINUOUS
 62
    7
 10
21.710567679773021
 20
30.671722003973173
 11
21.710567679773021
 21
28.195986072685344
  0
LINE
  8
_0-0_
  6
CONTINUOUS
 62
    7
 10
21.622699714129112
 20
27.983854038329355
 11
20.29843564541693
 21
26.659589969617002
  0
LINE
  8
_0-0_
  6
CONTINUOUS
 62
    7
 10
20.086303611060885
 20
26.571722003973093
 11
15.610567679772885
 21
26.571722003973093
  0
LINE
  8
_0-0_
  6
CONTINUOUS
 62
    7
 10
15.610567679772885
 20
26.571722003973093
 11
15.410567679772839
 21
26.371722003973048
  0
LINE
  8
_0-0_
  6
CONTINUOUS
 62
    7
 10
15.410567679772839
 20
26.371722003973048
 11
15.210567679772794
 21
26.571722003973093
  0
LINE
  8
_0-0_
  6
CONTINUOUS
 62
    7
 10
15.210567679772794
 20
26.571722003973093
 11
10.734831748484794
 21
26.571722003973093
  0
LINE
  8
_0-0_
  6
CONTINUOUS
 62
    7
 10
10.522699714128976
 20
26.659589969617002
 11
9.4984356454169756
 21
27.683854038329002
  0
LINE
  8
_0-0_
  6
CONTINUOUS
 62
    7
 10
9.4105676797728393
 20
27.895986072684821
 11
9.4105676797728393
 21
30.671722003973002
  0
LINE
  8
_0-0_
  6
CONTINUOUS
 62
    7
 10
9.7105676797727938
 20
30.971722003973184
 11
11.510567679772976
 21
30.971722003973184
  0
LINE
  8
_0-0_
  6
CONTINUOUS
 62
    7
 10
11.810567679772703
 20
31.271722003972911
 11
11.810567679772703
 21
32.471722003972729
  0
LINE
  8
_0-0_
  6
CONTINUOUS
 62
    7
 10
11.510567679772748
 20
32.771722003972911
 11
3.9105676797728393
 21
32.771722003972911
  0
LINE
  8
_0-0_
  6
CONTINUOUS
 62
    7
 10
2.9105676797728393
 20
31.771722003972911
 11
2.9105676797728393
 21
24.171722003973002
  0
LINE
  8
_0-0_
  6
CONTINUOUS
 62
    7
 10
3.2105676797727938
 20
23.87172200397282
 11
4.4105676797728393
 21
23.87172200397282
  0
LINE
  8
_0-0_
  6
CONTINUOUS
 62
    7
 10
4.7105676797725664
 20
24.171722003973002
 11
4.7105676797725664
 21
25.971722003972957
  0
LINE
  8
_0-0_
  6
CONTINUOUS
 62
    7
 10
5.0105676797727483
 20
26.271722003972911
 11
7.7863036110609301
 21
26.271722003972911
  0
LINE
  8
_0-0_
  6
CONTINUOUS
 62
    7
 10
7.9984356454167482
 20
26.183854038328775
 11
9.0226997141287484
 21
25.159589969617002
  0
LINE
  8
_0-0_
  6
CONTINUOUS
 62
    7
 10
9.1105676797726574
 20
24.947457935260957
 11
9.1105676797726574
 21
15.595986072684866
  0
LINE
  8
_0-0_
  6
CONTINUOUS
 62
    7
 10
9.0226997141287484
 20
15.383854038329048
 11
7.9984356454167482
 21
14.359589969617048
  0
LINE
  8
_0-0_
  6
CONTINUOUS
 62
    7
 10
7.7863036110609301
 20
14.271722003972911
 11
5.0105676797727483
 21
14.271722003972911
  0
LINE
  8
_0-0_
  6
CONTINUOUS
 62
    7
 10
4.7105676797725664
 20
14.571722003972866
 11
4.7105676797725664
 21
16.371722003973048
  0
LINE
  8
_0-0_
  6
CONTINUOUS
 62
    7
 10
4.4105676797728393
 20
16.671722003973002
 11
3.2105676797727938
 21
16.671722003973002
  0
LINE
  8
_0-0_
  6
CONTINUOUS
 62
    7
 10
2.9105676797728393
 20
16.37172200397282
 11
2.9105676797728393
 21
8.7717220039729114
  0
LINE
  8
_0-0_
  6
CONTINUOUS
 62
    7
 10
3.9105676797728393
 20
7.7717220039729114
 11
11.510567679772748
 21
7.7717220039729114
  0
LINE
  8
_0-0_
  6
CONTINUOUS
 62
    7
 10
11.810567679772703
 20
8.0717220039728659
 11
11.810567679772703
 21
9.2717220039729114
  0
LINE
  8
_0-0_
  6
CONTINUOUS
 62
    7
 10
11.510567679772748
 20
9.5717220039726385
 11
9.7105676797727938
 21
9.5717220039726385
  0
LINE
  8
_0-0_
  6
CONTINUOUS
 62
    7
 10
9.4105676797728393
 20
9.8717220039728204
 11
9.4105676797728393
 21
12.647457935261002
  0
LINE
  8
_0-0_
  6
CONTINUOUS
 62
    7
 10
9.4984356454169756
 20
12.85958996961682
 11
10.522699714128748
 21
13.88385403832882
  0
LINE
  8
_0-0_
  6
CONTINUOUS
 62
    7
 10
10.734831748484794
 20
13.971722003972729
 11
15.210567679772794
 21
13.971722003972729
  0
LINE
  8
_0-0_
  6
CONTINUOUS
 62
    7
 10
15.210567679772794
 20
13.971722003972729
 11
15.410567679772839
 21
14.171722003972718
  0
LINE
  8
_0-0_
  6
CONTINUOUS
 62
    7
 10
15.410567679772839
 20
14.171722003972718
 11
15.610567679772885
 21
13.971722003972729
  0
LINE
  8
_0-0_
  6
CONTINUOUS
 62
    7
 10
15.610567679772885
 20
13.971722003972729
 11
20.086303611060885
 21
13.971722003972729
  0
LINE
  8
_0-0_
  6
CONTINUOUS
 62
    7
 10
20.298435645416703
 20
13.88385403832882
 11
21.622699714129112
 21
12.559589969616525
  0
LINE
  8
_0-0_
  6
CONTINUOUS
 62
    7
 10
21.710567679773021
 20
12.347457935260593
 11
21.710567679773021
 21
9.8717220039726499
  0
LINE
  8
_0-0_
  6
CONTINUOUS
 62
    7
 10
21.410567679773067
 20
9.5717220039726385
 11
19.310567679772703
 21
9.5717220039726385
  0
LINE
  8
_0-0_
  6
CONTINUOUS
 62
    7
 10
19.010567679772976
 20
9.2717220039729114
 11
19.010567679772976
 21
8.0717220039728659
  0
LINE
  8
_0-0_
  6
CONTINUOUS
 62
    7
 10
19.310567679772703
 20
7.7717220039729114
 11
26.510567679772976
 21
7.7717220039729114
  0
LINE
  8
_0-0_
  6
CONTINUOUS
 62
    7
 10
26.810567679772703
 20
8.0717220039728659
 11
26.810567679772703
 21
9.2717220039729114
  0
LINE
  8
_0-0_
  6
CONTINUOUS
 62
    7
 10
26.510567679772976
 20
9.5717220039726385
 11
24.410567679773067
 21
9.5717220039726385
  0
LINE
  8
_0-0_
  6
CONTINUOUS
 62
    7
 10
24.110567679773112
 20
9.8717220039726499
 11
24.110567679773112
 21
12.347457935260934
  0
LINE
  8
_0-0_
  6
CONTINUOUS
 62
    7
 10
24.198435645417021
 20
12.559589969616923
 11
25.522699714128976
 21
13.88385403832882
  0
LINE
  8
_0-0_
  6
CONTINUOUS
 62
    7
 10
25.734831748484794
 20
13.971722003972729
 11
30.210567679772794
 21
13.971722003972729
  0
LINE
  8
_0-0_
  6
CONTINUOUS
 62
    7
 10
30.210567679772794
 20
13.971722003972729
 11
30.410567679772839
 21
14.171722003972718
  0
LINE
  8
_0-0_
  6
CONTINUOUS
 62
    7
 10
30.410567679772839
 20
14.171722003972718
 11
30.610567679772885
 21
13.971722003972729
  0
LINE
  8
_0-0_
  6
CONTINUOUS
 62
    7
 10
30.610567679772885
 20
13.971722003972729
 11
35.086303611060885
 21
13.971722003972729
  0
LINE
  8
_0-0_
  6
CONTINUOUS
 62
    7
 10
35.29843564541693
 20
13.88385403832882
 11
36.322699714128703
 21
12.85958996961682
  0
LINE
  8
_0-0_
  6
CONTINUOUS
 62
    7
 10
36.410567679772839
 20
12.647457935261002
 11
36.410567679772839
 21
9.8717220039728204
  0
LINE
  8
_0-0_
  6
CONTINUOUS
 62
    7
 10
36.110567679772885
 20
9.5717220039726385
 11
34.31056767977293
 21
9.5717220039726385
  0
LINE
  8
_0-0_
  6
CONTINUOUS
 62
    7
 10
34.010567679772976
 20
9.2717220039729114
 11
34.010567679772976
 21
8.0717220039728659
  0
LINE
  8
_0-0_
  6
CONTINUOUS
 62
    7
 10
34.31056767977293
 20
7.7717220039729114
 11
41.910567679772839
 21
7.7717220039729114
  0
LINE
  8
_0-0_
  6
CONTINUOUS
 62
    7
 10
35.010567679772976
 20
15.471722003972729
 11
33.542689564813372
 21
15.471722003972729
  0
LINE
  8
_0-0_
  6
CONTINUOUS
 62
    7
 10
33.252911816926371
 20
15.694076290442183
 11
32.970147331265935
 21
16.749367717503731
  0
LINE
  8
_0-0_
  6
CONTINUOUS
 62
    7
 10
32.680369583379161
 20
16.971722003972729
 11
31.849317136766331
 21
16.971722003972729
  0
LINE
  8
_0-0_
  6
CONTINUOUS
 62
    7
 10
28.971818222779575
 20
16.971722003972729
 11
28.140765776166518
 21
16.971722003972729
  0
LINE
  8
_0-0_
  6
CONTINUOUS
 62
    7
 10
27.850988028279971
 20
16.749367717503731
 11
27.568223542619307
 21
15.694076290442183
  0
LINE
  8
_0-0_
  6
CONTINUOUS
 62
    7
 10
27.278445794732534
 20
15.471722003972957
 11
18.542689564813145
 21
15.471722003972957
  0
LINE
  8
_0-0_
  6
CONTINUOUS
 62
    7
 10
18.252911816926371
 20
15.694076290442183
 11
17.970147331265707
 21
16.749367717503731
  0
LINE
  8
_0-0_
  6
CONTINUOUS
 62
    7
 10
17.680369583379161
 20
16.971722003972729
 11
16.849317136766331
 21
16.971722003972729
  0
LINE
  8
_0-0_
  6
CONTINUOUS
 62
    7
 10
13.971818222779575
 20
16.971722003972729
 11
13.140765776166518
 21
16.971722003972729
  0
LINE
  8
_0-0_
  6
CONTINUOUS
 62
    7
 10
12.850988028279744
 20
16.749367717503731
 11
12.568223542619307
 21
15.694076290442183
  0
LINE
  8
_0-0_
  6
CONTINUOUS
 62
    7
 10
12.278445794732306
 20
15.471722003972729
 11
10.810567679772703
 21
15.471722003972729
  0
LINE
  8
_0-0_
  6
CONTINUOUS
 62
    7
 10
10.510567679772748
 20
15.771722003972911
 11
10.510567679772748
 21
24.771722003972911
  0
LINE
  8
_0-0_
  6
CONTINUOUS
 62
    7
 10
10.810567679772703
 20
25.071722003972866
 11
12.278445794732306
 21
25.071722003972866
  0
LINE
  8
_0-0_
  6
CONTINUOUS
 62
    7
 10
12.568223542619307
 20
24.84936771750364
 11
12.850988028279744
 21
23.794076290442092
  0
LINE
  8
_0-0_
  6
CONTINUOUS
 62
    7
 10
13.140765776166518
 20
23.571722003972866
 11
13.971818222778893
 21
23.571722003972866
  0
LINE
  8
_0-0_
  6
CONTINUOUS
 62
    7
 10
16.849317136766786
 20
23.571722003972866
 11
17.680369583379161
 21
23.571722003972866
  0
LINE
  8
_0-0_
  6
CONTINUOUS
 62
    7
 10
17.970147331265707
 20
23.794076290442092
 11
18.252911816926371
 21
24.84936771750364
  0
LINE
  8
_0-0_
  6
CONTINUOUS
 62
    7
 10
18.542689564813145
 20
25.071722003972866
 11
27.278445794732534
 21
25.071722003972866
  0
LINE
  8
_0-0_
  6
CONTINUOUS
 62
    7
 10
27.568223542619307
 20
24.84936771750364
 11
27.850988028279971
 21
23.794076290442092
  0
LINE
  8
_0-0_
  6
CONTINUOUS
 62
    7
 10
28.140765776166518
 20
23.571722003972866
 11
28.971818222778893
 21
23.571722003972866
  0
LINE
  8
_0-0_
  6
CONTINUOUS
 62
    7
 10
31.849317136766786
 20
23.571722003972866
 11
32.680369583379161
 21
23.571722003972866
  0
LINE
  8
_0-0_
  6
CONTINUOUS
 62
    7
 10
32.970147331265935
 20
23.794076290442092
 11
33.252911816926371
 21
24.84936771750364
  0
LINE
  8
_0-0_
  6
CONTINUOUS
 62
    7
 10
33.542689564813372
 20
25.071722003972866
 11
35.010567679772976
 21
25.071722003972866
  0
LINE
  8
_0-0_
  6
CONTINUOUS
 62
    7
 10
35.31056767977293
 20
24.771722003972911
 11
35.31056767977293
 21
15.771722003972911
  0
ARC
  8
_0-0_
  6
CONTINUOUS
 62
    7
 10
3.9105676797728393
 20
31.771722003972911
 40
1
 50
90
 51
180
  0
ARC
  8
_0-0_
  6
CONTINUOUS
 62
    7
 10
3.9105676797728393
 20
8.7717220039729114
 40
1
 50
180
 51
270
  0
ARC
  8
_0-0_
  6
CONTINUOUS
 62
    7
 10
11.510567679772748
 20
32.471722003972729
 40
0.2999999999999999
 50
0
 51
90.000000000000028
  0
ARC
  8
_0-0_
  6
CONTINUOUS
 62
    7
 10
19.310567679772703
 20
32.471722003972729
 40
0.2999999999999999
 50
90
 51
180
  0
ARC
  8
_0-0_
  6
CONTINUOUS
 62
    7
 10
3.2105676797727938
 20
24.171722003973002
 40
0.2999999999999999
 50
180
 51
270
  0
ARC
  8
_0-0_
  6
CONTINUOUS
 62
    7
 10
3.2105676797727938
 20
16.37172200397282
 40
0.2999999999999999
 50
90
 51
180
  0
ARC
  8
_0-0_
  6
CONTINUOUS
 62
    7
 10
19.310567679772703
 20
8.0717220039728659
 40
0.2999999999999999
 50
180
 51
270
  0
ARC
  8
_0-0_
  6
CONTINUOUS
 62
    7
 10
11.510567679772748
 20
8.0717220039728659
 40
0.2999999999999999
 50
270
 51
0
  0
ARC
  8
_0-0_
  6
CONTINUOUS
 62
    7
 10
19.310567679772703
 20
9.2717220039729114
 40
0.2999999999999999
 50
90
 51
180
  0
ARC
  8
_0-0_
  6
CONTINUOUS
 62
    7
 10
20.086303611060885
 20
13.671722003972548
 40
0.2999999999999999
 50
45.000000000000384
 51
90
  0
ARC
  8
_0-0_
  6
CONTINUOUS
 62
    7
 10
9.7105676797727938
 20
12.647457935261002
 40
0.2999999999999999
 50
134.99999999999963
 51
180.00000000000006
  0
ARC
  8
_0-0_
  6
CONTINUOUS
 62
    7
 10
9.7105676797727938
 20
9.8717220039728204
 40
0.2999999999999999
 50
180
 51
270
  0
ARC
  8
_0-0_
  6
CONTINUOUS
 62
    7
 10
11.510567679772748
 20
9.2717220039729114
 40
0.2999999999999999
 50
0
 51
90
  0
ARC
  8
_0-0_
  6
CONTINUOUS
 62
    7
 10
10.734831748484794
 20
13.671722003972548
 40
0.2999999999999999
 50
90
 51
135
  0
ARC
  8
_0-0_
  6
CONTINUOUS
 62
    7
 10
11.510567679772976
 20
31.271722003972911
 40
0.2999999999999999
 50
270
 51
0
  0
ARC
  8
_0-0_
  6
CONTINUOUS
 62
    7
 10
9.7105676797727938
 20
30.671722003973002
 40
0.2999999999999999
 50
90
 51
180
  0
ARC
  8
_0-0_
  6
CONTINUOUS
 62
    7
 10
9.7105676797727938
 20
27.895986072684821
 40
0.2999999999999999
 50
180
 51
225
  0
ARC
  8
_0-0_
  6
CONTINUOUS
 62
    7
 10
10.734831748484794
 20
26.871722003973275
 40
0.2999999999999999
 50
225.00000000000037
 51
270
  0
ARC
  8
_0-0_
  6
CONTINUOUS
 62
    7
 10
19.31056767977293
 20
31.271722003972911
 40
0.2999999999999999
 50
180
 51
270
  0
ARC
  8
_0-0_
  6
CONTINUOUS
 62
    7
 10
20.086303611060885
 20
26.871722003973275
 40
0.2999999999999999
 50
270
 51
315
  0
ARC
  8
_0-0_
  6
CONTINUOUS
 62
    7
 10
4.4105676797728393
 20
16.371722003973048
 40
0.2999999999999999
 50
0
 51
90
  0
ARC
  8
_0-0_
  6
CONTINUOUS
 62
    7
 10
5.0105676797727483
 20
14.571722003972866
 40
0.2999999999999999
 50
180
 51
270
  0
ARC
  8
_0-0_
  6
CONTINUOUS
 62
    7
 10
7.7863036110609301
 20
14.571722003972866
 40
0.2999999999999999
 50
270
 51
315
  0
ARC
  8
_0-0_
  6
CONTINUOUS
 62
    7
 10
8.8105676797724755
 20
15.595986072684866
 40
0.2999999999999999
 50
315.0000000000004
 51
0.0000000000000063
  0
ARC
  8
_0-0_
  6
CONTINUOUS
 62
    7
 10
7.7863036110609301
 20
25.971722003972957
 40
0.2999999999999999
 50
44.999999999999645
 51
90.000000000000028
  0
ARC
  8
_0-0_
  6
CONTINUOUS
 62
    7
 10
5.0105676797727483
 20
25.971722003972957
 40
0.2999999999999999
 50
90
 51
180
  0
ARC
  8
_0-0_
  6
CONTINUOUS
 62
    7
 10
4.4105676797728393
 20
24.171722003973002
 40
0.2999999999999999
 50
270
 51
0
  0
ARC
  8
_0-0_
  6
CONTINUOUS
 62
    7
 10
8.8105676797724755
 20
24.947457935260957
 40
0.2999999999999999
 50
0
 51
45
  0
CIRCLE
  8
_0-0_
  6
CONTINUOUS
 62
    7
 10
6.1605676797728393
 20
29.521722003972911
 40
2.1000000000000001
  0
CIRCLE
  8
_0-0_
  6
CONTINUOUS
 62
    7
 10
6.1605676797728393
 20
11.021722003972911
 40
2.1000000000000001
  0
ARC
  8
_0-0_
  6
CONTINUOUS
 62
    7
 10
41.910567679772839
 20
31.771722003972911
 40
1
 50
0
 51
90.000000000000028
  0
ARC
  8
_0-0_
  6
CONTINUOUS
 62
    7
 10
41.910567679772839
 20
8.7717220039729114
 40
1
 50
270
 51
0
  0
ARC
  8
_0-0_
  6
CONTINUOUS
 62
    7
 10
42.610567679772885
 20
24.171722003973002
 40
0.2999999999999999
 50
270
 51
0
  0
ARC
  8
_0-0_
  6
CONTINUOUS
 62
    7
 10
42.610567679772885
 20
16.37172200397282
 40
0.2999999999999999
 50
0
 51
90.000000000000028
  0
ARC
  8
_0-0_
  6
CONTINUOUS
 62
    7
 10
41.410567679772839
 20
24.171722003972775
 40
0.2999999999999999
 50
180
 51
270
  0
ARC
  8
_0-0_
  6
CONTINUOUS
 62
    7
 10
40.81056767977293
 20
25.971722003972957
 40
0.2999999999999999
 50
0
 51
90
  0
ARC
  8
_0-0_
  6
CONTINUOUS
 62
    7
 10
38.034831748484748
 20
25.971722003972957
 40
0.2999999999999999
 50
90
 51
135
  0
ARC
  8
_0-0_
  6
CONTINUOUS
 62
    7
 10
37.010567679773203
 20
24.947457935260957
 40
0.2999999999999999
 50
135.00000000000037
 51
180
  0
ARC
  8
_0-0_
  6
CONTINUOUS
 62
    7
 10
38.034831748484748
 20
14.571722003972866
 40
0.2999999999999999
 50
224.99999999999963
 51
270
  0
ARC
  8
_0-0_
  6
CONTINUOUS
 62
    7
 10
40.81056767977293
 20
14.571722003972866
 40
0.2999999999999999
 50
270
 51
0
  0
ARC
  8
_0-0_
  6
CONTINUOUS
 62
    7
 10
41.410567679772839
 20
16.37172200397282
 40
0.2999999999999999
 50
90
 51
180
  0
ARC
  8
_0-0_
  6
CONTINUOUS
 62
    7
 10
37.010567679773203
 20
15.595986072684866
 40
0.2999999999999999
 50
180
 51
225
  0
CIRCLE
  8
_0-0_
  6
CONTINUOUS
 62
    7
 10
39.660567679772839
 20
29.521722003972911
 40
2.1000000000000001
  0
CIRCLE
  8
_0-0_
  6
CONTINUOUS
 62
    7
 10
39.660567679772839
 20
11.021722003972911
 40
2.1000000000000001
  0
ARC
  8
_0-0_
  6
CONTINUOUS
 62
    7
 10
34.31056767977293
 20
32.471722003972729
 40
0.2999999999999999
 50
89.999999999999986
 51
180
  0
ARC
  8
_0-0_
  6
CONTINUOUS
 62
    7
 10
26.510567679772976
 20
32.471722003972729
 40
0.2999999999999999
 50
0
 51
90
  0
ARC
  8
_0-0_
  6
CONTINUOUS
 62
    7
 10
26.510567679772976
 20
8.0717220039728659
 40
0.2999999999999999
 50
270
 51
0
  0
ARC
  8
_0-0_
  6
CONTINUOUS
 62
    7
 10
34.31056767977293
 20
8.0717220039728659
 40
0.2999999999999999
 50
180
 51
270
  0
ARC
  8
_0-0_
  6
CONTINUOUS
 62
    7
 10
26.510567679772976
 20
9.2717220039729114
 40
0.2999999999999999
 50
0.0000000000000035
 51
90
  0
ARC
  8
_0-0_
  6
CONTINUOUS
 62
    7
 10
25.734831748484794
 20
13.671722003972548
 40
0.2999999999999999
 50
90
 51
134.99999999999963
  0
ARC
  8
_0-0_
  6
CONTINUOUS
 62
    7
 10
36.110567679772885
 20
12.647457935261002
 40
0.2999999999999999
 50
0
 51
45.000000000000369
  0
ARC
  8
_0-0_
  6
CONTINUOUS
 62
    7
 10
36.110567679772885
 20
9.8717220039728204
 40
0.2999999999999999
 50
270
 51
0
  0
ARC
  8
_0-0_
  6
CONTINUOUS
 62
    7
 10
34.31056767977293
 20
9.2717220039729114
 40
0.2999999999999999
 50
90
 51
180
  0
ARC
  8
_0-0_
  6
CONTINUOUS
 62
    7
 10
35.086303611060885
 20
13.671722003972548
 40
0.2999999999999999
 50
45.000000000000014
 51
90
  0
ARC
  8
_0-0_
  6
CONTINUOUS
 62
    7
 10
34.310567679772703
 20
31.271722003972911
 40
0.2999999999999999
 50
180
 51
270
  0
ARC
  8
_0-0_
  6
CONTINUOUS
 62
    7
 10
36.110567679772885
 20
30.671722003973002
 40
0.2999999999999999
 50
0
 51
90
  0
ARC
  8
_0-0_
  6
CONTINUOUS
 62
    7
 10
36.110567679772885
 20
27.895986072684821
 40
0.2999999999999999
 50
315
 51
0
  0
ARC
  8
_0-0_
  6
CONTINUOUS
 62
    7
 10
35.086303611060885
 20
26.871722003973275
 40
0.2999999999999999
 50
270
 51
314.99999999999966
  0
ARC
  8
_0-0_
  6
CONTINUOUS
 62
    7
 10
26.510567679772748
 20
31.271722003972911
 40
0.2999999999999999
 50
270
 51
0
  0
ARC
  8
_0-0_
  6
CONTINUOUS
 62
    7
 10
25.734831748484794
 20
26.871722003973275
 40
0.2999999999999999
 50
225
 51
270
  0
ARC
  8
_0-0_
  6
CONTINUOUS
 62
    7
 10
21.410567679773067
 20
9.8717220039726499
 40
0.2999999999999999
 50
270
 51
0
  0
ARC
  8
_0-0_
  6
CONTINUOUS
 62
    7
 10
21.410567679773067
 20
12.347457935260593
 40
0.2999999999999999
 50
0
 51
45
  0
ARC
  8
_0-0_
  6
CONTINUOUS
 62
    7
 10
24.410567679773067
 20
12.347457935260934
 40
0.2999999999999999
 50
135
 51
180
  0
ARC
  8
_0-0_
  6
CONTINUOUS
 62
    7
 10
24.410567679773067
 20
9.8717220039726499
 40
0.2999999999999999
 50
180
 51
270
  0
ARC
  8
_0-0_
  6
CONTINUOUS
 62
    7
 10
21.410567679773067
 20
28.195986072685344
 40
0.2999999999999999
 50
315.00000000000637
 51
0
  0
ARC
  8
_0-0_
  6
CONTINUOUS
 62
    7
 10
21.410567679773067
 20
30.671722003973173
 40
0.2999999999999999
 50
0
 51
90
  0
ARC
  8
_0-0_
  6
CONTINUOUS
 62
    7
 10
24.410567679773067
 20
30.671722003973173
 40
0.2999999999999999
 50
90
 51
180
  0
ARC
  8
_0-0_
  6
CONTINUOUS
 62
    7
 10
24.410567679773067
 20
28.195986072684946
 40
0.2999999999999999
 50
180
 51
224.99999999999363
  0
ARC
  8
_0-0_
  6
CONTINUOUS
 62
    7
 10
10.810567679772703
 20
24.771722003972911
 40
0.2999999999999999
 50
90
 51
180
  0
ARC
  8
_0-0_
  6
CONTINUOUS
 62
    7
 10
12.278445794732306
 20
24.771722003972911
 40
0.2999999999999999
 50
14.999999999999982
 51
90
  0
ARC
  8
_0-0_
  6
CONTINUOUS
 62
    7
 10
18.542689564813145
 20
24.771722003972911
 40
0.2999999999999999
 50
90
 51
164.9999999999998
  0
ARC
  8
_0-0_
  6
CONTINUOUS
 62
    7
 10
18.542689564813145
 20
15.771722003972911
 40
0.2999999999999999
 50
194.99999999999997
 51
270
  0
ARC
  8
_0-0_
  6
CONTINUOUS
 62
    7
 10
12.278445794732306
 20
15.771722003972911
 40
0.2999999999999999
 50
270
 51
344.99999999999983
  0
ARC
  8
_0-0_
  6
CONTINUOUS
 62
    7
 10
10.810567679772703
 20
15.771722003972911
 40
0.2999999999999999
 50
180
 51
270
  0
ARC
  8
_0-0_
  6
CONTINUOUS
 62
    7
 10
35.010567679772976
 20
24.771722003972911
 40
0.2999999999999999
 50
0
 51
90
  0
ARC
  8
_0-0_
  6
CONTINUOUS
 62
    7
 10
33.542689564813372
 20
24.771722003972911
 40
0.2999999999999999
 50
90
 51
165.00000000000003
  0
ARC
  8
_0-0_
  6
CONTINUOUS
 62
    7
 10
27.278445794732534
 20
24.771722003972911
 40
0.2999999999999999
 50
15.000000000000187
 51
90
  0
ARC
  8
_0-0_
  6
CONTINUOUS
 62
    7
 10
27.278445794732534
 20
15.771722003972911
 40
0.2999999999999999
 50
270
 51
345
  0
ARC
  8
_0-0_
  6
CONTINUOUS
 62
    7
 10
33.542689564813372
 20
15.771722003972911
 40
0.2999999999999999
 50
195.0000000000002
 51
270
  0
ARC
  8
_0-0_
  6
CONTINUOUS
 62
    7
 10
35.010567679772976
 20
15.771722003972911
 40
0.2999999999999999
 50
270
 51
0
  0
ARC
  8
_0-0_
  6
CONTINUOUS
 62
    7
 10
13.140765776166518
 20
23.87172200397282
 40
0.2999999999999999
 50
195.0000000000002
 51
270
  0
ARC
  8
_0-0_
  6
CONTINUOUS
 62
    7
 10
17.680369583379161
 20
23.87172200397282
 40
0.2999999999999999
 50
270
 51
345
  0
ARC
  8
_0-0_
  6
CONTINUOUS
 62
    7
 10
17.680369583379161
 20
16.671722003973002
 40
0.2999999999999999
 50
15.000000000000187
 51
90.000000000000057
  0
ARC
  8
_0-0_
  6
CONTINUOUS
 62
    7
 10
13.140765776166518
 20
16.671722003973002
 40
0.2999999999999999
 50
90
 51
165.00000000000003
  0
ARC
  8
_0-0_
  6
CONTINUOUS
 62
    7
 10
15.410567679772839
 20
20.271722003972911
 40
3.6000000000000001
 50
246.44353569090609
 51
293.55646430909383
  0
ARC
  8
_0-0_
  6
CONTINUOUS
 62
    7
 10
15.410567679772839
 20
20.271722003972911
 40
3.6000000000000001
 50
66.443535690896994
 51
113.55646430910299
  0
ARC
  8
_0-0_
  6
CONTINUOUS
 62
    7
 10
28.140765776166518
 20
23.87172200397282
 40
0.2999999999999999
 50
195.0000000000002
 51
270
  0
ARC
  8
_0-0_
  6
CONTINUOUS
 62
    7
 10
32.680369583379161
 20
23.87172200397282
 40
0.2999999999999999
 50
270
 51
345
  0
ARC
  8
_0-0_
  6
CONTINUOUS
 62
    7
 10
32.680369583379161
 20
16.671722003973002
 40
0.2999999999999999
 50
15.000000000000187
 51
90.000000000000057
  0
ARC
  8
_0-0_
  6
CONTINUOUS
 62
    7
 10
28.140765776166518
 20
16.671722003973002
 40
0.2999999999999999
 50
90
 51
165.00000000000003
  0
ARC
  8
_0-0_
  6
CONTINUOUS
 62
    7
 10
30.410567679772839
 20
20.271722003972911
 40
3.6000000000000001
 50
246.44353569090609
 51
293.55646430909383
  0
ARC
  8
_0-0_
  6
CONTINUOUS
 62
    7
 10
30.410567679772839
 20
20.271722003972911
 40
3.6000000000000001
 50
66.443535690896994
 51
113.55646430910299
  0
LINE
  8
_0-1_
  6
CENTER1
 62
  152
 10
30.410567679773067
 20
7.7717220039729114
 11
30.410567679773067
 21
32.771722003972911
  0
LINE
  8
_0-1_
  6
CENTER1
 62
  152
 10
22.910567679773067
 20
32.771722003972911
 11
22.910567679773067
 21
7.7717220039729114
  0
LINE
  8
_0-1_
  6
CENTER1
 62
  152
 10
15.410567679773067
 20
7.7717220039729114
 11
15.410567679773067
 21
32.771722003972911
  0
LINE
  8
_0-1_
  6
CENTER1
 62
  152
 10
2.9105676797730666
 20
20.271722003972911
 11
42.910567679773067
 21
20.271722003972911
  0
ENDSEC
  0
EOF
