  0
SECTION
  2
HEADER
  9
$ACADVER
  1
AC1009
  9
$INSBASE
 10
0
 20
0
 30
0
  9
$EXTMIN
 10
0
 20
0
  9
$EXTMAX
 10
420
 20
297
  9
$LIMMIN
 10
0
 20
0
  9
$LIMMAX
 10
420
 20
297
  9
$LTSCALE
 40
1
  0
ENDSEC
  0
SECTION
  2
TABLES
  0
TABLE
  2
LTYPE
 70
     9
  0
LTYPE
  2
CONTINUOUS
 70
    64
  3
実線
 72
    65
 73
     0
 40
0.0
  0
LTYPE
  2
DASHED1
 70
    64
  3
--  --  --  --  --  --  --  --  
 72
    65
 73
     2
 40
2.5
 49
1.25
 49
-1.25
  0
LTYPE
  2
DASHED2
 70
    64
  3
----    ----    ----    ----    
 72
    65
 73
     2
 40
5.0
 49
2.5
 49
-2.5
  0
LTYPE
  2
DASHED3
 70
    64
  3
------  ------  ------  ------  
 72
    65
 73
     2
 40
5.0
 49
3.75
 49
-1.25
  0
LTYPE
  2
CENTER1
 70
    64
  3
----- - ----- - ----- - ----- - 
 72
    65
 73
     4
 40
10.0
 49
6.25
 49
-1.25
 49
1.25
 49
-1.25
  0
LTYPE
  2
CENTER2
 70
    64
  3
----------  --  ----------  --  
 72
    65
 73
     4
 40
20.0
 49
12.5
 49
-2.5
 49
2.5
 49
-2.5
  0
LTYPE
  2
PHANTOM1
 70
    64
  3
--- - - --- - - --- - - --- - - 
 72
    65
 73
     6
 40
10.0
 49
3.25
 49
-1.25
 49
1.25
 49
-1.25
 49
1.25
 49
-1.25
  0
LTYPE
  2
PHANTOM2
 70
    64
  3
--------  -  -  --------  -  -  
 72
    65
 73
     6
 40
20.0
 49
10.0
 49
-2.5
 49
1.25
 49
-2.5
 49
1.25
 49
-2.5
  0
LTYPE
  2
DOT
 70
    64
  3
-   -   -   -   -   -   -   -   
 72
    65
 73
     2
 40
2.5
 49
0.625
 49
-1.875
  0
LTYPE
  2
DUMMY
 70
    64
  3
ダミー
 72
    65
 73
     0
 40
0.0
  0
LTYPE
  2
RAND1
 70
    64
  3
ランダム線1
 72
    65
 73
     4
 40
10.0
 49
1.0
 49
-2.0
 49
3.0
 49
-4.0
  0
LTYPE
  2
RAND2
 70
    64
  3
ランダム線2
 72
    65
 73
     4
 40
14.0
 49
2.0
 49
-3.0
 49
4.0
 49
-5.0
  0
LTYPE
  2
RAND3
 70
    64
  3
ランダム線3
 72
    65
 73
     4
 40
18.0
 49
3.0
 49
-4.0
 49
5.0
 49
-6.0
  0
LTYPE
  2
RAND4
 70
    64
  3
ランダム線4
 72
    65
 73
     4
 40
22.0
 49
4.0
 49
-5.0
 49
6.0
 49
-7.0
  0
LTYPE
  2
RAND5
 70
    64
  3
ランダム線5
 72
    65
 73
     4
 40
26.0
 49
5.0
 49
-6.0
 49
7.0
 49
-8.0
  0
LTYPE
  2
LONG1
 70
    64
  3
----------  --  ----------  --  
 72
    65
 73
     4
 40
40.0
 49
32.5
 49
-2.5
 49
2.5
 49
-2.5
  0
LTYPE
  2
LONG2
 70
    64
  3
--------  -  -  --------  -  -  
 72
    65
 73
     6
 40
40.0
 49
30.0
 49
-2.5
 49
1.25
 49
-2.5
 49
1.25
 49
-2.5
  0
LTYPE
  2
LONG3
 70
    64
  3
+++++++++++++++..+++++++++++++++
 72
    65
 73
     2
 40
40.0
 49
37.5
 49
-2.5
  0
LTYPE
  2
LONG4
 70
    64
  3
+++++++++++++++..+++++++++++++++
 72
    65
 73
     2
 40
80.0
 49
75.0
 49
-5.0
  0
LTYPE
  2
LONG5
 70
    64
  3
----------  --  ----------  --  
 72
    65
 73
     4
 40
60.0
 49
37.5
 49
-7.5
 49
7.5
 49
-7.5
  0
LTYPE
  2
dashed
 70
   64
  3
-------   -------------   ------
 72
   65
 73
    2
 40
7.5
 49
6
 49
-1.5
  0
LTYPE
  2
dashed_spaced
 70
   64
  3
----        --------        ----
 72
   65
 73
    2
 40
12
 49
6
 49
-6
  0
LTYPE
  2
long_dashed_dotted
 70
   64
  3
------------- --- --------------
 72
   65
 73
    4
 40
15.25
 49
12
 49
-1.5
 49
0.25
 49
-1.5
  0
LTYPE
  2
long_dashed_double-dotted
 70
   64
  3
----------- --- --- ------------
 72
   65
 73
    6
 40
17
 49
12
 49
-1.5
 49
0.25
 49
-1.5
 49
0.25
 49
-1.5
  0
LTYPE
  2
long_dashed_triplicate-dotted
 70
   64
  3
--------- --- --- --- ----------
 72
   65
 73
    8
 40
18.75
 49
12
 49
-1.5
 49
0.25
 49
-1.5
 49
0.25
 49
-1.5
 49
0.25
 49
-1.5
  0
LTYPE
  2
dotted
 70
   64
  3
   -       -       -       -    
 72
   65
 73
    2
 40
1.75
 49
0.25
 49
-1.5
  0
LTYPE
  2
chain
 70
   64
  3
-------------- -- --------------
 72
   65
 73
    4
 40
18.5
 49
12
 49
-1.5
 49
3.5
 49
-1.5
  0
LTYPE
  2
chain_double_dash
 70
   64
  3
------------ -- -- -------------
 72
   65
 73
    6
 40
23.5
 49
12
 49
-1.5
 49
3.5
 49
-1.5
 49
3.5
 49
-1.5
  0
LTYPE
  2
dashed_dotted
 70
   64
  3
-----------     -     ----------
 72
   65
 73
    4
 40
9.25
 49
6
 49
-1.5
 49
0.25
 49
-1.5
  0
LTYPE
  2
double-dashed_dotted
 70
   64
  3
------   -----------   -   -----
 72
   65
 73
    6
 40
16.75
 49
6
 49
-1.5
 49
6
 49
-1.5
 49
0.25
 49
-1.5
  0
LTYPE
  2
dashed_double-dotted
 70
   64
  3
---------    -    -    ---------
 72
   65
 73
    6
 40
11
 49
6
 49
-1.5
 49
0.25
 49
-1.5
 49
0.25
 49
-1.5
  0
LTYPE
  2
double-dashed_double-dotted
 70
   64
  3
-----   ---------   -   -   ----
 72
   65
 73
    8
 40
18.5
 49
6
 49
-1.5
 49
6
 49
-1.5
 49
0.25
 49
-1.5
 49
0.25
 49
-1.5
  0
LTYPE
  2
dashed_triplicate-dotted
 70
   64
  3
-------    -    -    -    ------
 72
   65
 73
    8
 40
12.75
 49
6
 49
-1.5
 49
0.25
 49
-1.5
 49
0.25
 49
-1.5
 49
0.25
 49
-1.5
  0
LTYPE
  2
double-dashed_triplicate-dotted
 70
   64
  3
-----  ---------  -  -  -  -----
 72
   65
 73
   10
 40
20.25
 49
6
 49
-1.5
 49
6
 49
-1.5
 49
0.25
 49
-1.5
 49
0.25
 49
-1.5
 49
0.25
 49
-1.5
  0
LTYPE
  2
undefined
 70
   64
  3
--------------------------------
 72
   65
 73
    0
 40
0
  0
LTYPE
  2
_
 70
   64
  3
                                
 72
   65
 73
    0
 40
0
  0
LTYPE
  2
__18
 70
   64
  3
                                
 72
   65
 73
    0
 40
0
  0
LTYPE
  2
__19
 70
   64
  3
                                
 72
   65
 73
    0
 40
0
  0
LTYPE
  2
__20
 70
   64
  3
                                
 72
   65
 73
    0
 40
0
  0
LTYPE
  2
__21
 70
   64
  3
                                
 72
   65
 73
    0
 40
0
  0
LTYPE
  2
__22
 70
   64
  3
                                
 72
   65
 73
    0
 40
0
  0
LTYPE
  2
__23
 70
   64
  3
                                
 72
   65
 73
    0
 40
0
  0
LTYPE
  2
__24
 70
   64
  3
                                
 72
   65
 73
    0
 40
0
  0
LTYPE
  2
__25
 70
   64
  3
                                
 72
   65
 73
    0
 40
0
  0
LTYPE
  2
__26
 70
   64
  3
                                
 72
   65
 73
    0
 40
0
  0
LTYPE
  2
__27
 70
   64
  3
                                
 72
   65
 73
    0
 40
0
  0
LTYPE
  2
__28
 70
   64
  3
                                
 72
   65
 73
    0
 40
0
  0
LTYPE
  2
__29
 70
   64
  3
                                
 72
   65
 73
    0
 40
0
  0
LTYPE
  2
__30
 70
   64
  3
                                
 72
   65
 73
    0
 40
0
  0
LTYPE
  2
__31
 70
   64
  3
                                
 72
   65
 73
    0
 40
0
  0
LTYPE
  2
__32
 70
   64
  3
                                
 72
   65
 73
    0
 40
0
  0
ENDTAB
  0
TABLE
  2
STYLE
  5
3
100
AcDbSymbolTable
 70
     1
  0
STYLE
  5
10
100
AcDbSymbolTableRecord
100
AcDbTextStyleTableRecord
  2
STANDARD
 70
     0
 40
0.0
 41
1.0
 50
0.0
 71
     0
 42
0.2
  3
txt
  4
bigfont.shx
  0
STYLE
  5
26
100
AcDbSymbolTableRecord
100
AcDbTextStyleTableRecord
  2
TATEGAKI
 70
    68
 40
0.0
 41
1.0
 50
0.0
 71
     0
 42
1.0
  3
txt
  4
bigfont.shx
  0
ENDTAB
  0
TABLE
  2
LAYER
 70
    2
  0
LAYER
  2
_0-0_フレ__ム
 70
   64
 62
    7
  6
CONTINUOUS
  0
LAYER
  2
ADD_LINE
 70
   64
 62
    7
  6
CONTINUOUS
  0
ENDTAB
  0
ENDSEC
  0
SECTION
  2
BLOCKS
  0
ENDSEC
  0
SECTION
  2
ENTITIES
  0
LINE
  8
_0-0_フレ__ム
  6
CONTINUOUS
 62
    7
 10
7.0522556390977229
 20
36.535481959104487
 11
24.052255639097723
 21
36.535481959104487
  0
LINE
  8
_0-0_フレ__ム
  6
CONTINUOUS
 62
    7
 10
23.9522556390977
 20
33.835481959104484
 11
23.9522556390977
 21
19.235481959104504
  0
LINE
  8
_0-0_フレ__ム
  6
CONTINUOUS
 62
    7
 10
23.4522556390977
 20
18.735481959104504
 11
20.00111493817684
 21
18.735481959104504
  0
LINE
  8
_0-0_フレ__ム
  6
CONTINUOUS
 62
    7
 10
19.504011414393915
 20
19.181741037614444
 11
19.248744088505248
 21
21.542963802084586
  0
LINE
  8
_0-0_フレ__ム
  6
CONTINUOUS
 62
    7
 10
18.254537040939397
 20
22.435481959104493
 11
12.849974237255992
 21
22.435481959104493
  0
LINE
  8
_0-0_フレ__ム
  6
CONTINUOUS
 62
    7
 10
11.855767189690141
 20
21.542963802084586
 11
11.600499863801474
 21
19.181741037614444
  0
LINE
  8
_0-0_フレ__ム
  6
CONTINUOUS
 62
    7
 10
11.103396340018548
 20
18.735481959104504
 11
9.4710676628063766
 21
18.735481959104504
  0
LINE
  8
_0-0_フレ__ム
  6
CONTINUOUS
 62
    7
 10
9.3228200387285369
 20
18.695298998564908
 11
9.202230624109859
 21
18.625670257274805
  0
LINE
  8
_0-0_フレ__ム
  6
CONTINUOUS
 62
    7
 10
8.9022456295676875
 20
18.625670257274805
 11
8.7816562149490665
 21
18.695298998564908
  0
LINE
  8
_0-0_フレ__ム
  6
CONTINUOUS
 62
    7
 10
8.6334436153756542
 20
18.735481959104504
 11
7.6522556390977172
 21
18.735481959104504
  0
LINE
  8
_0-0_フレ__ム
  6
CONTINUOUS
 62
    7
 10
7.1522556390977172
 20
19.235481959104504
 11
7.1522556390977172
 21
33.835481959104484
  0
LINE
  8
_0-0_フレ__ム
  6
CONTINUOUS
 62
    7
 10
7.6522556390977172
 20
34.335481959104484
 11
11.103396340018548
 21
34.335481959104484
  0
LINE
  8
_0-0_フレ__ム
  6
CONTINUOUS
 62
    7
 10
11.600499863801474
 20
33.889222880594545
 11
11.855767189690141
 21
31.528000116124403
  0
LINE
  8
_0-0_フレ__ム
  6
CONTINUOUS
 62
    7
 10
12.849974237255992
 20
30.635481959104496
 11
18.254537040939397
 21
30.635481959104496
  0
LINE
  8
_0-0_フレ__ム
  6
CONTINUOUS
 62
    7
 10
19.248744088505248
 20
31.528000116124403
 11
19.504011414393915
 21
33.889222880594545
  0
LINE
  8
_0-0_フレ__ム
  6
CONTINUOUS
 62
    7
 10
20.00111493817684
 20
34.335481959104484
 11
23.4522556390977
 21
34.335481959104484
  0
LINE
  8
_0-0_フレ__ム
  6
CONTINUOUS
 62
    7
 10
25.552255639097723
 20
35.035481959104487
 11
25.552255639097723
 21
8.0354819591044873
  0
LINE
  8
_0-0_フレ__ム
  6
CONTINUOUS
 62
    7
 10
24.052255639097723
 20
6.5354819591044873
 11
21.152255639097689
 21
6.5354819591044873
  0
LINE
  8
_0-0_フレ__ム
  6
CONTINUOUS
 62
    7
 10
20.652255639097689
 20
7.0354819591044873
 11
20.652255639097689
 21
8.8174479703546069
  0
LINE
  8
_0-0_フレ__ム
  6
CONTINUOUS
 62
    7
 10
20.705042043597757
 20
9.0410547681045728
 11
21.114059037972709
 21
9.8590887568544758
  0
LINE
  8
_0-0_フレ__ム
  6
CONTINUOUS
 62
    7
 10
21.56127263347264
 20
10.135481959104482
 11
23.052255639097723
 21
10.135481959104482
  0
LINE
  8
_0-0_フレ__ム
  6
CONTINUOUS
 62
    7
 10
23.552255639097723
 20
10.635481959104482
 11
23.552255639097723
 21
15.328375177917962
  0
LINE
  8
_0-0_フレ__ム
  6
CONTINUOUS
 62
    7
 10
23.405809029691
 20
15.681928568511239
 11
22.698702248504446
 21
16.389035349697764
  0
LINE
  8
_0-0_フレ__ム
  6
CONTINUOUS
 62
    7
 10
22.34514885791117
 20
16.535481959104487
 11
15.97106766280649
 21
16.535481959104487
  0
LINE
  8
_0-0_フレ__ム
  6
CONTINUOUS
 62
    7
 10
15.822855063246379
 20
16.575664919644055
 11
15.702265648627758
 21
16.645293660934158
  0
LINE
  8
_0-0_フレ__ム
  6
CONTINUOUS
 62
    7
 10
15.402280654085587
 20
16.645293660934158
 11
15.281691239466909
 21
16.575664919644055
  0
LINE
  8
_0-0_フレ__ム
  6
CONTINUOUS
 62
    7
 10
15.133443615389069
 20
16.535481959104487
 11
8.7593624202842761
 21
16.535481959104487
  0
LINE
  8
_0-0_フレ__ム
  6
CONTINUOUS
 62
    7
 10
8.4058090296909995
 20
16.389035349697764
 11
7.6987022485044463
 21
15.681928568511239
  0
LINE
  8
_0-0_フレ__ム
  6
CONTINUOUS
 62
    7
 10
7.5522556390977229
 20
15.328375177917962
 11
7.5522556390977229
 21
10.635481959104482
  0
LINE
  8
_0-0_フレ__ム
  6
CONTINUOUS
 62
    7
 10
8.0522556390977229
 20
10.135481959104482
 11
9.5432386447227486
 21
10.135481959104482
  0
LINE
  8
_0-0_フレ__ム
  6
CONTINUOUS
 62
    7
 10
9.9904522402227371
 20
9.8590887568544758
 11
10.399469234597689
 21
9.0410547681045728
  0
LINE
  8
_0-0_フレ__ム
  6
CONTINUOUS
 62
    7
 10
10.4522556390977
 20
8.8174479703546069
 11
10.4522556390977
 21
7.0354819591044873
  0
LINE
  8
_0-0_フレ__ム
  6
CONTINUOUS
 62
    7
 10
9.9522556390977002
 20
6.5354819591044873
 11
7.0522556390977229
 21
6.5354819591044873
  0
LINE
  8
_0-0_フレ__ム
  6
CONTINUOUS
 62
    7
 10
5.5522556390977229
 20
8.0354819591044873
 11
5.5522556390977229
 21
35.035481959104487
  0
LINE
  8
_0-0_フレ__ム
  6
CENTER1
 62
  152
 10
3.1634981620610461
 20
26.535481959104487
 11
27.079071241582426
 21
26.535481959104487
  0
LINE
  8
_0-0_フレ__ム
  6
CENTER1
 62
  152
 10
15.552255639097723
 20
38.468236245986574
 11
15.552255639097723
 21
6.5354819591044873
  0
LINE
  8
_0-0_フレ__ム
  6
CENTER1
 62
  152
 10
9.0522556390977229
 20
17.529020848705386
 11
9.0522556390977229
 21
19.431352169519585
  0
ARC
  8
_0-0_フレ__ム
  6
CONTINUOUS
 62
    7
 10
24.052255639097723
 20
8.0354819591044873
 40
1.5
 50
270
 51
0.0000000000000127
  0
ARC
  8
_0-0_フレ__ム
  6
CONTINUOUS
 62
    7
 10
21.152255639097689
 20
7.0354819591044873
 40
0.5
 50
180
 51
270
  0
ARC
  8
_0-0_フレ__ム
  6
CONTINUOUS
 62
    7
 10
21.152255639097689
 20
8.8174479703546069
 40
0.5
 50
153.434948822922
 51
180
  0
ARC
  8
_0-0_フレ__ム
  6
CONTINUOUS
 62
    7
 10
21.56127263347264
 20
9.6354819591044816
 40
0.5
 50
89.999999999999943
 51
153.43494882292197
  0
ARC
  8
_0-0_フレ__ム
  6
CONTINUOUS
 62
    7
 10
23.052255639097723
 20
10.635481959104482
 40
0.5
 50
270
 51
0
  0
ARC
  8
_0-0_フレ__ム
  6
CONTINUOUS
 62
    7
 10
23.052255639097723
 20
15.328375177917962
 40
0.5
 50
0.0000000000000508
 51
45.00000000000005
  0
ARC
  8
_0-0_フレ__ム
  6
CONTINUOUS
 62
    7
 10
22.34514885791117
 20
16.035481959104487
 40
0.5
 50
45
 51
90
  0
ARC
  8
_0-0_フレ__ム
  6
CONTINUOUS
 62
    7
 10
9.9522556390977002
 20
7.0354819591044873
 40
0.5
 50
270
 51
0
  0
ARC
  8
_0-0_フレ__ム
  6
CONTINUOUS
 62
    7
 10
9.9522556390977002
 20
8.8174479703546069
 40
0.5
 50
0
 51
26.565051177077994
  0
ARC
  8
_0-0_フレ__ム
  6
CONTINUOUS
 62
    7
 10
9.5432386447227486
 20
9.6354819591044816
 40
0.5
 50
26.565051177078043
 51
90.000000000000057
  0
ARC
  8
_0-0_フレ__ム
  6
CONTINUOUS
 62
    7
 10
8.0522556390977229
 20
10.635481959104482
 40
0.5
 50
180
 51
270
  0
ARC
  8
_0-0_フレ__ム
  6
CONTINUOUS
 62
    7
 10
8.0522556390977229
 20
15.328375177917962
 40
0.5
 50
134.99999999999994
 51
179.99999999999994
  0
ARC
  8
_0-0_フレ__ム
  6
CONTINUOUS
 62
    7
 10
8.7593624202842761
 20
16.035481959104487
 40
0.5
 50
90
 51
135
  0
ARC
  8
_0-0_フレ__ム
  6
CONTINUOUS
 62
    7
 10
7.6522556390977172
 20
33.835481959104484
 40
0.5
 50
90
 51
180
  0
ARC
  8
_0-0_フレ__ム
  6
CONTINUOUS
 62
    7
 10
11.103396340018548
 20
33.835481959104484
 40
0.5
 50
6.1701750950296592
 51
90
  0
ARC
  8
_0-0_フレ__ム
  6
CONTINUOUS
 62
    7
 10
7.6522556390977172
 20
19.235481959104504
 40
0.5
 50
180
 51
270
  0
ARC
  8
_0-0_フレ__ム
  6
CONTINUOUS
 62
    7
 10
11.103396340018548
 20
19.235481959104504
 40
0.5
 50
270
 51
353.82982490497034
  0
ARC
  8
_0-0_フレ__ム
  6
CONTINUOUS
 62
    7
 10
23.4522556390977
 20
33.835481959104484
 40
0.5
 50
0
 51
90
  0
ARC
  8
_0-0_フレ__ム
  6
CONTINUOUS
 62
    7
 10
20.00111493817684
 20
33.835481959104484
 40
0.5
 50
90
 51
173.82982490497034
  0
ARC
  8
_0-0_フレ__ム
  6
CONTINUOUS
 62
    7
 10
23.4522556390977
 20
19.235481959104504
 40
0.5
 50
270
 51
0
  0
ARC
  8
_0-0_フレ__ム
  6
CONTINUOUS
 62
    7
 10
20.00111493817684
 20
19.235481959104504
 40
0.5
 50
186.17017509502966
 51
270
  0
ARC
  8
_0-0_フレ__ム
  6
CONTINUOUS
 62
    7
 10
24.052255639097723
 20
35.035481959104487
 40
1.5
 50
0
 51
90
  0
ARC
  8
_0-0_フレ__ム
  6
CONTINUOUS
 62
    7
 10
7.0522556390977229
 20
8.0354819591044873
 40
1.5
 50
180
 51
270
  0
ARC
  8
_0-0_フレ__ム
  6
CONTINUOUS
 62
    7
 10
7.0522556390977229
 20
35.035481959104487
 40
1.5
 50
90.000000000000014
 51
180
  0
ARC
  8
_0-0_フレ__ム
  6
CONTINUOUS
 62
    7
 10
12.849974237255992
 20
21.435481959104493
 40
1
 50
90
 51
173.82982490497034
  0
ARC
  8
_0-0_フレ__ム
  6
CONTINUOUS
 62
    7
 10
18.254537040939397
 20
21.435481959104493
 40
1
 50
6.1701750950296592
 51
90
  0
ARC
  8
_0-0_フレ__ム
  6
CONTINUOUS
 62
    7
 10
12.849974237255992
 20
31.635481959104496
 40
1
 50
186.17017509502966
 51
270
  0
ARC
  8
_0-0_フレ__ム
  6
CONTINUOUS
 62
    7
 10
18.254537040939397
 20
31.635481959104496
 40
1
 50
270
 51
353.82982490497034
  0
ARC
  8
_0-0_フレ__ム
  6
CONTINUOUS
 62
    7
 10
15.55225563909778
 20
16.385481788253003
 40
0.3000000099360252
 50
59.999984741210938
 51
119.99999999999999
  0
ARC
  8
_0-0_フレ__ム
  6
CONTINUOUS
 62
    7
 10
15.13168122993693
 20
16.83547679232521
 40
0.3000000099360252
 50
270.33659274997308
 51
299.99998474121094
  0
ARC
  8
_0-0_フレ__ム
  6
CONTINUOUS
 62
    7
 10
15.972830048258629
 20
16.83547679232521
 40
0.3000000099360252
 50
239.9999694824219
 51
269.66340725002692
  0
ARC
  8
_0-0_フレ__ム
  6
CONTINUOUS
 62
    7
 10
9.0522556390976661
 20
18.88548212995596
 40
0.3000000099360252
 50
239.99998474121094
 51
300
  0
ARC
  8
_0-0_フレ__ム
  6
CONTINUOUS
 62
    7
 10
9.4728300482585155
 20
18.435487125883753
 40
0.3000000099360252
 50
90.33659274997305
 51
119.99998474121095
  0
ARC
  8
_0-0_フレ__ム
  6
CONTINUOUS
 62
    7
 10
8.6316812299368166
 20
18.435487125883753
 40
0.3000000099360252
 50
59.999969482421875
 51
89.66340725002695
  0
TEXT
  8
_0-0_フレ__ム
 62
    7
 10
7.5742336610757093
 20
0.7519654755880083
 40
4.2999999999999998
 41
0.744186046511628
 50
0
  1
F23M,F23MB
  0
ENDSEC
  0
EOF
