  0
SECTION
  2
HEADER
  9
$ACADVER
  1
AC1009
  9
$INSBASE
 10
0
 20
0
 30
0
  9
$EXTMIN
 10
0
 20
0
  9
$EXTMAX
 10
1189
 20
841
  9
$LIMMIN
 10
0
 20
0
  9
$LIMMAX
 10
1189
 20
841
  9
$LTSCALE
 40
1
  0
ENDSEC
  0
SECTION
  2
TABLES
  0
TABLE
  2
LTYPE
 70
     9
  0
LTYPE
  2
CONTINUOUS
 70
    64
  3
実線
 72
    65
 73
     0
 40
0.0
  0
LTYPE
  2
DASHED1
 70
    64
  3
--  --  --  --  --  --  --  --  
 72
    65
 73
     2
 40
2.5
 49
1.25
 49
-1.25
  0
LTYPE
  2
DASHED2
 70
    64
  3
----    ----    ----    ----    
 72
    65
 73
     2
 40
5.0
 49
2.5
 49
-2.5
  0
LTYPE
  2
DASHED3
 70
    64
  3
------  ------  ------  ------  
 72
    65
 73
     2
 40
5.0
 49
3.75
 49
-1.25
  0
LTYPE
  2
CENTER1
 70
    64
  3
----- - ----- - ----- - ----- - 
 72
    65
 73
     4
 40
10.0
 49
6.25
 49
-1.25
 49
1.25
 49
-1.25
  0
LTYPE
  2
CENTER2
 70
    64
  3
----------  --  ----------  --  
 72
    65
 73
     4
 40
20.0
 49
12.5
 49
-2.5
 49
2.5
 49
-2.5
  0
LTYPE
  2
PHANTOM1
 70
    64
  3
--- - - --- - - --- - - --- - - 
 72
    65
 73
     6
 40
10.0
 49
3.25
 49
-1.25
 49
1.25
 49
-1.25
 49
1.25
 49
-1.25
  0
LTYPE
  2
PHANTOM2
 70
    64
  3
--------  -  -  --------  -  -  
 72
    65
 73
     6
 40
20.0
 49
10.0
 49
-2.5
 49
1.25
 49
-2.5
 49
1.25
 49
-2.5
  0
LTYPE
  2
DOT
 70
    64
  3
-   -   -   -   -   -   -   -   
 72
    65
 73
     2
 40
2.5
 49
0.625
 49
-1.875
  0
LTYPE
  2
DUMMY
 70
    64
  3
ダミー
 72
    65
 73
     0
 40
0.0
  0
LTYPE
  2
RAND1
 70
    64
  3
ランダム線1
 72
    65
 73
     4
 40
10.0
 49
1.0
 49
-2.0
 49
3.0
 49
-4.0
  0
LTYPE
  2
RAND2
 70
    64
  3
ランダム線2
 72
    65
 73
     4
 40
14.0
 49
2.0
 49
-3.0
 49
4.0
 49
-5.0
  0
LTYPE
  2
RAND3
 70
    64
  3
ランダム線3
 72
    65
 73
     4
 40
18.0
 49
3.0
 49
-4.0
 49
5.0
 49
-6.0
  0
LTYPE
  2
RAND4
 70
    64
  3
ランダム線4
 72
    65
 73
     4
 40
22.0
 49
4.0
 49
-5.0
 49
6.0
 49
-7.0
  0
LTYPE
  2
RAND5
 70
    64
  3
ランダム線5
 72
    65
 73
     4
 40
26.0
 49
5.0
 49
-6.0
 49
7.0
 49
-8.0
  0
LTYPE
  2
LONG1
 70
    64
  3
----------  --  ----------  --  
 72
    65
 73
     4
 40
40.0
 49
32.5
 49
-2.5
 49
2.5
 49
-2.5
  0
LTYPE
  2
LONG2
 70
    64
  3
--------  -  -  --------  -  -  
 72
    65
 73
     6
 40
40.0
 49
30.0
 49
-2.5
 49
1.25
 49
-2.5
 49
1.25
 49
-2.5
  0
LTYPE
  2
LONG3
 70
    64
  3
+++++++++++++++..+++++++++++++++
 72
    65
 73
     2
 40
40.0
 49
37.5
 49
-2.5
  0
LTYPE
  2
LONG4
 70
    64
  3
+++++++++++++++..+++++++++++++++
 72
    65
 73
     2
 40
80.0
 49
75.0
 49
-5.0
  0
LTYPE
  2
LONG5
 70
    64
  3
----------  --  ----------  --  
 72
    65
 73
     4
 40
60.0
 49
37.5
 49
-7.5
 49
7.5
 49
-7.5
  0
LTYPE
  2
dashed
 70
   64
  3
-------   -------------   ------
 72
   65
 73
    2
 40
7.5
 49
6
 49
-1.5
  0
LTYPE
  2
dashed_spaced
 70
   64
  3
----        --------        ----
 72
   65
 73
    2
 40
12
 49
6
 49
-6
  0
LTYPE
  2
long_dashed_dotted
 70
   64
  3
------------- --- --------------
 72
   65
 73
    4
 40
15.25
 49
12
 49
-1.5
 49
0.25
 49
-1.5
  0
LTYPE
  2
long_dashed_double-dotted
 70
   64
  3
----------- --- --- ------------
 72
   65
 73
    6
 40
17
 49
12
 49
-1.5
 49
0.25
 49
-1.5
 49
0.25
 49
-1.5
  0
LTYPE
  2
long_dashed_triplicate-dotted
 70
   64
  3
--------- --- --- --- ----------
 72
   65
 73
    8
 40
18.75
 49
12
 49
-1.5
 49
0.25
 49
-1.5
 49
0.25
 49
-1.5
 49
0.25
 49
-1.5
  0
LTYPE
  2
dotted
 70
   64
  3
   -       -       -       -    
 72
   65
 73
    2
 40
1.75
 49
0.25
 49
-1.5
  0
LTYPE
  2
chain
 70
   64
  3
-------------- -- --------------
 72
   65
 73
    4
 40
18.5
 49
12
 49
-1.5
 49
3.5
 49
-1.5
  0
LTYPE
  2
chain_double_dash
 70
   64
  3
------------ -- -- -------------
 72
   65
 73
    6
 40
23.5
 49
12
 49
-1.5
 49
3.5
 49
-1.5
 49
3.5
 49
-1.5
  0
LTYPE
  2
dashed_dotted
 70
   64
  3
-----------     -     ----------
 72
   65
 73
    4
 40
9.25
 49
6
 49
-1.5
 49
0.25
 49
-1.5
  0
LTYPE
  2
double-dashed_dotted
 70
   64
  3
------   -----------   -   -----
 72
   65
 73
    6
 40
16.75
 49
6
 49
-1.5
 49
6
 49
-1.5
 49
0.25
 49
-1.5
  0
LTYPE
  2
dashed_double-dotted
 70
   64
  3
---------    -    -    ---------
 72
   65
 73
    6
 40
11
 49
6
 49
-1.5
 49
0.25
 49
-1.5
 49
0.25
 49
-1.5
  0
LTYPE
  2
double-dashed_double-dotted
 70
   64
  3
-----   ---------   -   -   ----
 72
   65
 73
    8
 40
18.5
 49
6
 49
-1.5
 49
6
 49
-1.5
 49
0.25
 49
-1.5
 49
0.25
 49
-1.5
  0
LTYPE
  2
dashed_triplicate-dotted
 70
   64
  3
-------    -    -    -    ------
 72
   65
 73
    8
 40
12.75
 49
6
 49
-1.5
 49
0.25
 49
-1.5
 49
0.25
 49
-1.5
 49
0.25
 49
-1.5
  0
LTYPE
  2
double-dashed_triplicate-dotted
 70
   64
  3
-----  ---------  -  -  -  -----
 72
   65
 73
   10
 40
20.25
 49
6
 49
-1.5
 49
6
 49
-1.5
 49
0.25
 49
-1.5
 49
0.25
 49
-1.5
 49
0.25
 49
-1.5
  0
LTYPE
  2
undefined
 70
   64
  3
--------------------------------
 72
   65
 73
    0
 40
0
  0
ENDTAB
  0
TABLE
  2
STYLE
  5
3
100
AcDbSymbolTable
 70
     1
  0
STYLE
  5
10
100
AcDbSymbolTableRecord
100
AcDbTextStyleTableRecord
  2
STANDARD
 70
     0
 40
0.0
 41
1.0
 50
0.0
 71
     0
 42
0.2
  3
txt
  4
bigfont.shx
  0
STYLE
  5
26
100
AcDbSymbolTableRecord
100
AcDbTextStyleTableRecord
  2
TATEGAKI
 70
    68
 40
0.0
 41
1.0
 50
0.0
 71
     0
 42
1.0
  3
txt
  4
bigfont.shx
  0
ENDTAB
  0
TABLE
  2
LAYER
 70
    4
  0
LAYER
  2
_0-0_
 70
   64
 62
    7
  6
CONTINUOUS
  0
LAYER
  2
_0-1_
 70
   64
 62
    7
  6
CONTINUOUS
  0
LAYER
  2
_0-f_
 70
   64
 62
    7
  6
CONTINUOUS
  0
LAYER
  2
ADD_LINE
 70
   64
 62
    7
  6
CONTINUOUS
  0
ENDTAB
  0
ENDSEC
  0
SECTION
  2
BLOCKS
  0
ENDSEC
  0
SECTION
  2
ENTITIES
  0
TEXT
  8
_0-f_
 62
    7
 10
2.044827824098661
 20
1.8146673926897279
 40
4.2999999999999998
 41
0.744186046511628
 50
0
  1
F20C
  0
LINE
  8
_0-1_
  6
CENTER1
 62
  152
 10
22.129806434352759
 20
1.7149906354320024
 11
22.129806434352759
 21
41.714990635432059
  0
LINE
  8
_0-1_
  6
CENTER1
 62
  152
 10
2.1298064343527585
 20
21.714990635432059
 11
42.129806434352759
 21
21.714990635432059
  0
ARC
  8
_0-0_
  6
CONTINUOUS
 62
    7
 10
29.329806434352804
 20
17.31858047391853
 40
0.3
 50
0
 51
30.000000000000117
  0
ARC
  8
_0-0_
  6
CONTINUOUS
 62
    7
 10
29.329806434352804
 20
26.111400796946043
 40
0.3
 50
329.99999999999989
 51
0.0000000000000063
  0
LINE
  8
_0-0_
  6
CONTINUOUS
 62
    7
 10
9.6298064343527585
 20
28.214990635432059
 11
9.6298064343527585
 21
25.61499063543215
  0
LINE
  8
_0-0_
  6
CONTINUOUS
 62
    7
 10
9.9298064343524857
 20
25.314990635431968
 11
11.129806434352759
 21
25.314990635431968
  0
LINE
  8
_0-0_
  6
CONTINUOUS
 62
    7
 10
11.429806434352486
 20
25.61499063543215
 11
11.429806434352486
 21
27.414990635432105
  0
LINE
  8
_0-0_
  6
CONTINUOUS
 62
    7
 10
11.729806434352668
 20
27.714990635432059
 11
14.505542365640849
 21
27.714990635432059
  0
LINE
  8
_0-0_
  6
CONTINUOUS
 62
    7
 10
14.717674399996667
 20
27.627122669787923
 11
15.741938468708668
 21
26.60285860107615
  0
LINE
  8
_0-0_
  6
CONTINUOUS
 62
    7
 10
15.829806434352577
 20
26.390726566720105
 11
15.829806434352577
 21
17.039254704143957
  0
LINE
  8
_0-0_
  6
CONTINUOUS
 62
    7
 10
15.741938468708668
 20
16.827122669788139
 11
14.717674399996667
 21
15.802858601076139
  0
LINE
  8
_0-0_
  6
CONTINUOUS
 62
    7
 10
14.505542365640849
 20
15.714990635432002
 11
11.729806434352668
 21
15.714990635432002
  0
LINE
  8
_0-0_
  6
CONTINUOUS
 62
    7
 10
11.429806434352486
 20
16.014990635431957
 11
11.429806434352486
 21
17.814990635432139
  0
LINE
  8
_0-0_
  6
CONTINUOUS
 62
    7
 10
11.129806434352759
 20
18.114990635432093
 11
9.9298064343524857
 21
18.114990635432093
  0
LINE
  8
_0-0_
  6
CONTINUOUS
 62
    7
 10
9.6298064343527585
 20
17.814990635431911
 11
9.6298064343527585
 21
10.214990635432059
  0
LINE
  8
_0-0_
  6
CONTINUOUS
 62
    7
 10
10.629806434352759
 20
9.2149906354320592
 11
18.229806434352668
 21
9.2149906354320592
  0
LINE
  8
_0-0_
  6
CONTINUOUS
 62
    7
 10
18.529806434352395
 20
9.5149906354320137
 11
18.529806434352395
 21
10.714990635432059
  0
LINE
  8
_0-0_
  6
CONTINUOUS
 62
    7
 10
18.229806434352668
 20
11.014990635431786
 11
16.429806434352486
 21
11.014990635431786
  0
LINE
  8
_0-0_
  6
CONTINUOUS
 62
    7
 10
16.129806434352759
 20
11.314990635431968
 11
16.129806434352759
 21
14.09072656672015
  0
LINE
  8
_0-0_
  6
CONTINUOUS
 62
    7
 10
16.217674399996667
 20
14.302858601075968
 11
17.241938468708668
 21
15.327122669787911
  0
LINE
  8
_0-0_
  6
CONTINUOUS
 62
    7
 10
27.017674399996622
 20
15.327122669787911
 11
28.041938468708622
 21
14.302858601075968
  0
LINE
  8
_0-0_
  6
CONTINUOUS
 62
    7
 10
28.129806434352759
 20
14.09072656672015
 11
28.129806434352759
 21
11.314990635431968
  0
LINE
  8
_0-0_
  6
CONTINUOUS
 62
    7
 10
27.829806434352804
 20
11.014990635431786
 11
26.029806434352622
 21
11.014990635431786
  0
LINE
  8
_0-0_
  6
CONTINUOUS
 62
    7
 10
25.729806434352668
 20
10.714990635432059
 11
25.729806434352668
 21
9.5149906354322411
  0
LINE
  8
_0-0_
  6
CONTINUOUS
 62
    7
 10
26.029806434352849
 20
9.2149906354320592
 11
28.629806434352759
 21
9.2149906354320592
  0
LINE
  8
_0-0_
  6
CONTINUOUS
 62
    7
 10
26.729806434352668
 20
26.514990635432241
 11
25.261928319393064
 21
26.514990635432241
  0
LINE
  8
_0-0_
  6
CONTINUOUS
 62
    7
 10
24.972150571506063
 20
26.292636348962787
 11
24.689386085845399
 21
25.23734492190124
  0
LINE
  8
_0-0_
  6
CONTINUOUS
 62
    7
 10
24.399608337958853
 20
25.014990635432241
 11
19.86000453074621
 21
25.014990635432241
  0
LINE
  8
_0-0_
  6
CONTINUOUS
 62
    7
 10
19.570226782859663
 20
25.23734492190124
 11
19.287462297198999
 21
26.292636348962787
  0
LINE
  8
_0-0_
  6
CONTINUOUS
 62
    7
 10
18.997684549311998
 20
26.514990635432241
 11
17.529806434352395
 21
26.514990635432241
  0
LINE
  8
_0-0_
  6
CONTINUOUS
 62
    7
 10
17.229806434352668
 20
26.214990635432059
 11
17.229806434352668
 21
17.214990635432002
  0
LINE
  8
_0-0_
  6
CONTINUOUS
 62
    7
 10
17.529806434352395
 20
16.91499063543182
 11
18.997684549311998
 21
16.91499063543182
  0
LINE
  8
_0-0_
  6
CONTINUOUS
 62
    7
 10
19.287462297198999
 20
17.137344921901274
 11
19.570226782859663
 21
18.192636348962822
  0
LINE
  8
_0-0_
  6
CONTINUOUS
 62
    7
 10
19.86000453074621
 20
18.41499063543182
 11
24.399608337958853
 21
18.41499063543182
  0
LINE
  8
_0-0_
  6
CONTINUOUS
 62
    7
 10
24.689386085845399
 20
18.192636348962822
 11
24.972150571506063
 21
17.137344921901274
  0
LINE
  8
_0-0_
  6
CONTINUOUS
 62
    7
 10
25.261928319393064
 20
16.91499063543182
 11
26.729806434352668
 21
16.91499063543182
  0
LINE
  8
_0-0_
  6
CONTINUOUS
 62
    7
 10
27.029806434352395
 20
17.214990635432002
 11
27.029806434352395
 21
26.214990635432059
  0
ARC
  8
_0-0_
  6
CONTINUOUS
 62
    7
 10
10.629806434352759
 20
10.214990635432059
 40
1
 50
180
 51
270
  0
ARC
  8
_0-0_
  6
CONTINUOUS
 62
    7
 10
9.9298064343524857
 20
25.61499063543215
 40
0.2999999999999998
 50
180
 51
270
  0
ARC
  8
_0-0_
  6
CONTINUOUS
 62
    7
 10
9.9298064343524857
 20
17.814990635431911
 40
0.2999999999999998
 50
90
 51
180
  0
ARC
  8
_0-0_
  6
CONTINUOUS
 62
    7
 10
18.229806434352668
 20
9.5149906354320137
 40
0.2999999999999998
 50
270
 51
0
  0
ARC
  8
_0-0_
  6
CONTINUOUS
 62
    7
 10
26.729806434352668
 20
17.214990635432002
 40
0.2999999999999998
 50
270
 51
0
  0
ARC
  8
_0-0_
  6
CONTINUOUS
 62
    7
 10
25.261928319393064
 20
17.214990635432002
 40
0.2999999999999998
 50
194.99999999999997
 51
270
  0
ARC
  8
_0-0_
  6
CONTINUOUS
 62
    7
 10
24.399608337958853
 20
18.114990635432093
 40
0.2999999999999998
 50
15.000000000000187
 51
90.000000000000057
  0
ARC
  8
_0-0_
  6
CONTINUOUS
 62
    7
 10
19.86000453074621
 20
18.114990635432093
 40
0.2999999999999998
 50
90
 51
165.00000000000003
  0
ARC
  8
_0-0_
  6
CONTINUOUS
 62
    7
 10
18.997684549311998
 20
17.214990635432002
 40
0.2999999999999998
 50
270
 51
344.99999999999983
  0
ARC
  8
_0-0_
  6
CONTINUOUS
 62
    7
 10
17.529806434352395
 20
17.214990635432002
 40
0.2999999999999998
 50
180
 51
270
  0
ARC
  8
_0-0_
  6
CONTINUOUS
 62
    7
 10
16.429806434352486
 20
14.09072656672015
 40
0.2999999999999998
 50
134.99999999999963
 51
180.00000000000009
  0
ARC
  8
_0-0_
  6
CONTINUOUS
 62
    7
 10
16.429806434352486
 20
11.314990635431968
 40
0.2999999999999998
 50
180
 51
270
  0
ARC
  8
_0-0_
  6
CONTINUOUS
 62
    7
 10
18.229806434352668
 20
10.714990635432059
 40
0.2999999999999998
 50
0
 51
90
  0
ARC
  8
_0-0_
  6
CONTINUOUS
 62
    7
 10
17.454070503064486
 20
15.114990635431639
 40
0.2999999999999998
 50
90
 51
135
  0
ARC
  8
_0-0_
  6
CONTINUOUS
 62
    7
 10
11.129806434352759
 20
17.814990635432139
 40
0.2999999999999998
 50
0
 51
90
  0
ARC
  8
_0-0_
  6
CONTINUOUS
 62
    7
 10
11.729806434352668
 20
16.014990635431957
 40
0.2999999999999998
 50
180
 51
270
  0
ARC
  8
_0-0_
  6
CONTINUOUS
 62
    7
 10
14.505542365640849
 20
16.014990635431957
 40
0.2999999999999998
 50
270
 51
315
  0
ARC
  8
_0-0_
  6
CONTINUOUS
 62
    7
 10
15.529806434352395
 20
17.039254704143957
 40
0.2999999999999998
 50
315.0000000000004
 51
0.0000000000000127
  0
ARC
  8
_0-0_
  6
CONTINUOUS
 62
    7
 10
14.505542365640849
 20
27.414990635432105
 40
0.2999999999999998
 50
44.999999999999652
 51
90.000000000000028
  0
ARC
  8
_0-0_
  6
CONTINUOUS
 62
    7
 10
11.729806434352668
 20
27.414990635432105
 40
0.2999999999999998
 50
90
 51
180
  0
ARC
  8
_0-0_
  6
CONTINUOUS
 62
    7
 10
11.129806434352759
 20
25.61499063543215
 40
0.2999999999999998
 50
270
 51
0
  0
ARC
  8
_0-0_
  6
CONTINUOUS
 62
    7
 10
15.529806434352395
 20
26.390726566720105
 40
0.2999999999999998
 50
0
 51
45
  0
CIRCLE
  8
_0-0_
  6
CONTINUOUS
 62
    7
 10
12.879806434352759
 20
12.464990635432059
 40
2.1000000000000001
  0
ARC
  8
_0-0_
  6
CONTINUOUS
 62
    7
 10
10.629806434352759
 20
28.214990635432059
 40
1
 50
90
 51
180
  0
ARC
  8
_0-0_
  6
CONTINUOUS
 62
    7
 10
26.729806434352668
 20
26.214990635432059
 40
0.2999999999999998
 50
0
 51
90
  0
ARC
  8
_0-0_
  6
CONTINUOUS
 62
    7
 10
25.261928319393064
 20
26.214990635432059
 40
0.2999999999999998
 50
89.999999999999986
 51
165.00000000000003
  0
ARC
  8
_0-0_
  6
CONTINUOUS
 62
    7
 10
24.399608337958853
 20
25.314990635431968
 40
0.2999999999999998
 50
269.99999999999994
 51
344.99999999999983
  0
ARC
  8
_0-0_
  6
CONTINUOUS
 62
    7
 10
19.86000453074621
 20
25.314990635431968
 40
0.2999999999999998
 50
194.99999999999997
 51
270
  0
ARC
  8
_0-0_
  6
CONTINUOUS
 62
    7
 10
18.997684549311998
 20
26.214990635432059
 40
0.2999999999999998
 50
15.000000000000174
 51
90
  0
ARC
  8
_0-0_
  6
CONTINUOUS
 62
    7
 10
17.529806434352395
 20
26.214990635432059
 40
0.2999999999999998
 50
90
 51
180
  0
ARC
  8
_0-0_
  6
CONTINUOUS
 62
    7
 10
26.029806434352849
 20
9.5149906354322411
 40
0.2999999999999998
 50
180
 51
270
  0
ARC
  8
_0-0_
  6
CONTINUOUS
 62
    7
 10
26.029806434352622
 20
10.714990635432059
 40
0.2999999999999998
 50
90
 51
180
  0
ARC
  8
_0-0_
  6
CONTINUOUS
 62
    7
 10
27.829806434352804
 20
11.314990635431968
 40
0.2999999999999998
 50
270
 51
0
  0
ARC
  8
_0-0_
  6
CONTINUOUS
 62
    7
 10
27.829806434352804
 20
14.09072656672015
 40
0.2999999999999998
 50
0
 51
45
  0
ARC
  8
_0-0_
  6
CONTINUOUS
 62
    7
 10
26.805542365640804
 20
15.114990635431639
 40
0.2999999999999998
 50
45.000000000000384
 51
90.000000000000014
  0
ARC
  8
_0-0_
  6
CONTINUOUS
 62
    7
 10
28.629806434352759
 20
10.214990635432059
 40
1
 50
270
 51
0.0000000000000254
  0
ARC
  8
_0-0_
  6
CONTINUOUS
 62
    7
 10
28.629806434352759
 20
28.214990635432059
 40
1
 50
0
 51
90
  0
LINE
  8
_0-0_
  6
CONTINUOUS
 62
    7
 10
17.454070503064486
 20
15.41499063543182
 11
26.805542365640576
 21
15.41499063543182
  0
LINE
  8
_0-0_
  6
CONTINUOUS
 62
    7
 10
26.526216595866345
 20
29.214990635432059
 11
28.629806434352759
 21
29.214990635432059
  0
ARC
  8
_0-0_
  6
CONTINUOUS
 62
    7
 10
26.526216595866345
 20
28.914990635432048
 40
0.3
 50
90
 51
120.00000000000011
  0
LINE
  8
_0-0_
  6
CONTINUOUS
 62
    7
 10
25.649421676623206
 20
28.755183014296676
 11
26.376216595866254
 21
29.174798256567328
  0
ARC
  8
_0-0_
  6
CONTINUOUS
 62
    7
 10
25.499421676623115
 20
29.014990635432014
 40
0.3
 50
270
 51
299.99999999999989
  0
LINE
  8
_0-0_
  6
CONTINUOUS
 62
    7
 10
18.610191192081857
 20
28.755183014296676
 11
17.883396272838809
 21
29.174798256567328
  0
ARC
  8
_0-0_
  6
CONTINUOUS
 62
    7
 10
17.733396272838718
 20
28.914990635432048
 40
0.3
 50
59.999999999999879
 51
90
  0
LINE
  8
_0-0_
  6
CONTINUOUS
 62
    7
 10
17.733396272838718
 20
29.214990635432059
 11
10.629806434352759
 21
29.214990635432059
  0
LINE
  8
_0-0_
  6
CONTINUOUS
 62
    7
 10
25.499421676623115
 20
28.714990635432059
 11
18.760191192081834
 21
28.714990635432059
  0
ARC
  8
_0-0_
  6
CONTINUOUS
 62
    7
 10
18.760191192081834
 20
29.014990635432014
 40
0.3
 50
240.00000000000014
 51
270
  0
LINE
  8
_0-0_
  6
CONTINUOUS
 62
    7
 10
29.169998813217489
 20
18.195375393161612
 11
29.589614055488028
 21
17.468580473918507
  0
ARC
  8
_0-0_
  6
CONTINUOUS
 62
    7
 10
29.429806434352713
 20
18.345375393161589
 40
0.3
 50
180
 51
209.99999999999989
  0
LINE
  8
_0-0_
  6
CONTINUOUS
 62
    7
 10
29.169998813217489
 20
25.234605877702961
 11
29.589614055488028
 21
25.961400796946009
  0
LINE
  8
_0-0_
  6
CONTINUOUS
 62
    7
 10
29.129806434352759
 20
18.345375393161589
 11
29.129806434352759
 21
25.084605877702927
  0
ARC
  8
_0-0_
  6
CONTINUOUS
 62
    7
 10
29.429806434352713
 20
25.084605877702927
 40
0.3
 50
150.00000000000011
 51
179.99999999999997
  0
LINE
  8
_0-0_
  6
CONTINUOUS
 62
    7
 10
29.629806434352759
 20
26.111400796946043
 11
29.629806434352759
 21
28.214990635432059
  0
LINE
  8
_0-0_
  6
CONTINUOUS
 62
    7
 10
29.629806434352759
 20
10.214990635432059
 11
29.629806434352759
 21
17.31858047391853
  0
ENDSEC
  0
EOF
