  0
SECTION
  2
HEADER
  9
$ACADVER
  1
AC1009
  9
$INSBASE
 10
0
 20
0
 30
0
  9
$EXTMIN
 10
0
 20
0
  9
$EXTMAX
 10
1189
 20
841
  9
$LIMMIN
 10
0
 20
0
  9
$LIMMAX
 10
1189
 20
841
  9
$LTSCALE
 40
1
  0
ENDSEC
  0
SECTION
  2
TABLES
  0
TABLE
  2
LTYPE
 70
     9
  0
LTYPE
  2
CONTINUOUS
 70
    64
  3
実線
 72
    65
 73
     0
 40
0.0
  0
LTYPE
  2
DASHED1
 70
    64
  3
--  --  --  --  --  --  --  --  
 72
    65
 73
     2
 40
2.5
 49
1.25
 49
-1.25
  0
LTYPE
  2
DASHED2
 70
    64
  3
----    ----    ----    ----    
 72
    65
 73
     2
 40
5.0
 49
2.5
 49
-2.5
  0
LTYPE
  2
DASHED3
 70
    64
  3
------  ------  ------  ------  
 72
    65
 73
     2
 40
5.0
 49
3.75
 49
-1.25
  0
LTYPE
  2
CENTER1
 70
    64
  3
----- - ----- - ----- - ----- - 
 72
    65
 73
     4
 40
10.0
 49
6.25
 49
-1.25
 49
1.25
 49
-1.25
  0
LTYPE
  2
CENTER2
 70
    64
  3
----------  --  ----------  --  
 72
    65
 73
     4
 40
20.0
 49
12.5
 49
-2.5
 49
2.5
 49
-2.5
  0
LTYPE
  2
PHANTOM1
 70
    64
  3
--- - - --- - - --- - - --- - - 
 72
    65
 73
     6
 40
10.0
 49
3.25
 49
-1.25
 49
1.25
 49
-1.25
 49
1.25
 49
-1.25
  0
LTYPE
  2
PHANTOM2
 70
    64
  3
--------  -  -  --------  -  -  
 72
    65
 73
     6
 40
20.0
 49
10.0
 49
-2.5
 49
1.25
 49
-2.5
 49
1.25
 49
-2.5
  0
LTYPE
  2
DOT
 70
    64
  3
-   -   -   -   -   -   -   -   
 72
    65
 73
     2
 40
2.5
 49
0.625
 49
-1.875
  0
LTYPE
  2
DUMMY
 70
    64
  3
ダミー
 72
    65
 73
     0
 40
0.0
  0
LTYPE
  2
RAND1
 70
    64
  3
ランダム線1
 72
    65
 73
     4
 40
10.0
 49
1.0
 49
-2.0
 49
3.0
 49
-4.0
  0
LTYPE
  2
RAND2
 70
    64
  3
ランダム線2
 72
    65
 73
     4
 40
14.0
 49
2.0
 49
-3.0
 49
4.0
 49
-5.0
  0
LTYPE
  2
RAND3
 70
    64
  3
ランダム線3
 72
    65
 73
     4
 40
18.0
 49
3.0
 49
-4.0
 49
5.0
 49
-6.0
  0
LTYPE
  2
RAND4
 70
    64
  3
ランダム線4
 72
    65
 73
     4
 40
22.0
 49
4.0
 49
-5.0
 49
6.0
 49
-7.0
  0
LTYPE
  2
RAND5
 70
    64
  3
ランダム線5
 72
    65
 73
     4
 40
26.0
 49
5.0
 49
-6.0
 49
7.0
 49
-8.0
  0
LTYPE
  2
LONG1
 70
    64
  3
----------  --  ----------  --  
 72
    65
 73
     4
 40
40.0
 49
32.5
 49
-2.5
 49
2.5
 49
-2.5
  0
LTYPE
  2
LONG2
 70
    64
  3
--------  -  -  --------  -  -  
 72
    65
 73
     6
 40
40.0
 49
30.0
 49
-2.5
 49
1.25
 49
-2.5
 49
1.25
 49
-2.5
  0
LTYPE
  2
LONG3
 70
    64
  3
+++++++++++++++..+++++++++++++++
 72
    65
 73
     2
 40
40.0
 49
37.5
 49
-2.5
  0
LTYPE
  2
LONG4
 70
    64
  3
+++++++++++++++..+++++++++++++++
 72
    65
 73
     2
 40
80.0
 49
75.0
 49
-5.0
  0
LTYPE
  2
LONG5
 70
    64
  3
----------  --  ----------  --  
 72
    65
 73
     4
 40
60.0
 49
37.5
 49
-7.5
 49
7.5
 49
-7.5
  0
LTYPE
  2
dashed
 70
   64
  3
-------   -------------   ------
 72
   65
 73
    2
 40
7.5
 49
6
 49
-1.5
  0
LTYPE
  2
dashed_spaced
 70
   64
  3
----        --------        ----
 72
   65
 73
    2
 40
12
 49
6
 49
-6
  0
LTYPE
  2
long_dashed_dotted
 70
   64
  3
------------- --- --------------
 72
   65
 73
    4
 40
15.25
 49
12
 49
-1.5
 49
0.25
 49
-1.5
  0
LTYPE
  2
long_dashed_double-dotted
 70
   64
  3
----------- --- --- ------------
 72
   65
 73
    6
 40
17
 49
12
 49
-1.5
 49
0.25
 49
-1.5
 49
0.25
 49
-1.5
  0
LTYPE
  2
long_dashed_triplicate-dotted
 70
   64
  3
--------- --- --- --- ----------
 72
   65
 73
    8
 40
18.75
 49
12
 49
-1.5
 49
0.25
 49
-1.5
 49
0.25
 49
-1.5
 49
0.25
 49
-1.5
  0
LTYPE
  2
dotted
 70
   64
  3
   -       -       -       -    
 72
   65
 73
    2
 40
1.75
 49
0.25
 49
-1.5
  0
LTYPE
  2
chain
 70
   64
  3
-------------- -- --------------
 72
   65
 73
    4
 40
18.5
 49
12
 49
-1.5
 49
3.5
 49
-1.5
  0
LTYPE
  2
chain_double_dash
 70
   64
  3
------------ -- -- -------------
 72
   65
 73
    6
 40
23.5
 49
12
 49
-1.5
 49
3.5
 49
-1.5
 49
3.5
 49
-1.5
  0
LTYPE
  2
dashed_dotted
 70
   64
  3
-----------     -     ----------
 72
   65
 73
    4
 40
9.25
 49
6
 49
-1.5
 49
0.25
 49
-1.5
  0
LTYPE
  2
double-dashed_dotted
 70
   64
  3
------   -----------   -   -----
 72
   65
 73
    6
 40
16.75
 49
6
 49
-1.5
 49
6
 49
-1.5
 49
0.25
 49
-1.5
  0
LTYPE
  2
dashed_double-dotted
 70
   64
  3
---------    -    -    ---------
 72
   65
 73
    6
 40
11
 49
6
 49
-1.5
 49
0.25
 49
-1.5
 49
0.25
 49
-1.5
  0
LTYPE
  2
double-dashed_double-dotted
 70
   64
  3
-----   ---------   -   -   ----
 72
   65
 73
    8
 40
18.5
 49
6
 49
-1.5
 49
6
 49
-1.5
 49
0.25
 49
-1.5
 49
0.25
 49
-1.5
  0
LTYPE
  2
dashed_triplicate-dotted
 70
   64
  3
-------    -    -    -    ------
 72
   65
 73
    8
 40
12.75
 49
6
 49
-1.5
 49
0.25
 49
-1.5
 49
0.25
 49
-1.5
 49
0.25
 49
-1.5
  0
LTYPE
  2
double-dashed_triplicate-dotted
 70
   64
  3
-----  ---------  -  -  -  -----
 72
   65
 73
   10
 40
20.25
 49
6
 49
-1.5
 49
6
 49
-1.5
 49
0.25
 49
-1.5
 49
0.25
 49
-1.5
 49
0.25
 49
-1.5
  0
LTYPE
  2
undefined
 70
   64
  3
--------------------------------
 72
   65
 73
    0
 40
0
  0
ENDTAB
  0
TABLE
  2
STYLE
  5
3
100
AcDbSymbolTable
 70
     1
  0
STYLE
  5
10
100
AcDbSymbolTableRecord
100
AcDbTextStyleTableRecord
  2
STANDARD
 70
     0
 40
0.0
 41
1.0
 50
0.0
 71
     0
 42
0.2
  3
txt
  4
bigfont.shx
  0
STYLE
  5
26
100
AcDbSymbolTableRecord
100
AcDbTextStyleTableRecord
  2
TATEGAKI
 70
    68
 40
0.0
 41
1.0
 50
0.0
 71
     0
 42
1.0
  3
txt
  4
bigfont.shx
  0
ENDTAB
  0
TABLE
  2
LAYER
 70
    4
  0
LAYER
  2
_0-0_
 70
   64
 62
    7
  6
CONTINUOUS
  0
LAYER
  2
_0-1_
 70
   64
 62
    7
  6
CONTINUOUS
  0
LAYER
  2
_0-f_
 70
   64
 62
    7
  6
CONTINUOUS
  0
LAYER
  2
ADD_LINE
 70
   64
 62
    7
  6
CONTINUOUS
  0
ENDTAB
  0
ENDSEC
  0
SECTION
  2
BLOCKS
  0
ENDSEC
  0
SECTION
  2
ENTITIES
  0
TEXT
  8
_0-f_
 62
    7
 10
1.587817594070998
 20
1.1638184219343657
 40
4.2999999999999998
 41
0.744186046511628
 50
0
  1
F205
  0
LINE
  8
_0-1_
  6
CENTER1
 62
  152
 10
22.859265070743277
 20
1.4864855204180003
 11
22.859265070743277
 21
41.486485520418057
  0
LINE
  8
_0-1_
  6
CENTER1
 62
  152
 10
2.8592650707432767
 20
21.486485520418
 11
42.859265070743277
 21
21.486485520418
  0
LINE
  8
_0-0_
  6
CONTINUOUS
 62
    7
 10
25.701609207896581
 20
26.064131233948729
 11
25.418844722235917
 21
25.008839806887181
  0
LINE
  8
_0-0_
  6
CONTINUOUS
 62
    7
 10
25.129066974349371
 20
24.786485520418182
 11
20.589463167136728
 21
24.786485520418182
  0
LINE
  8
_0-0_
  6
CONTINUOUS
 62
    7
 10
20.299685419250181
 20
25.008839806887181
 11
20.016920933589518
 21
26.064131233948729
  0
ARC
  8
_0-0_
  6
CONTINUOUS
 62
    7
 10
25.991386955783582
 20
25.986485520418
 40
0.2999999999999998
 50
89.999999999999986
 51
165.00000000000003
  0
ARC
  8
_0-0_
  6
CONTINUOUS
 62
    7
 10
25.129066974349371
 20
25.086485520417909
 40
0.2999999999999998
 50
269.99999999999994
 51
344.99999999999983
  0
ARC
  8
_0-0_
  6
CONTINUOUS
 62
    7
 10
20.589463167136728
 20
25.086485520417909
 40
0.2999999999999998
 50
194.99999999999997
 51
270
  0
ARC
  8
_0-0_
  6
CONTINUOUS
 62
    7
 10
19.727143185702516
 20
25.986485520418
 40
0.2999999999999998
 50
15.000000000000174
 51
90
  0
LINE
  8
_0-0_
  6
CONTINUOUS
 62
    7
 10
10.359265070743277
 20
25.386485520418091
 11
10.359265070743277
 21
27.986485520418
  0
LINE
  8
_0-0_
  6
CONTINUOUS
 62
    7
 10
35.359265070743277
 20
27.986485520418
 11
35.359265070743277
 21
25.386485520418091
  0
LINE
  8
_0-0_
  6
CONTINUOUS
 62
    7
 10
35.059265070743095
 20
25.086485520417909
 11
33.859265070743277
 21
25.086485520417909
  0
LINE
  8
_0-0_
  6
CONTINUOUS
 62
    7
 10
33.55926507074355
 20
25.386485520417864
 11
33.55926507074355
 21
27.186485520418046
  0
LINE
  8
_0-0_
  6
CONTINUOUS
 62
    7
 10
33.259265070743368
 20
27.486485520418
 11
30.483529139455186
 21
27.486485520418
  0
LINE
  8
_0-0_
  6
CONTINUOUS
 62
    7
 10
30.271397105099368
 20
27.398617554773864
 11
29.247133036387368
 21
26.374353486061864
  0
LINE
  8
_0-0_
  6
CONTINUOUS
 62
    7
 10
29.159265070743459
 20
26.162221451706046
 11
29.159265070743459
 21
16.810749589129955
  0
LINE
  8
_0-0_
  6
CONTINUOUS
 62
    7
 10
29.247133036387368
 20
16.598617554773909
 11
30.271397105099368
 21
15.574353486062137
  0
LINE
  8
_0-0_
  6
CONTINUOUS
 62
    7
 10
30.483529139455186
 20
15.486485520418
 11
33.259265070743368
 21
15.486485520418
  0
LINE
  8
_0-0_
  6
CONTINUOUS
 62
    7
 10
33.55926507074355
 20
15.786485520417955
 11
33.55926507074355
 21
17.586485520417909
  0
LINE
  8
_0-0_
  6
CONTINUOUS
 62
    7
 10
33.859265070743277
 20
17.886485520418091
 11
35.059265070743095
 21
17.886485520418091
  0
LINE
  8
_0-0_
  6
CONTINUOUS
 62
    7
 10
35.359265070743277
 20
17.586485520417909
 11
35.359265070743277
 21
9.9864855204180003
  0
LINE
  8
_0-0_
  6
CONTINUOUS
 62
    7
 10
34.359265070743277
 20
8.9864855204180003
 11
26.759265070742913
 21
8.9864855204180003
  0
LINE
  8
_0-0_
  6
CONTINUOUS
 62
    7
 10
26.459265070743186
 20
9.2864855204179548
 11
26.459265070743186
 21
10.486485520418
  0
LINE
  8
_0-0_
  6
CONTINUOUS
 62
    7
 10
26.759265070742913
 20
10.786485520417727
 11
28.559265070743095
 21
10.786485520417727
  0
LINE
  8
_0-0_
  6
CONTINUOUS
 62
    7
 10
28.859265070743277
 20
11.086485520417909
 11
28.859265070743277
 21
13.862221451706091
  0
LINE
  8
_0-0_
  6
CONTINUOUS
 62
    7
 10
28.771397105098913
 20
14.074353486061909
 11
27.747133036386913
 21
15.098617554773909
  0
LINE
  8
_0-0_
  6
CONTINUOUS
 62
    7
 10
17.971397105099186
 20
15.098617554773909
 11
16.947133036387186
 21
14.074353486061909
  0
LINE
  8
_0-0_
  6
CONTINUOUS
 62
    7
 10
16.859265070743277
 20
13.862221451706091
 11
16.859265070743277
 21
11.086485520417909
  0
LINE
  8
_0-0_
  6
CONTINUOUS
 62
    7
 10
17.159265070743004
 20
10.786485520417727
 11
18.959265070743186
 21
10.786485520417727
  0
LINE
  8
_0-0_
  6
CONTINUOUS
 62
    7
 10
19.259265070742913
 20
10.486485520418
 11
19.259265070742913
 21
9.2864855204179548
  0
LINE
  8
_0-0_
  6
CONTINUOUS
 62
    7
 10
18.959265070743186
 20
8.9864855204180003
 11
11.359265070743277
 21
8.9864855204180003
  0
LINE
  8
_0-0_
  6
CONTINUOUS
 62
    7
 10
10.359265070743277
 20
9.9864855204180003
 11
10.359265070743277
 21
17.586485520417909
  0
LINE
  8
_0-0_
  6
CONTINUOUS
 62
    7
 10
10.659265070743004
 20
17.886485520418091
 11
11.859265070743277
 21
17.886485520418091
  0
LINE
  8
_0-0_
  6
CONTINUOUS
 62
    7
 10
12.159265070743004
 20
17.586485520418137
 11
12.159265070743004
 21
15.786485520417955
  0
LINE
  8
_0-0_
  6
CONTINUOUS
 62
    7
 10
12.459265070743186
 20
15.486485520418
 11
15.235001002031368
 21
15.486485520418
  0
LINE
  8
_0-0_
  6
CONTINUOUS
 62
    7
 10
15.447133036387186
 20
15.574353486062137
 11
16.471397105099186
 21
16.598617554774137
  0
LINE
  8
_0-0_
  6
CONTINUOUS
 62
    7
 10
16.559265070743095
 20
16.810749589129955
 11
16.559265070743095
 21
26.162221451706046
  0
LINE
  8
_0-0_
  6
CONTINUOUS
 62
    7
 10
16.471397105099186
 20
26.374353486062091
 11
15.447133036387186
 21
27.398617554773864
  0
LINE
  8
_0-0_
  6
CONTINUOUS
 62
    7
 10
15.235001002031368
 20
27.486485520418
 11
12.459265070743186
 21
27.486485520418
  0
LINE
  8
_0-0_
  6
CONTINUOUS
 62
    7
 10
12.159265070743004
 20
27.186485520418046
 11
12.159265070743004
 21
25.386485520418091
  0
LINE
  8
_0-0_
  6
CONTINUOUS
 62
    7
 10
11.859265070743277
 20
25.086485520417909
 11
10.659265070743004
 21
25.086485520417909
  0
LINE
  8
_0-0_
  6
CONTINUOUS
 62
    7
 10
17.959265070743186
 20
25.986485520418
 11
17.959265070743186
 21
16.986485520418
  0
LINE
  8
_0-0_
  6
CONTINUOUS
 62
    7
 10
18.259265070742913
 20
16.686485520417818
 11
19.727143185702516
 21
16.686485520417818
  0
LINE
  8
_0-0_
  6
CONTINUOUS
 62
    7
 10
20.016920933589518
 20
16.908839806887272
 11
20.299685419250181
 21
17.964131233948819
  0
LINE
  8
_0-0_
  6
CONTINUOUS
 62
    7
 10
20.589463167136728
 20
18.186485520417818
 11
25.129066974349371
 21
18.186485520417818
  0
LINE
  8
_0-0_
  6
CONTINUOUS
 62
    7
 10
25.418844722235917
 20
17.964131233948819
 11
25.701609207896581
 21
16.908839806887272
  0
LINE
  8
_0-0_
  6
CONTINUOUS
 62
    7
 10
25.991386955783582
 20
16.686485520417818
 11
27.459265070743186
 21
16.686485520417818
  0
LINE
  8
_0-0_
  6
CONTINUOUS
 62
    7
 10
27.759265070742913
 20
16.986485520418
 11
27.759265070742913
 21
25.986485520418
  0
LINE
  8
_0-0_
  6
CONTINUOUS
 62
    7
 10
27.459265070743186
 20
26.286485520418182
 11
25.991386955783582
 21
26.286485520418182
  0
LINE
  8
_0-0_
  6
CONTINUOUS
 62
    7
 10
19.727143185702516
 20
26.286485520418182
 11
18.259265070742913
 21
26.286485520418182
  0
ARC
  8
_0-0_
  6
CONTINUOUS
 62
    7
 10
34.359265070743277
 20
9.9864855204180003
 40
1
 50
270
 51
0
  0
ARC
  8
_0-0_
  6
CONTINUOUS
 62
    7
 10
11.359265070743277
 20
9.9864855204180003
 40
1
 50
180
 51
270
  0
ARC
  8
_0-0_
  6
CONTINUOUS
 62
    7
 10
10.659265070743004
 20
25.386485520418091
 40
0.2999999999999998
 50
180
 51
270
  0
ARC
  8
_0-0_
  6
CONTINUOUS
 62
    7
 10
10.659265070743004
 20
17.586485520417909
 40
0.2999999999999998
 50
90
 51
180
  0
ARC
  8
_0-0_
  6
CONTINUOUS
 62
    7
 10
35.059265070743095
 20
25.386485520418091
 40
0.2999999999999998
 50
270
 51
0
  0
ARC
  8
_0-0_
  6
CONTINUOUS
 62
    7
 10
35.059265070743095
 20
17.586485520417909
 40
0.2999999999999998
 50
0
 51
90.000000000000028
  0
ARC
  8
_0-0_
  6
CONTINUOUS
 62
    7
 10
26.759265070742913
 20
9.2864855204179548
 40
0.2999999999999998
 50
180
 51
270
  0
ARC
  8
_0-0_
  6
CONTINUOUS
 62
    7
 10
18.959265070743186
 20
9.2864855204179548
 40
0.2999999999999998
 50
270
 51
0
  0
ARC
  8
_0-0_
  6
CONTINUOUS
 62
    7
 10
27.459265070743186
 20
16.986485520418
 40
0.2999999999999998
 50
270
 51
0
  0
ARC
  8
_0-0_
  6
CONTINUOUS
 62
    7
 10
25.991386955783582
 20
16.986485520418
 40
0.2999999999999998
 50
194.99999999999997
 51
270
  0
ARC
  8
_0-0_
  6
CONTINUOUS
 62
    7
 10
25.129066974349371
 20
17.886485520418091
 40
0.2999999999999998
 50
15.000000000000187
 51
90.000000000000057
  0
ARC
  8
_0-0_
  6
CONTINUOUS
 62
    7
 10
20.589463167136728
 20
17.886485520418091
 40
0.2999999999999998
 50
90
 51
165.00000000000003
  0
ARC
  8
_0-0_
  6
CONTINUOUS
 62
    7
 10
19.727143185702516
 20
16.986485520418
 40
0.2999999999999998
 50
270
 51
344.99999999999983
  0
ARC
  8
_0-0_
  6
CONTINUOUS
 62
    7
 10
18.259265070742913
 20
16.986485520418
 40
0.2999999999999998
 50
180
 51
270
  0
ARC
  8
_0-0_
  6
CONTINUOUS
 62
    7
 10
26.759265070742913
 20
10.486485520418
 40
0.2999999999999998
 50
90
 51
180
  0
ARC
  8
_0-0_
  6
CONTINUOUS
 62
    7
 10
28.559265070743095
 20
11.086485520417909
 40
0.2999999999999998
 50
270
 51
0
  0
ARC
  8
_0-0_
  6
CONTINUOUS
 62
    7
 10
28.559265070743095
 20
13.862221451706091
 40
0.2999999999999998
 50
0
 51
45
  0
ARC
  8
_0-0_
  6
CONTINUOUS
 62
    7
 10
27.535001002031095
 20
14.886485520417637
 40
0.2999999999999998
 50
45.000000000000384
 51
90
  0
ARC
  8
_0-0_
  6
CONTINUOUS
 62
    7
 10
17.159265070743004
 20
13.862221451706091
 40
0.2999999999999998
 50
134.99999999999963
 51
180.00000000000009
  0
ARC
  8
_0-0_
  6
CONTINUOUS
 62
    7
 10
17.159265070743004
 20
11.086485520417909
 40
0.2999999999999998
 50
180
 51
270
  0
ARC
  8
_0-0_
  6
CONTINUOUS
 62
    7
 10
18.959265070743186
 20
10.486485520418
 40
0.2999999999999998
 50
0
 51
90
  0
ARC
  8
_0-0_
  6
CONTINUOUS
 62
    7
 10
18.183529139455004
 20
14.886485520417637
 40
0.2999999999999998
 50
90
 51
135
  0
ARC
  8
_0-0_
  6
CONTINUOUS
 62
    7
 10
33.859265070743277
 20
25.386485520417864
 40
0.2999999999999998
 50
180
 51
270
  0
ARC
  8
_0-0_
  6
CONTINUOUS
 62
    7
 10
33.259265070743368
 20
27.186485520418046
 40
0.2999999999999998
 50
0
 51
90
  0
ARC
  8
_0-0_
  6
CONTINUOUS
 62
    7
 10
30.483529139455186
 20
27.186485520418046
 40
0.2999999999999998
 50
90
 51
135
  0
ARC
  8
_0-0_
  6
CONTINUOUS
 62
    7
 10
29.459265070743641
 20
26.162221451706046
 40
0.2999999999999998
 50
135.00000000000037
 51
180
  0
ARC
  8
_0-0_
  6
CONTINUOUS
 62
    7
 10
30.483529139455186
 20
15.786485520417955
 40
0.2999999999999998
 50
224.99999999999963
 51
270
  0
ARC
  8
_0-0_
  6
CONTINUOUS
 62
    7
 10
33.259265070743368
 20
15.786485520417955
 40
0.2999999999999998
 50
270
 51
0
  0
ARC
  8
_0-0_
  6
CONTINUOUS
 62
    7
 10
33.859265070743277
 20
17.586485520417909
 40
0.2999999999999998
 50
90
 51
180
  0
ARC
  8
_0-0_
  6
CONTINUOUS
 62
    7
 10
29.459265070743641
 20
16.810749589129955
 40
0.2999999999999998
 50
180
 51
225
  0
ARC
  8
_0-0_
  6
CONTINUOUS
 62
    7
 10
11.859265070743277
 20
17.586485520418137
 40
0.2999999999999998
 50
0
 51
90
  0
ARC
  8
_0-0_
  6
CONTINUOUS
 62
    7
 10
12.459265070743186
 20
15.786485520417955
 40
0.2999999999999998
 50
180
 51
270
  0
ARC
  8
_0-0_
  6
CONTINUOUS
 62
    7
 10
15.235001002031368
 20
15.786485520417955
 40
0.2999999999999998
 50
270
 51
315
  0
ARC
  8
_0-0_
  6
CONTINUOUS
 62
    7
 10
16.259265070742913
 20
16.810749589129955
 40
0.2999999999999998
 50
315.0000000000004
 51
0.0000000000000127
  0
ARC
  8
_0-0_
  6
CONTINUOUS
 62
    7
 10
15.235001002031368
 20
27.186485520418046
 40
0.2999999999999998
 50
44.999999999999652
 51
90.000000000000028
  0
ARC
  8
_0-0_
  6
CONTINUOUS
 62
    7
 10
12.459265070743186
 20
27.186485520418046
 40
0.2999999999999998
 50
90
 51
180
  0
ARC
  8
_0-0_
  6
CONTINUOUS
 62
    7
 10
11.859265070743277
 20
25.386485520418091
 40
0.2999999999999998
 50
270
 51
0
  0
ARC
  8
_0-0_
  6
CONTINUOUS
 62
    7
 10
16.259265070742913
 20
26.162221451706046
 40
0.2999999999999998
 50
0
 51
45
  0
CIRCLE
  8
_0-0_
  6
CONTINUOUS
 62
    7
 10
32.109265070743277
 20
12.236485520418
 40
2.1000000000000001
  0
CIRCLE
  8
_0-0_
  6
CONTINUOUS
 62
    7
 10
13.609265070743277
 20
12.236485520418
 40
2.1000000000000001
  0
ARC
  8
_0-0_
  6
CONTINUOUS
 62
    7
 10
11.359265070743277
 20
27.986485520418
 40
1
 50
90
 51
180
  0
ARC
  8
_0-0_
  6
CONTINUOUS
 62
    7
 10
34.359265070743277
 20
27.986485520418
 40
1
 50
0
 51
90.000000000000028
  0
ARC
  8
_0-0_
  6
CONTINUOUS
 62
    7
 10
27.459265070743186
 20
25.986485520418
 40
0.2999999999999998
 50
0
 51
90
  0
ARC
  8
_0-0_
  6
CONTINUOUS
 62
    7
 10
18.259265070742913
 20
25.986485520418
 40
0.2999999999999998
 50
90
 51
180
  0
LINE
  8
_0-0_
  6
CONTINUOUS
 62
    7
 10
27.535001002031095
 20
15.186485520417818
 11
18.183529139455004
 21
15.186485520417818
  0
LINE
  8
_0-0_
  6
CONTINUOUS
 62
    7
 10
26.378880313013951
 20
28.526677899282902
 11
27.105675232257113
 21
28.946293141553554
  0
ARC
  8
_0-0_
  6
CONTINUOUS
 62
    7
 10
26.228880313013974
 20
28.786485520418239
 40
0.3
 50
270
 51
299.99999999999989
  0
LINE
  8
_0-0_
  6
CONTINUOUS
 62
    7
 10
19.339649828472602
 20
28.526677899282902
 11
18.612854909229554
 21
28.946293141553554
  0
LINE
  8
_0-0_
  6
CONTINUOUS
 62
    7
 10
26.228880313013974
 20
28.486485520418228
 11
19.489649828472693
 21
28.486485520418228
  0
ARC
  8
_0-0_
  6
CONTINUOUS
 62
    7
 10
19.489649828472693
 20
28.786485520418239
 40
0.3
 50
240.00000000000014
 51
270
  0
ARC
  8
_0-0_
  6
CONTINUOUS
 62
    7
 10
27.25567523225709
 20
28.686485520418216
 40
0.3
 50
90
 51
120.00000000000011
  0
LINE
  8
_0-0_
  6
CONTINUOUS
 62
    7
 10
27.25567523225709
 20
28.986485520418
 11
34.359265070743277
 21
28.986485520418
  0
ARC
  8
_0-0_
  6
CONTINUOUS
 62
    7
 10
18.462854909229463
 20
28.686485520418216
 40
0.3
 50
59.999999999999879
 51
90
  0
LINE
  8
_0-0_
  6
CONTINUOUS
 62
    7
 10
11.359265070743277
 20
28.986485520418
 11
18.462854909229463
 21
28.986485520418
  0
ENDSEC
  0
EOF
