  0
SECTION
  2
HEADER
  9
$ACADVER
  1
AC1009
  9
$INSBASE
 10
0
 20
0
 30
0
  9
$EXTMIN
 10
0
 20
0
  9
$EXTMAX
 10
1189
 20
841
  9
$LIMMIN
 10
0
 20
0
  9
$LIMMAX
 10
1189
 20
841
  9
$LTSCALE
 40
1
  0
ENDSEC
  0
SECTION
  2
TABLES
  0
TABLE
  2
LTYPE
 70
     9
  0
LTYPE
  2
CONTINUOUS
 70
    64
  3
実線
 72
    65
 73
     0
 40
0.0
  0
LTYPE
  2
DASHED1
 70
    64
  3
--  --  --  --  --  --  --  --  
 72
    65
 73
     2
 40
2.5
 49
1.25
 49
-1.25
  0
LTYPE
  2
DASHED2
 70
    64
  3
----    ----    ----    ----    
 72
    65
 73
     2
 40
5.0
 49
2.5
 49
-2.5
  0
LTYPE
  2
DASHED3
 70
    64
  3
------  ------  ------  ------  
 72
    65
 73
     2
 40
5.0
 49
3.75
 49
-1.25
  0
LTYPE
  2
CENTER1
 70
    64
  3
----- - ----- - ----- - ----- - 
 72
    65
 73
     4
 40
10.0
 49
6.25
 49
-1.25
 49
1.25
 49
-1.25
  0
LTYPE
  2
CENTER2
 70
    64
  3
----------  --  ----------  --  
 72
    65
 73
     4
 40
20.0
 49
12.5
 49
-2.5
 49
2.5
 49
-2.5
  0
LTYPE
  2
PHANTOM1
 70
    64
  3
--- - - --- - - --- - - --- - - 
 72
    65
 73
     6
 40
10.0
 49
3.25
 49
-1.25
 49
1.25
 49
-1.25
 49
1.25
 49
-1.25
  0
LTYPE
  2
PHANTOM2
 70
    64
  3
--------  -  -  --------  -  -  
 72
    65
 73
     6
 40
20.0
 49
10.0
 49
-2.5
 49
1.25
 49
-2.5
 49
1.25
 49
-2.5
  0
LTYPE
  2
DOT
 70
    64
  3
-   -   -   -   -   -   -   -   
 72
    65
 73
     2
 40
2.5
 49
0.625
 49
-1.875
  0
LTYPE
  2
DUMMY
 70
    64
  3
ダミー
 72
    65
 73
     0
 40
0.0
  0
LTYPE
  2
RAND1
 70
    64
  3
ランダム線1
 72
    65
 73
     4
 40
10.0
 49
1.0
 49
-2.0
 49
3.0
 49
-4.0
  0
LTYPE
  2
RAND2
 70
    64
  3
ランダム線2
 72
    65
 73
     4
 40
14.0
 49
2.0
 49
-3.0
 49
4.0
 49
-5.0
  0
LTYPE
  2
RAND3
 70
    64
  3
ランダム線3
 72
    65
 73
     4
 40
18.0
 49
3.0
 49
-4.0
 49
5.0
 49
-6.0
  0
LTYPE
  2
RAND4
 70
    64
  3
ランダム線4
 72
    65
 73
     4
 40
22.0
 49
4.0
 49
-5.0
 49
6.0
 49
-7.0
  0
LTYPE
  2
RAND5
 70
    64
  3
ランダム線5
 72
    65
 73
     4
 40
26.0
 49
5.0
 49
-6.0
 49
7.0
 49
-8.0
  0
LTYPE
  2
LONG1
 70
    64
  3
----------  --  ----------  --  
 72
    65
 73
     4
 40
40.0
 49
32.5
 49
-2.5
 49
2.5
 49
-2.5
  0
LTYPE
  2
LONG2
 70
    64
  3
--------  -  -  --------  -  -  
 72
    65
 73
     6
 40
40.0
 49
30.0
 49
-2.5
 49
1.25
 49
-2.5
 49
1.25
 49
-2.5
  0
LTYPE
  2
LONG3
 70
    64
  3
+++++++++++++++..+++++++++++++++
 72
    65
 73
     2
 40
40.0
 49
37.5
 49
-2.5
  0
LTYPE
  2
LONG4
 70
    64
  3
+++++++++++++++..+++++++++++++++
 72
    65
 73
     2
 40
80.0
 49
75.0
 49
-5.0
  0
LTYPE
  2
LONG5
 70
    64
  3
----------  --  ----------  --  
 72
    65
 73
     4
 40
60.0
 49
37.5
 49
-7.5
 49
7.5
 49
-7.5
  0
LTYPE
  2
dashed
 70
   64
  3
-------   -------------   ------
 72
   65
 73
    2
 40
7.5
 49
6
 49
-1.5
  0
LTYPE
  2
dashed_spaced
 70
   64
  3
----        --------        ----
 72
   65
 73
    2
 40
12
 49
6
 49
-6
  0
LTYPE
  2
long_dashed_dotted
 70
   64
  3
------------- --- --------------
 72
   65
 73
    4
 40
15.25
 49
12
 49
-1.5
 49
0.25
 49
-1.5
  0
LTYPE
  2
long_dashed_double-dotted
 70
   64
  3
----------- --- --- ------------
 72
   65
 73
    6
 40
17
 49
12
 49
-1.5
 49
0.25
 49
-1.5
 49
0.25
 49
-1.5
  0
LTYPE
  2
long_dashed_triplicate-dotted
 70
   64
  3
--------- --- --- --- ----------
 72
   65
 73
    8
 40
18.75
 49
12
 49
-1.5
 49
0.25
 49
-1.5
 49
0.25
 49
-1.5
 49
0.25
 49
-1.5
  0
LTYPE
  2
dotted
 70
   64
  3
   -       -       -       -    
 72
   65
 73
    2
 40
1.75
 49
0.25
 49
-1.5
  0
LTYPE
  2
chain
 70
   64
  3
-------------- -- --------------
 72
   65
 73
    4
 40
18.5
 49
12
 49
-1.5
 49
3.5
 49
-1.5
  0
LTYPE
  2
chain_double_dash
 70
   64
  3
------------ -- -- -------------
 72
   65
 73
    6
 40
23.5
 49
12
 49
-1.5
 49
3.5
 49
-1.5
 49
3.5
 49
-1.5
  0
LTYPE
  2
dashed_dotted
 70
   64
  3
-----------     -     ----------
 72
   65
 73
    4
 40
9.25
 49
6
 49
-1.5
 49
0.25
 49
-1.5
  0
LTYPE
  2
double-dashed_dotted
 70
   64
  3
------   -----------   -   -----
 72
   65
 73
    6
 40
16.75
 49
6
 49
-1.5
 49
6
 49
-1.5
 49
0.25
 49
-1.5
  0
LTYPE
  2
dashed_double-dotted
 70
   64
  3
---------    -    -    ---------
 72
   65
 73
    6
 40
11
 49
6
 49
-1.5
 49
0.25
 49
-1.5
 49
0.25
 49
-1.5
  0
LTYPE
  2
double-dashed_double-dotted
 70
   64
  3
-----   ---------   -   -   ----
 72
   65
 73
    8
 40
18.5
 49
6
 49
-1.5
 49
6
 49
-1.5
 49
0.25
 49
-1.5
 49
0.25
 49
-1.5
  0
LTYPE
  2
dashed_triplicate-dotted
 70
   64
  3
-------    -    -    -    ------
 72
   65
 73
    8
 40
12.75
 49
6
 49
-1.5
 49
0.25
 49
-1.5
 49
0.25
 49
-1.5
 49
0.25
 49
-1.5
  0
LTYPE
  2
double-dashed_triplicate-dotted
 70
   64
  3
-----  ---------  -  -  -  -----
 72
   65
 73
   10
 40
20.25
 49
6
 49
-1.5
 49
6
 49
-1.5
 49
0.25
 49
-1.5
 49
0.25
 49
-1.5
 49
0.25
 49
-1.5
  0
LTYPE
  2
undefined
 70
   64
  3
--------------------------------
 72
   65
 73
    0
 40
0
  0
ENDTAB
  0
TABLE
  2
STYLE
  5
3
100
AcDbSymbolTable
 70
     1
  0
STYLE
  5
10
100
AcDbSymbolTableRecord
100
AcDbTextStyleTableRecord
  2
STANDARD
 70
     0
 40
0.0
 41
1.0
 50
0.0
 71
     0
 42
0.2
  3
txt
  4
bigfont.shx
  0
STYLE
  5
26
100
AcDbSymbolTableRecord
100
AcDbTextStyleTableRecord
  2
TATEGAKI
 70
    68
 40
0.0
 41
1.0
 50
0.0
 71
     0
 42
1.0
  3
txt
  4
bigfont.shx
  0
ENDTAB
  0
TABLE
  2
LAYER
 70
    4
  0
LAYER
  2
_0-0_
 70
   64
 62
    7
  6
CONTINUOUS
  0
LAYER
  2
_0-1_
 70
   64
 62
    7
  6
CONTINUOUS
  0
LAYER
  2
_0-f_
 70
   64
 62
    7
  6
CONTINUOUS
  0
LAYER
  2
ADD_LINE
 70
   64
 62
    7
  6
CONTINUOUS
  0
ENDTAB
  0
ENDSEC
  0
SECTION
  2
BLOCKS
  0
ENDSEC
  0
SECTION
  2
ENTITIES
  0
TEXT
  8
_0-f_
 62
    7
 10
0.3395026139024821
 20
0.2813720304773141
 40
4.2999999999999998
 41
0.744186046511628
 50
0
  1
F154
  0
LINE
  8
_0-0_
  6
CONTINUOUS
 62
    7
 10
40.754743528902964
 20
17.782551182865177
 11
39.554743528902918
 21
17.782551182865177
  0
LINE
  8
_0-0_
  6
CONTINUOUS
 62
    7
 10
39.254743528902964
 20
18.082551182865359
 11
39.254743528902964
 21
19.882551182865313
  0
LINE
  8
_0-0_
  6
CONTINUOUS
 62
    7
 10
38.954743528902782
 20
20.182551182865268
 11
36.179007597614827
 21
20.182551182865268
  0
LINE
  8
_0-0_
  6
CONTINUOUS
 62
    7
 10
35.966875563258782
 20
20.094683217221359
 11
34.942611494547009
 21
19.070419148509359
  0
LINE
  8
_0-0_
  6
CONTINUOUS
 62
    7
 10
34.854743528902873
 20
18.858287114153541
 11
34.854743528902873
 21
9.5068152515772226
  0
LINE
  8
_0-0_
  6
CONTINUOUS
 62
    7
 10
34.942611494547009
 20
9.2946832172211771
 11
35.966875563258782
 21
8.2704191485091769
  0
LINE
  8
_0-0_
  6
CONTINUOUS
 62
    7
 10
36.179007597614827
 20
8.1825511828652679
 11
38.954743528902782
 21
8.1825511828652679
  0
LINE
  8
_0-0_
  6
CONTINUOUS
 62
    7
 10
39.254743528902964
 20
8.4825511828654498
 11
39.254743528902964
 21
10.282551182865177
  0
LINE
  8
_0-0_
  6
CONTINUOUS
 62
    7
 10
39.554743528902918
 20
10.582551182865359
 11
40.754743528902964
 21
10.582551182865359
  0
LINE
  8
_0-0_
  6
CONTINUOUS
 62
    7
 10
41.054743528902918
 20
10.282551182865177
 11
41.054743528902918
 21
7.6825511828652679
  0
LINE
  8
_0-0_
  6
CONTINUOUS
 62
    7
 10
40.054743528902918
 20
6.6825511828652679
 11
34.379007597614873
 21
6.6825511828652679
  0
LINE
  8
_0-0_
  6
CONTINUOUS
 62
    7
 10
34.166875563259055
 20
6.7704191485091769
 11
33.142611494547054
 21
7.7946832172211771
  0
LINE
  8
_0-0_
  6
CONTINUOUS
 62
    7
 10
32.930479460191009
 20
7.8825511828653134
 11
9.1790075976148273
 21
7.8825511828653134
  0
LINE
  8
_0-0_
  6
CONTINUOUS
 62
    7
 10
8.9668755632590091
 20
7.7946832172211771
 11
7.942611494547009
 21
6.7704191485091769
  0
LINE
  8
_0-0_
  6
CONTINUOUS
 62
    7
 10
7.7304794601909634
 20
6.6825511828652679
 11
2.0547435289029181
 21
6.6825511828652679
  0
LINE
  8
_0-0_
  6
CONTINUOUS
 62
    7
 10
1.0547435289029181
 20
7.6825511828652679
 11
1.0547435289029181
 21
10.282551182865177
  0
LINE
  8
_0-0_
  6
CONTINUOUS
 62
    7
 10
1.3547435289028726
 20
10.582551182865359
 11
2.5547435289029181
 21
10.582551182865359
  0
LINE
  8
_0-0_
  6
CONTINUOUS
 62
    7
 10
2.8547435289028726
 20
10.282551182865177
 11
2.8547435289028726
 21
8.4825511828654498
  0
LINE
  8
_0-0_
  6
CONTINUOUS
 62
    7
 10
3.1547435289030545
 20
8.1825511828652679
 11
5.9304794601910089
 21
8.1825511828652679
  0
LINE
  8
_0-0_
  6
CONTINUOUS
 62
    7
 10
6.1426114945470545
 20
8.2704191485091769
 11
7.1668755632590546
 21
9.2946832172211771
  0
LINE
  8
_0-0_
  6
CONTINUOUS
 62
    7
 10
7.2547435289029636
 20
9.5068152515772226
 11
7.2547435289029636
 21
18.858287114153541
  0
LINE
  8
_0-0_
  6
CONTINUOUS
 62
    7
 10
7.1668755632590546
 20
19.070419148509359
 11
6.1426114945470545
 21
20.094683217221359
  0
LINE
  8
_0-0_
  6
CONTINUOUS
 62
    7
 10
5.9304794601910089
 20
20.182551182865268
 11
3.1547435289030545
 21
20.182551182865268
  0
LINE
  8
_0-0_
  6
CONTINUOUS
 62
    7
 10
2.8547435289028726
 20
19.882551182865313
 11
2.8547435289028726
 21
18.082551182865359
  0
LINE
  8
_0-0_
  6
CONTINUOUS
 62
    7
 10
2.5547435289029181
 20
17.782551182865177
 11
1.3547435289028726
 21
17.782551182865177
  0
LINE
  8
_0-0_
  6
CONTINUOUS
 62
    7
 10
1.0547435289029181
 20
18.082551182865359
 11
1.0547435289029181
 21
20.682551182865268
  0
LINE
  8
_0-0_
  6
CONTINUOUS
 62
    7
 10
2.0547435289029181
 20
21.682551182865268
 11
7.7304794601909634
 21
21.682551182865268
  0
LINE
  8
_0-0_
  6
CONTINUOUS
 62
    7
 10
7.942611494547009
 20
21.594683217221359
 11
8.9668755632590091
 21
20.570419148509359
  0
LINE
  8
_0-0_
  6
CONTINUOUS
 62
    7
 10
9.1790075976148273
 20
20.48255118286545
 11
32.930479460191009
 21
20.48255118286545
  0
LINE
  8
_0-0_
  6
CONTINUOUS
 62
    7
 10
33.142611494547054
 20
20.570419148509359
 11
34.166875563259055
 21
21.594683217221359
  0
LINE
  8
_0-0_
  6
CONTINUOUS
 62
    7
 10
34.379007597614873
 20
21.682551182865268
 11
40.054743528902918
 21
21.682551182865268
  0
LINE
  8
_0-0_
  6
CONTINUOUS
 62
    7
 10
41.054743528902918
 20
20.682551182865268
 11
41.054743528902918
 21
18.082551182865359
  0
LINE
  8
_0-0_
  6
CONTINUOUS
 62
    7
 10
33.454743528903009
 20
18.682551182865268
 11
33.454743528903009
 21
9.6825511828652679
  0
LINE
  8
_0-0_
  6
CONTINUOUS
 62
    7
 10
33.154743528903055
 20
9.3825511828653134
 11
31.686865413943451
 21
9.3825511828653134
  0
LINE
  8
_0-0_
  6
CONTINUOUS
 62
    7
 10
31.39708766605645
 20
9.6049054693345397
 11
31.114323180396013
 21
10.660196896396087
  0
LINE
  8
_0-0_
  6
CONTINUOUS
 62
    7
 10
30.82454543250924
 20
10.882551182865313
 11
29.99349298589641
 21
10.882551182865313
  0
LINE
  8
_0-0_
  6
CONTINUOUS
 62
    7
 10
27.115994071909427
 20
10.882551182865313
 11
26.284941625296597
 21
10.882551182865313
  0
LINE
  8
_0-0_
  6
CONTINUOUS
 62
    7
 10
25.99516387741005
 20
10.660196896396087
 11
25.712399391749386
 21
9.6049054693345397
  0
LINE
  8
_0-0_
  6
CONTINUOUS
 62
    7
 10
25.422621643862612
 20
9.3825511828653134
 11
16.686865413943451
 21
9.3825511828653134
  0
LINE
  8
_0-0_
  6
CONTINUOUS
 62
    7
 10
16.39708766605645
 20
9.6049054693345397
 11
16.114323180396013
 21
10.660196896396087
  0
LINE
  8
_0-0_
  6
CONTINUOUS
 62
    7
 10
15.82454543250924
 20
10.882551182865313
 11
14.99349298589641
 21
10.882551182865313
  0
LINE
  8
_0-0_
  6
CONTINUOUS
 62
    7
 10
12.115994071908972
 20
10.882551182865313
 11
11.284941625296597
 21
10.882551182865313
  0
LINE
  8
_0-0_
  6
CONTINUOUS
 62
    7
 10
10.99516387741005
 20
10.660196896396087
 11
10.712399391749386
 21
9.6049054693345397
  0
LINE
  8
_0-0_
  6
CONTINUOUS
 62
    7
 10
10.422621643862612
 20
9.3825511828653134
 11
8.9547435289030091
 21
9.3825511828653134
  0
LINE
  8
_0-0_
  6
CONTINUOUS
 62
    7
 10
8.6547435289030545
 20
9.6825511828652679
 11
8.6547435289030545
 21
18.682551182865268
  0
LINE
  8
_0-0_
  6
CONTINUOUS
 62
    7
 10
8.9547435289030091
 20
18.98255118286545
 11
10.422621643862612
 21
18.98255118286545
  0
LINE
  8
_0-0_
  6
CONTINUOUS
 62
    7
 10
10.712399391749386
 20
18.760196896395996
 11
10.99516387741005
 21
17.704905469334449
  0
LINE
  8
_0-0_
  6
CONTINUOUS
 62
    7
 10
11.284941625296597
 20
17.48255118286545
 11
12.115994071909427
 21
17.48255118286545
  0
LINE
  8
_0-0_
  6
CONTINUOUS
 62
    7
 10
14.993492985896864
 20
17.48255118286545
 11
15.82454543250924
 21
17.48255118286545
  0
LINE
  8
_0-0_
  6
CONTINUOUS
 62
    7
 10
16.114323180396013
 20
17.704905469334449
 11
16.39708766605645
 21
18.760196896395996
  0
LINE
  8
_0-0_
  6
CONTINUOUS
 62
    7
 10
16.686865413943451
 20
18.98255118286545
 11
25.422621643862612
 21
18.98255118286545
  0
LINE
  8
_0-0_
  6
CONTINUOUS
 62
    7
 10
25.712399391749386
 20
18.760196896395996
 11
25.99516387741005
 21
17.704905469334449
  0
LINE
  8
_0-0_
  6
CONTINUOUS
 62
    7
 10
26.284941625296597
 20
17.48255118286545
 11
27.115994071909427
 21
17.48255118286545
  0
LINE
  8
_0-0_
  6
CONTINUOUS
 62
    7
 10
29.99349298589641
 20
17.48255118286545
 11
30.82454543250924
 21
17.48255118286545
  0
LINE
  8
_0-0_
  6
CONTINUOUS
 62
    7
 10
31.114323180396013
 20
17.704905469334449
 11
31.39708766605645
 21
18.760196896395996
  0
LINE
  8
_0-0_
  6
CONTINUOUS
 62
    7
 10
31.686865413943451
 20
18.98255118286545
 11
33.154743528903055
 21
18.98255118286545
  0
ARC
  8
_0-0_
  6
CONTINUOUS
 62
    7
 10
2.0547435289029181
 20
7.6825511828652679
 40
1
 50
180
 51
270
  0
ARC
  8
_0-0_
  6
CONTINUOUS
 62
    7
 10
2.0547435289029181
 20
20.682551182865268
 40
1
 50
90
 51
180
  0
ARC
  8
_0-0_
  6
CONTINUOUS
 62
    7
 10
40.054743528902918
 20
7.6825511828652679
 40
1
 50
270
 51
0
  0
ARC
  8
_0-0_
  6
CONTINUOUS
 62
    7
 10
40.054743528902918
 20
20.682551182865268
 40
1
 50
0
 51
90
  0
ARC
  8
_0-0_
  6
CONTINUOUS
 62
    7
 10
1.3547435289028726
 20
10.282551182865177
 40
0.2999999999999999
 50
90
 51
180
  0
ARC
  8
_0-0_
  6
CONTINUOUS
 62
    7
 10
2.5547435289029181
 20
10.282551182865177
 40
0.2999999999999999
 50
0
 51
90
  0
ARC
  8
_0-0_
  6
CONTINUOUS
 62
    7
 10
3.1547435289030545
 20
8.4825511828654498
 40
0.2999999999999999
 50
180
 51
270
  0
ARC
  8
_0-0_
  6
CONTINUOUS
 62
    7
 10
5.9304794601910089
 20
8.4825511828654498
 40
0.2999999999999999
 50
270
 51
315
  0
ARC
  8
_0-0_
  6
CONTINUOUS
 62
    7
 10
6.9547435289030091
 20
9.5068152515772226
 40
0.2999999999999999
 50
315.00000000000034
 51
0.000000000000019
  0
ARC
  8
_0-0_
  6
CONTINUOUS
 62
    7
 10
6.9547435289030091
 20
18.858287114153541
 40
0.2999999999999999
 50
0
 51
45
  0
ARC
  8
_0-0_
  6
CONTINUOUS
 62
    7
 10
5.9304794601910089
 20
19.882551182865313
 40
0.2999999999999999
 50
44.999999999999645
 51
90
  0
ARC
  8
_0-0_
  6
CONTINUOUS
 62
    7
 10
3.1547435289030545
 20
19.882551182865313
 40
0.2999999999999999
 50
90
 51
180
  0
ARC
  8
_0-0_
  6
CONTINUOUS
 62
    7
 10
2.5547435289029181
 20
18.082551182865359
 40
0.2999999999999999
 50
270
 51
0
  0
ARC
  8
_0-0_
  6
CONTINUOUS
 62
    7
 10
1.3547435289028726
 20
18.082551182865359
 40
0.2999999999999999
 50
180
 51
270
  0
ARC
  8
_0-0_
  6
CONTINUOUS
 62
    7
 10
7.7304794601909634
 20
21.382551182865313
 40
0.2999999999999999
 50
44.999999999999645
 51
90
  0
ARC
  8
_0-0_
  6
CONTINUOUS
 62
    7
 10
9.1790075976148273
 20
20.782551182865177
 40
0.2999999999999999
 50
224.99999999999929
 51
270
  0
ARC
  8
_0-0_
  6
CONTINUOUS
 62
    7
 10
32.930479460191009
 20
20.782551182865177
 40
0.2999999999999999
 50
270
 51
314.99999999999983
  0
ARC
  8
_0-0_
  6
CONTINUOUS
 62
    7
 10
34.379007597614873
 20
21.382551182865313
 40
0.2999999999999999
 50
90
 51
135.0000000000002
  0
ARC
  8
_0-0_
  6
CONTINUOUS
 62
    7
 10
40.754743528902964
 20
18.082551182865359
 40
0.2999999999999999
 50
270
 51
0
  0
ARC
  8
_0-0_
  6
CONTINUOUS
 62
    7
 10
39.554743528902918
 20
18.082551182865359
 40
0.2999999999999999
 50
180
 51
270
  0
ARC
  8
_0-0_
  6
CONTINUOUS
 62
    7
 10
38.954743528902782
 20
19.882551182865313
 40
0.2999999999999999
 50
0
 51
90
  0
ARC
  8
_0-0_
  6
CONTINUOUS
 62
    7
 10
36.179007597614827
 20
19.882551182865313
 40
0.2999999999999999
 50
90
 51
135
  0
ARC
  8
_0-0_
  6
CONTINUOUS
 62
    7
 10
35.154743528903055
 20
18.858287114153541
 40
0.2999999999999999
 50
135.00000000000037
 51
180
  0
ARC
  8
_0-0_
  6
CONTINUOUS
 62
    7
 10
35.154743528903055
 20
9.5068152515772226
 40
0.2999999999999999
 50
180
 51
225
  0
ARC
  8
_0-0_
  6
CONTINUOUS
 62
    7
 10
36.179007597614827
 20
8.4825511828654498
 40
0.2999999999999999
 50
224.99999999999963
 51
270
  0
ARC
  8
_0-0_
  6
CONTINUOUS
 62
    7
 10
38.954743528902782
 20
8.4825511828654498
 40
0.2999999999999999
 50
270
 51
0
  0
ARC
  8
_0-0_
  6
CONTINUOUS
 62
    7
 10
39.554743528902918
 20
10.282551182865177
 40
0.2999999999999999
 50
90
 51
180
  0
ARC
  8
_0-0_
  6
CONTINUOUS
 62
    7
 10
40.754743528902964
 20
10.282551182865177
 40
0.2999999999999999
 50
0
 51
90
  0
ARC
  8
_0-0_
  6
CONTINUOUS
 62
    7
 10
34.379007597614873
 20
6.9825511828654498
 40
0.2999999999999999
 50
225
 51
270
  0
ARC
  8
_0-0_
  6
CONTINUOUS
 62
    7
 10
32.930479460191009
 20
7.5825511828653589
 40
0.2999999999999999
 50
44.999999999999645
 51
90.000000000000028
  0
ARC
  8
_0-0_
  6
CONTINUOUS
 62
    7
 10
9.1790075976148273
 20
7.5825511828653589
 40
0.2999999999999999
 50
90
 51
135
  0
ARC
  8
_0-0_
  6
CONTINUOUS
 62
    7
 10
7.7304794601909634
 20
6.9825511828654498
 40
0.2999999999999999
 50
270
 51
315.00000000000034
  0
ARC
  8
_0-0_
  6
CONTINUOUS
 62
    7
 10
8.9547435289030091
 20
9.6825511828652679
 40
0.2999999999999999
 50
180
 51
270
  0
ARC
  8
_0-0_
  6
CONTINUOUS
 62
    7
 10
8.9547435289030091
 20
18.682551182865268
 40
0.2999999999999999
 50
90
 51
180
  0
ARC
  8
_0-0_
  6
CONTINUOUS
 62
    7
 10
10.422621643862612
 20
18.682551182865268
 40
0.2999999999999999
 50
14.999999999999982
 51
90
  0
ARC
  8
_0-0_
  6
CONTINUOUS
 62
    7
 10
11.284941625296597
 20
17.782551182865177
 40
0.2999999999999999
 50
194.99999999999977
 51
270
  0
ARC
  8
_0-0_
  6
CONTINUOUS
 62
    7
 10
10.422621643862612
 20
9.6825511828652679
 40
0.2999999999999999
 50
270
 51
345
  0
ARC
  8
_0-0_
  6
CONTINUOUS
 62
    7
 10
11.284941625296597
 20
10.582551182865359
 40
0.2999999999999999
 50
90
 51
165.00000000000023
  0
ARC
  8
_0-0_
  6
CONTINUOUS
 62
    7
 10
15.82454543250924
 20
10.582551182865359
 40
0.2999999999999999
 50
14.999999999999982
 51
90
  0
ARC
  8
_0-0_
  6
CONTINUOUS
 62
    7
 10
16.686865413943451
 20
9.6825511828652679
 40
0.2999999999999999
 50
194.99999999999983
 51
270
  0
ARC
  8
_0-0_
  6
CONTINUOUS
 62
    7
 10
25.422621643862612
 20
9.6825511828652679
 40
0.2999999999999999
 50
270
 51
345
  0
ARC
  8
_0-0_
  6
CONTINUOUS
 62
    7
 10
26.284941625296597
 20
10.582551182865359
 40
0.2999999999999999
 50
90
 51
165.00000000000028
  0
ARC
  8
_0-0_
  6
CONTINUOUS
 62
    7
 10
30.82454543250924
 20
10.582551182865359
 40
0.2999999999999999
 50
14.999999999999982
 51
90
  0
ARC
  8
_0-0_
  6
CONTINUOUS
 62
    7
 10
31.686865413943451
 20
9.6825511828652679
 40
0.2999999999999999
 50
194.99999999999983
 51
270
  0
ARC
  8
_0-0_
  6
CONTINUOUS
 62
    7
 10
33.154743528903055
 20
9.6825511828652679
 40
0.2999999999999999
 50
270
 51
0
  0
ARC
  8
_0-0_
  6
CONTINUOUS
 62
    7
 10
33.154743528903055
 20
18.682551182865268
 40
0.2999999999999999
 50
0
 51
90
  0
ARC
  8
_0-0_
  6
CONTINUOUS
 62
    7
 10
31.686865413943451
 20
18.682551182865268
 40
0.2999999999999999
 50
90
 51
165.00000000000003
  0
ARC
  8
_0-0_
  6
CONTINUOUS
 62
    7
 10
30.82454543250924
 20
17.782551182865177
 40
0.2999999999999999
 50
270
 51
345.00000000000017
  0
ARC
  8
_0-0_
  6
CONTINUOUS
 62
    7
 10
26.284941625296597
 20
17.782551182865177
 40
0.2999999999999999
 50
194.99999999999997
 51
270
  0
ARC
  8
_0-0_
  6
CONTINUOUS
 62
    7
 10
25.422621643862612
 20
18.682551182865268
 40
0.2999999999999999
 50
14.99999999999978
 51
90.000000000000043
  0
ARC
  8
_0-0_
  6
CONTINUOUS
 62
    7
 10
16.686865413943451
 20
18.682551182865268
 40
0.2999999999999999
 50
90
 51
165.00000000000003
  0
ARC
  8
_0-0_
  6
CONTINUOUS
 62
    7
 10
15.82454543250924
 20
17.782551182865177
 40
0.2999999999999999
 50
270
 51
345.00000000000017
  0
ARC
  8
_0-0_
  6
CONTINUOUS
 62
    7
 10
13.554743528902918
 20
14.182551182865268
 40
3.6000000000000001
 50
246.44353569090609
 51
293.55646430909383
  0
ARC
  8
_0-0_
  6
CONTINUOUS
 62
    7
 10
13.554743528902918
 20
14.182551182865268
 40
3.6000000000000001
 50
66.443535690896994
 51
113.55646430910299
  0
ARC
  8
_0-0_
  6
CONTINUOUS
 62
    7
 10
28.554743528902918
 20
14.182551182865268
 40
3.6000000000000001
 50
246.44353569090609
 51
293.55646430909383
  0
ARC
  8
_0-0_
  6
CONTINUOUS
 62
    7
 10
28.554743528902918
 20
14.182551182865268
 40
3.6000000000000001
 50
66.443535690896994
 51
113.55646430910299
  0
LINE
  8
_0-1_
  6
CENTER1
 62
  152
 10
1.0547435289029181
 20
14.182551182865268
 11
41.054743528902918
 21
14.182551182865268
  0
LINE
  8
_0-1_
  6
CENTER1
 62
  152
 10
28.554743528902918
 20
21.682551182865268
 11
28.554743528902918
 21
6.6825511828652679
  0
LINE
  8
_0-1_
  6
CENTER1
 62
  152
 10
13.554743528902918
 20
6.6825511828652679
 11
13.554743528902918
 21
21.682551182865268
  0
ENDSEC
  0
EOF
