  0
SECTION
  2
HEADER
  9
$ACADVER
  1
AC1009
  9
$INSBASE
 10
0
 20
0
 30
0
  9
$EXTMIN
 10
0
 20
0
  9
$EXTMAX
 10
1189
 20
841
  9
$LIMMIN
 10
0
 20
0
  9
$LIMMAX
 10
1189
 20
841
  9
$LTSCALE
 40
1
  0
ENDSEC
  0
SECTION
  2
TABLES
  0
TABLE
  2
LTYPE
 70
     9
  0
LTYPE
  2
CONTINUOUS
 70
    64
  3
実線
 72
    65
 73
     0
 40
0.0
  0
LTYPE
  2
DASHED1
 70
    64
  3
--  --  --  --  --  --  --  --  
 72
    65
 73
     2
 40
2.5
 49
1.25
 49
-1.25
  0
LTYPE
  2
DASHED2
 70
    64
  3
----    ----    ----    ----    
 72
    65
 73
     2
 40
5.0
 49
2.5
 49
-2.5
  0
LTYPE
  2
DASHED3
 70
    64
  3
------  ------  ------  ------  
 72
    65
 73
     2
 40
5.0
 49
3.75
 49
-1.25
  0
LTYPE
  2
CENTER1
 70
    64
  3
----- - ----- - ----- - ----- - 
 72
    65
 73
     4
 40
10.0
 49
6.25
 49
-1.25
 49
1.25
 49
-1.25
  0
LTYPE
  2
CENTER2
 70
    64
  3
----------  --  ----------  --  
 72
    65
 73
     4
 40
20.0
 49
12.5
 49
-2.5
 49
2.5
 49
-2.5
  0
LTYPE
  2
PHANTOM1
 70
    64
  3
--- - - --- - - --- - - --- - - 
 72
    65
 73
     6
 40
10.0
 49
3.25
 49
-1.25
 49
1.25
 49
-1.25
 49
1.25
 49
-1.25
  0
LTYPE
  2
PHANTOM2
 70
    64
  3
--------  -  -  --------  -  -  
 72
    65
 73
     6
 40
20.0
 49
10.0
 49
-2.5
 49
1.25
 49
-2.5
 49
1.25
 49
-2.5
  0
LTYPE
  2
DOT
 70
    64
  3
-   -   -   -   -   -   -   -   
 72
    65
 73
     2
 40
2.5
 49
0.625
 49
-1.875
  0
LTYPE
  2
DUMMY
 70
    64
  3
ダミー
 72
    65
 73
     0
 40
0.0
  0
LTYPE
  2
RAND1
 70
    64
  3
ランダム線1
 72
    65
 73
     4
 40
10.0
 49
1.0
 49
-2.0
 49
3.0
 49
-4.0
  0
LTYPE
  2
RAND2
 70
    64
  3
ランダム線2
 72
    65
 73
     4
 40
14.0
 49
2.0
 49
-3.0
 49
4.0
 49
-5.0
  0
LTYPE
  2
RAND3
 70
    64
  3
ランダム線3
 72
    65
 73
     4
 40
18.0
 49
3.0
 49
-4.0
 49
5.0
 49
-6.0
  0
LTYPE
  2
RAND4
 70
    64
  3
ランダム線4
 72
    65
 73
     4
 40
22.0
 49
4.0
 49
-5.0
 49
6.0
 49
-7.0
  0
LTYPE
  2
RAND5
 70
    64
  3
ランダム線5
 72
    65
 73
     4
 40
26.0
 49
5.0
 49
-6.0
 49
7.0
 49
-8.0
  0
LTYPE
  2
LONG1
 70
    64
  3
----------  --  ----------  --  
 72
    65
 73
     4
 40
40.0
 49
32.5
 49
-2.5
 49
2.5
 49
-2.5
  0
LTYPE
  2
LONG2
 70
    64
  3
--------  -  -  --------  -  -  
 72
    65
 73
     6
 40
40.0
 49
30.0
 49
-2.5
 49
1.25
 49
-2.5
 49
1.25
 49
-2.5
  0
LTYPE
  2
LONG3
 70
    64
  3
+++++++++++++++..+++++++++++++++
 72
    65
 73
     2
 40
40.0
 49
37.5
 49
-2.5
  0
LTYPE
  2
LONG4
 70
    64
  3
+++++++++++++++..+++++++++++++++
 72
    65
 73
     2
 40
80.0
 49
75.0
 49
-5.0
  0
LTYPE
  2
LONG5
 70
    64
  3
----------  --  ----------  --  
 72
    65
 73
     4
 40
60.0
 49
37.5
 49
-7.5
 49
7.5
 49
-7.5
  0
LTYPE
  2
dashed
 70
   64
  3
-------   -------------   ------
 72
   65
 73
    2
 40
7.5
 49
6
 49
-1.5
  0
LTYPE
  2
dashed_spaced
 70
   64
  3
----        --------        ----
 72
   65
 73
    2
 40
12
 49
6
 49
-6
  0
LTYPE
  2
long_dashed_dotted
 70
   64
  3
------------- --- --------------
 72
   65
 73
    4
 40
15.25
 49
12
 49
-1.5
 49
0.25
 49
-1.5
  0
LTYPE
  2
long_dashed_double-dotted
 70
   64
  3
----------- --- --- ------------
 72
   65
 73
    6
 40
17
 49
12
 49
-1.5
 49
0.25
 49
-1.5
 49
0.25
 49
-1.5
  0
LTYPE
  2
long_dashed_triplicate-dotted
 70
   64
  3
--------- --- --- --- ----------
 72
   65
 73
    8
 40
18.75
 49
12
 49
-1.5
 49
0.25
 49
-1.5
 49
0.25
 49
-1.5
 49
0.25
 49
-1.5
  0
LTYPE
  2
dotted
 70
   64
  3
   -       -       -       -    
 72
   65
 73
    2
 40
1.75
 49
0.25
 49
-1.5
  0
LTYPE
  2
chain
 70
   64
  3
-------------- -- --------------
 72
   65
 73
    4
 40
18.5
 49
12
 49
-1.5
 49
3.5
 49
-1.5
  0
LTYPE
  2
chain_double_dash
 70
   64
  3
------------ -- -- -------------
 72
   65
 73
    6
 40
23.5
 49
12
 49
-1.5
 49
3.5
 49
-1.5
 49
3.5
 49
-1.5
  0
LTYPE
  2
dashed_dotted
 70
   64
  3
-----------     -     ----------
 72
   65
 73
    4
 40
9.25
 49
6
 49
-1.5
 49
0.25
 49
-1.5
  0
LTYPE
  2
double-dashed_dotted
 70
   64
  3
------   -----------   -   -----
 72
   65
 73
    6
 40
16.75
 49
6
 49
-1.5
 49
6
 49
-1.5
 49
0.25
 49
-1.5
  0
LTYPE
  2
dashed_double-dotted
 70
   64
  3
---------    -    -    ---------
 72
   65
 73
    6
 40
11
 49
6
 49
-1.5
 49
0.25
 49
-1.5
 49
0.25
 49
-1.5
  0
LTYPE
  2
double-dashed_double-dotted
 70
   64
  3
-----   ---------   -   -   ----
 72
   65
 73
    8
 40
18.5
 49
6
 49
-1.5
 49
6
 49
-1.5
 49
0.25
 49
-1.5
 49
0.25
 49
-1.5
  0
LTYPE
  2
dashed_triplicate-dotted
 70
   64
  3
-------    -    -    -    ------
 72
   65
 73
    8
 40
12.75
 49
6
 49
-1.5
 49
0.25
 49
-1.5
 49
0.25
 49
-1.5
 49
0.25
 49
-1.5
  0
LTYPE
  2
double-dashed_triplicate-dotted
 70
   64
  3
-----  ---------  -  -  -  -----
 72
   65
 73
   10
 40
20.25
 49
6
 49
-1.5
 49
6
 49
-1.5
 49
0.25
 49
-1.5
 49
0.25
 49
-1.5
 49
0.25
 49
-1.5
  0
LTYPE
  2
undefined
 70
   64
  3
--------------------------------
 72
   65
 73
    0
 40
0
  0
ENDTAB
  0
TABLE
  2
STYLE
  5
3
100
AcDbSymbolTable
 70
     1
  0
STYLE
  5
10
100
AcDbSymbolTableRecord
100
AcDbTextStyleTableRecord
  2
STANDARD
 70
     0
 40
0.0
 41
1.0
 50
0.0
 71
     0
 42
0.2
  3
txt
  4
bigfont.shx
  0
STYLE
  5
26
100
AcDbSymbolTableRecord
100
AcDbTextStyleTableRecord
  2
TATEGAKI
 70
    68
 40
0.0
 41
1.0
 50
0.0
 71
     0
 42
1.0
  3
txt
  4
bigfont.shx
  0
ENDTAB
  0
TABLE
  2
LAYER
 70
    4
  0
LAYER
  2
_0-0_
 70
   64
 62
    7
  6
CONTINUOUS
  0
LAYER
  2
_0-1_
 70
   64
 62
    7
  6
CONTINUOUS
  0
LAYER
  2
_0-f_
 70
   64
 62
    7
  6
CONTINUOUS
  0
LAYER
  2
ADD_LINE
 70
   64
 62
    7
  6
CONTINUOUS
  0
ENDTAB
  0
ENDSEC
  0
SECTION
  2
BLOCKS
  0
ENDSEC
  0
SECTION
  2
ENTITIES
  0
TEXT
  8
_0-f_
 62
    7
 10
0.8857014500752029
 20
0.9824302804222497
 40
4.2999999999999998
 41
0.744186046511628
 50
0
  1
F153
  0
LINE
  8
_0-0_
  6
CONTINUOUS
 62
    7
 10
29.858823137473792
 20
6.2457312930189346
 11
19.758823137473883
 21
6.2457312930189346
  0
LINE
  8
_0-0_
  6
CONTINUOUS
 62
    7
 10
19.458823137473701
 20
6.5457312930188891
 11
19.458823137473701
 21
7.7457312930189346
  0
LINE
  8
_0-0_
  6
CONTINUOUS
 62
    7
 10
19.758823137473883
 20
8.0457312930188891
 11
22.05882313747361
 21
8.0457312930188891
  0
LINE
  8
_0-0_
  6
CONTINUOUS
 62
    7
 10
22.358823137473792
 20
8.345731293019071
 11
22.358823137473792
 21
11.121467224307253
  0
LINE
  8
_0-0_
  6
CONTINUOUS
 62
    7
 10
22.270955171829883
 20
11.333599258663071
 11
21.246691103117882
 21
12.357863327375071
  0
LINE
  8
_0-0_
  6
CONTINUOUS
 62
    7
 10
21.03455906876161
 20
12.44573129301898
 11
10.683087206185974
 21
12.44573129301898
  0
LINE
  8
_0-0_
  6
CONTINUOUS
 62
    7
 10
10.470955171829701
 20
12.357863327375071
 11
9.4466911031177005
 21
11.333599258663071
  0
LINE
  8
_0-0_
  6
CONTINUOUS
 62
    7
 10
9.3588231374737916
 20
11.121467224307253
 11
9.3588231374737916
 21
8.345731293019071
  0
LINE
  8
_0-0_
  6
CONTINUOUS
 62
    7
 10
9.6588231374739735
 20
8.0457312930188891
 11
11.958823137473701
 21
8.0457312930188891
  0
LINE
  8
_0-0_
  6
CONTINUOUS
 62
    7
 10
12.258823137473883
 20
7.7457312930189346
 11
12.258823137473883
 21
6.5457312930188891
  0
LINE
  8
_0-0_
  6
CONTINUOUS
 62
    7
 10
11.958823137473701
 20
6.2457312930189346
 11
1.8588231374737916
 21
6.2457312930189346
  0
LINE
  8
_0-0_
  6
CONTINUOUS
 62
    7
 10
0.8588231374737915
 20
7.2457312930189346
 11
0.8588231374737915
 21
9.845731293019071
  0
LINE
  8
_0-0_
  6
CONTINUOUS
 62
    7
 10
1.1588231374739735
 20
10.145731293019026
 11
2.3588231374737916
 21
10.145731293019026
  0
LINE
  8
_0-0_
  6
CONTINUOUS
 62
    7
 10
2.6588231374739735
 20
9.845731293019071
 11
2.6588231374739735
 21
8.0457312930188891
  0
LINE
  8
_0-0_
  6
CONTINUOUS
 62
    7
 10
2.9588231374737006
 20
7.7457312930189346
 11
5.7345590687618824
 21
7.7457312930189346
  0
LINE
  8
_0-0_
  6
CONTINUOUS
 62
    7
 10
5.9466911031177005
 20
7.8335992586630709
 11
6.9709551718297007
 21
8.8578633273750711
  0
LINE
  8
_0-0_
  6
CONTINUOUS
 62
    7
 10
7.0588231374736097
 20
9.0699953617308893
 11
7.0588231374736097
 21
18.42146722430698
  0
LINE
  8
_0-0_
  6
CONTINUOUS
 62
    7
 10
6.9709551718297007
 20
18.633599258663025
 11
5.9466911031177005
 21
19.657863327375026
  0
LINE
  8
_0-0_
  6
CONTINUOUS
 62
    7
 10
5.7345590687618824
 20
19.745731293018935
 11
2.9588231374737006
 21
19.745731293018935
  0
LINE
  8
_0-0_
  6
CONTINUOUS
 62
    7
 10
2.6588231374739735
 20
19.44573129301898
 11
2.6588231374739735
 21
17.645731293019026
  0
LINE
  8
_0-0_
  6
CONTINUOUS
 62
    7
 10
2.3588231374737916
 20
17.345731293019071
 11
1.1588231374739735
 21
17.345731293019071
  0
LINE
  8
_0-0_
  6
CONTINUOUS
 62
    7
 10
0.8588231374737915
 20
17.645731293019026
 11
0.8588231374737915
 21
20.245731293018935
  0
LINE
  8
_0-0_
  6
CONTINUOUS
 62
    7
 10
1.8588231374737916
 20
21.245731293018935
 11
11.958823137473701
 21
21.245731293018935
  0
LINE
  8
_0-0_
  6
CONTINUOUS
 62
    7
 10
12.258823137473883
 20
20.94573129301898
 11
12.258823137473883
 21
19.745731293018935
  0
LINE
  8
_0-0_
  6
CONTINUOUS
 62
    7
 10
11.958823137473701
 20
19.44573129301898
 11
9.6588231374739735
 21
19.44573129301898
  0
LINE
  8
_0-0_
  6
CONTINUOUS
 62
    7
 10
9.3588231374737916
 20
19.145731293019026
 11
9.3588231374737916
 21
16.369995361730844
  0
LINE
  8
_0-0_
  6
CONTINUOUS
 62
    7
 10
9.4466911031177005
 20
16.157863327375026
 11
10.470955171829701
 21
15.133599258663025
  0
LINE
  8
_0-0_
  6
CONTINUOUS
 62
    7
 10
10.683087206185974
 20
15.045731293018889
 11
21.03455906876161
 21
15.045731293018889
  0
LINE
  8
_0-0_
  6
CONTINUOUS
 62
    7
 10
21.246691103117882
 20
15.133599258663025
 11
22.270955171829883
 21
16.157863327375026
  0
LINE
  8
_0-0_
  6
CONTINUOUS
 62
    7
 10
22.358823137473792
 20
16.369995361730844
 11
22.358823137473792
 21
19.145731293019026
  0
LINE
  8
_0-0_
  6
CONTINUOUS
 62
    7
 10
22.05882313747361
 20
19.44573129301898
 11
19.758823137473883
 21
19.44573129301898
  0
LINE
  8
_0-0_
  6
CONTINUOUS
 62
    7
 10
19.458823137473701
 20
19.745731293018935
 11
19.458823137473701
 21
20.94573129301898
  0
LINE
  8
_0-0_
  6
CONTINUOUS
 62
    7
 10
19.758823137473883
 20
21.245731293018935
 11
29.858823137473792
 21
21.245731293018935
  0
LINE
  8
_0-0_
  6
CONTINUOUS
 62
    7
 10
30.858823137473792
 20
20.245731293018935
 11
30.858823137473792
 21
17.645731293019026
  0
LINE
  8
_0-0_
  6
CONTINUOUS
 62
    7
 10
30.55882313747361
 20
17.345731293019071
 11
29.358823137473792
 21
17.345731293019071
  0
LINE
  8
_0-0_
  6
CONTINUOUS
 62
    7
 10
29.05882313747361
 20
17.645731293019026
 11
29.05882313747361
 21
19.44573129301898
  0
LINE
  8
_0-0_
  6
CONTINUOUS
 62
    7
 10
28.758823137473883
 20
19.745731293018935
 11
25.983087206185701
 21
19.745731293018935
  0
LINE
  8
_0-0_
  6
CONTINUOUS
 62
    7
 10
25.770955171829883
 20
19.657863327375026
 11
24.746691103118337
 21
18.633599258662798
  0
LINE
  8
_0-0_
  6
CONTINUOUS
 62
    7
 10
24.658823137473973
 20
18.42146722430698
 11
24.658823137473973
 21
9.0699953617308893
  0
LINE
  8
_0-0_
  6
CONTINUOUS
 62
    7
 10
24.746691103117882
 20
8.8578633273750711
 11
25.770955171829883
 21
7.8335992586630709
  0
LINE
  8
_0-0_
  6
CONTINUOUS
 62
    7
 10
25.983087206185701
 20
7.7457312930189346
 11
28.758823137473883
 21
7.7457312930189346
  0
LINE
  8
_0-0_
  6
CONTINUOUS
 62
    7
 10
29.05882313747361
 20
8.0457312930188891
 11
29.05882313747361
 21
9.845731293019071
  0
LINE
  8
_0-0_
  6
CONTINUOUS
 62
    7
 10
29.358823137473792
 20
10.145731293019026
 11
30.55882313747361
 21
10.145731293019026
  0
LINE
  8
_0-0_
  6
CONTINUOUS
 62
    7
 10
30.858823137473792
 20
9.845731293019071
 11
30.858823137473792
 21
7.2457312930189346
  0
ARC
  8
_0-0_
  6
CONTINUOUS
 62
    7
 10
1.8588231374737916
 20
7.2457312930189346
 40
1
 50
180
 51
270
  0
ARC
  8
_0-0_
  6
CONTINUOUS
 62
    7
 10
1.8588231374737916
 20
20.245731293018935
 40
1
 50
90
 51
180
  0
ARC
  8
_0-0_
  6
CONTINUOUS
 62
    7
 10
1.1588231374739735
 20
9.845731293019071
 40
0.2999999999999999
 50
90
 51
180
  0
ARC
  8
_0-0_
  6
CONTINUOUS
 62
    7
 10
2.3588231374737916
 20
9.845731293019071
 40
0.2999999999999999
 50
0
 51
90
  0
ARC
  8
_0-0_
  6
CONTINUOUS
 62
    7
 10
2.9588231374737006
 20
8.0457312930188891
 40
0.2999999999999999
 50
180
 51
270
  0
ARC
  8
_0-0_
  6
CONTINUOUS
 62
    7
 10
5.7345590687618824
 20
8.0457312930188891
 40
0.2999999999999999
 50
270
 51
315
  0
ARC
  8
_0-0_
  6
CONTINUOUS
 62
    7
 10
6.7588231374738825
 20
9.0699953617308893
 40
0.2999999999999999
 50
315.0000000000004
 51
0.0000000000000063
  0
ARC
  8
_0-0_
  6
CONTINUOUS
 62
    7
 10
6.7588231374738825
 20
18.42146722430698
 40
0.2999999999999999
 50
0
 51
45
  0
ARC
  8
_0-0_
  6
CONTINUOUS
 62
    7
 10
5.7345590687618824
 20
19.44573129301898
 40
0.2999999999999999
 50
44.999999999999645
 51
90.000000000000028
  0
ARC
  8
_0-0_
  6
CONTINUOUS
 62
    7
 10
2.9588231374737006
 20
19.44573129301898
 40
0.2999999999999999
 50
90
 51
180
  0
ARC
  8
_0-0_
  6
CONTINUOUS
 62
    7
 10
2.3588231374737916
 20
17.645731293019026
 40
0.2999999999999999
 50
270
 51
0
  0
ARC
  8
_0-0_
  6
CONTINUOUS
 62
    7
 10
1.1588231374739735
 20
17.645731293019026
 40
0.2999999999999999
 50
180
 51
270
  0
ARC
  8
_0-0_
  6
CONTINUOUS
 62
    7
 10
11.958823137473701
 20
6.5457312930188891
 40
0.2999999999999999
 50
270
 51
0
  0
ARC
  8
_0-0_
  6
CONTINUOUS
 62
    7
 10
11.958823137473701
 20
7.7457312930189346
 40
0.2999999999999999
 50
0
 51
90
  0
ARC
  8
_0-0_
  6
CONTINUOUS
 62
    7
 10
9.6588231374739735
 20
8.345731293019071
 40
0.2999999999999999
 50
180
 51
270
  0
ARC
  8
_0-0_
  6
CONTINUOUS
 62
    7
 10
22.05882313747361
 20
8.345731293019071
 40
0.2999999999999999
 50
270
 51
0
  0
ARC
  8
_0-0_
  6
CONTINUOUS
 62
    7
 10
19.758823137473883
 20
7.7457312930189346
 40
0.2999999999999999
 50
90
 51
180
  0
ARC
  8
_0-0_
  6
CONTINUOUS
 62
    7
 10
19.758823137473883
 20
6.5457312930188891
 40
0.2999999999999999
 50
180
 51
270
  0
ARC
  8
_0-0_
  6
CONTINUOUS
 62
    7
 10
19.758823137473883
 20
20.94573129301898
 40
0.2999999999999999
 50
90
 51
180
  0
ARC
  8
_0-0_
  6
CONTINUOUS
 62
    7
 10
19.758823137473883
 20
19.745731293018935
 40
0.2999999999999999
 50
180
 51
270
  0
ARC
  8
_0-0_
  6
CONTINUOUS
 62
    7
 10
22.05882313747361
 20
19.145731293019026
 40
0.2999999999999999
 50
0
 51
90
  0
ARC
  8
_0-0_
  6
CONTINUOUS
 62
    7
 10
9.6588231374739735
 20
19.145731293019026
 40
0.2999999999999999
 50
90
 51
180
  0
ARC
  8
_0-0_
  6
CONTINUOUS
 62
    7
 10
11.958823137473701
 20
19.745731293018935
 40
0.2999999999999999
 50
270
 51
0
  0
ARC
  8
_0-0_
  6
CONTINUOUS
 62
    7
 10
11.958823137473701
 20
20.94573129301898
 40
0.2999999999999999
 50
0
 51
90
  0
ARC
  8
_0-0_
  6
CONTINUOUS
 62
    7
 10
22.05882313747361
 20
16.369995361730844
 40
0.2999999999999999
 50
315
 51
0
  0
ARC
  8
_0-0_
  6
CONTINUOUS
 62
    7
 10
21.03455906876161
 20
15.345731293019071
 40
0.2999999999999999
 50
270
 51
315.00000000000034
  0
ARC
  8
_0-0_
  6
CONTINUOUS
 62
    7
 10
10.683087206185974
 20
15.345731293019071
 40
0.2999999999999999
 50
225
 51
270
  0
ARC
  8
_0-0_
  6
CONTINUOUS
 62
    7
 10
9.6588231374739735
 20
16.369995361730844
 40
0.2999999999999999
 50
180
 51
224.99999999999966
  0
ARC
  8
_0-0_
  6
CONTINUOUS
 62
    7
 10
9.6588231374739735
 20
11.121467224307253
 40
0.2999999999999999
 50
135.00000000000006
 51
180.00000000000006
  0
ARC
  8
_0-0_
  6
CONTINUOUS
 62
    7
 10
10.683087206185974
 20
12.145731293019026
 40
0.2999999999999999
 50
90
 51
135.00000000000034
  0
ARC
  8
_0-0_
  6
CONTINUOUS
 62
    7
 10
21.03455906876161
 20
12.145731293019026
 40
0.2999999999999999
 50
45
 51
90
  0
ARC
  8
_0-0_
  6
CONTINUOUS
 62
    7
 10
22.05882313747361
 20
11.121467224307253
 40
0.2999999999999999
 50
0
 51
44.999999999999645
  0
ARC
  8
_0-0_
  6
CONTINUOUS
 62
    7
 10
30.55882313747361
 20
9.845731293019071
 40
0.2999999999999999
 50
0
 51
90.000000000000028
  0
ARC
  8
_0-0_
  6
CONTINUOUS
 62
    7
 10
29.358823137473792
 20
9.845731293019071
 40
0.2999999999999999
 50
90.000000000000028
 51
180
  0
ARC
  8
_0-0_
  6
CONTINUOUS
 62
    7
 10
28.758823137473883
 20
8.0457312930188891
 40
0.2999999999999999
 50
270
 51
0
  0
ARC
  8
_0-0_
  6
CONTINUOUS
 62
    7
 10
25.983087206185701
 20
8.0457312930188891
 40
0.2999999999999999
 50
225
 51
270
  0
ARC
  8
_0-0_
  6
CONTINUOUS
 62
    7
 10
24.958823137473701
 20
9.0699953617308893
 40
0.2999999999999999
 50
180
 51
224.99999999999963
  0
ARC
  8
_0-0_
  6
CONTINUOUS
 62
    7
 10
24.958823137473701
 20
18.42146722430698
 40
0.2999999999999999
 50
135
 51
180
  0
ARC
  8
_0-0_
  6
CONTINUOUS
 62
    7
 10
25.983087206185701
 20
19.44573129301898
 40
0.2999999999999999
 50
89.999999999999986
 51
135.00000000000037
  0
ARC
  8
_0-0_
  6
CONTINUOUS
 62
    7
 10
28.758823137473883
 20
19.44573129301898
 40
0.2999999999999999
 50
0.0000000000000127
 51
90.000000000000014
  0
ARC
  8
_0-0_
  6
CONTINUOUS
 62
    7
 10
29.358823137473792
 20
17.645731293019026
 40
0.2999999999999999
 50
180
 51
270
  0
ARC
  8
_0-0_
  6
CONTINUOUS
 62
    7
 10
30.55882313747361
 20
17.645731293019026
 40
0.2999999999999999
 50
270
 51
0
  0
ARC
  8
_0-0_
  6
CONTINUOUS
 62
    7
 10
29.858823137473792
 20
20.245731293018935
 40
1
 50
0
 51
90
  0
ARC
  8
_0-0_
  6
CONTINUOUS
 62
    7
 10
29.858823137473792
 20
7.2457312930189346
 40
1
 50
270
 51
0
  0
LINE
  8
_0-1_
  6
CENTER1
 62
  152
 10
15.858823137473792
 20
21.245731293018935
 11
15.858823137473792
 21
6.2457312930189346
  0
LINE
  8
_0-1_
  6
CENTER1
 62
  152
 10
0.8588231374737915
 20
13.745731293018935
 11
30.858823137473792
 21
13.745731293018935
  0
ENDSEC
  0
EOF
