  0
SECTION
  2
HEADER
  9
$ACADVER
  1
AC1009
  9
$INSBASE
 10
0
 20
0
 30
0
  9
$EXTMIN
 10
0
 20
0
  9
$EXTMAX
 10
1189
 20
841
  9
$LIMMIN
 10
0
 20
0
  9
$LIMMAX
 10
1189
 20
841
  9
$LTSCALE
 40
1
  0
ENDSEC
  0
SECTION
  2
TABLES
  0
TABLE
  2
LTYPE
 70
     9
  0
LTYPE
  2
CONTINUOUS
 70
    64
  3
実線
 72
    65
 73
     0
 40
0.0
  0
LTYPE
  2
DASHED1
 70
    64
  3
--  --  --  --  --  --  --  --  
 72
    65
 73
     2
 40
2.5
 49
1.25
 49
-1.25
  0
LTYPE
  2
DASHED2
 70
    64
  3
----    ----    ----    ----    
 72
    65
 73
     2
 40
5.0
 49
2.5
 49
-2.5
  0
LTYPE
  2
DASHED3
 70
    64
  3
------  ------  ------  ------  
 72
    65
 73
     2
 40
5.0
 49
3.75
 49
-1.25
  0
LTYPE
  2
CENTER1
 70
    64
  3
----- - ----- - ----- - ----- - 
 72
    65
 73
     4
 40
10.0
 49
6.25
 49
-1.25
 49
1.25
 49
-1.25
  0
LTYPE
  2
CENTER2
 70
    64
  3
----------  --  ----------  --  
 72
    65
 73
     4
 40
20.0
 49
12.5
 49
-2.5
 49
2.5
 49
-2.5
  0
LTYPE
  2
PHANTOM1
 70
    64
  3
--- - - --- - - --- - - --- - - 
 72
    65
 73
     6
 40
10.0
 49
3.25
 49
-1.25
 49
1.25
 49
-1.25
 49
1.25
 49
-1.25
  0
LTYPE
  2
PHANTOM2
 70
    64
  3
--------  -  -  --------  -  -  
 72
    65
 73
     6
 40
20.0
 49
10.0
 49
-2.5
 49
1.25
 49
-2.5
 49
1.25
 49
-2.5
  0
LTYPE
  2
DOT
 70
    64
  3
-   -   -   -   -   -   -   -   
 72
    65
 73
     2
 40
2.5
 49
0.625
 49
-1.875
  0
LTYPE
  2
DUMMY
 70
    64
  3
ダミー
 72
    65
 73
     0
 40
0.0
  0
LTYPE
  2
RAND1
 70
    64
  3
ランダム線1
 72
    65
 73
     4
 40
10.0
 49
1.0
 49
-2.0
 49
3.0
 49
-4.0
  0
LTYPE
  2
RAND2
 70
    64
  3
ランダム線2
 72
    65
 73
     4
 40
14.0
 49
2.0
 49
-3.0
 49
4.0
 49
-5.0
  0
LTYPE
  2
RAND3
 70
    64
  3
ランダム線3
 72
    65
 73
     4
 40
18.0
 49
3.0
 49
-4.0
 49
5.0
 49
-6.0
  0
LTYPE
  2
RAND4
 70
    64
  3
ランダム線4
 72
    65
 73
     4
 40
22.0
 49
4.0
 49
-5.0
 49
6.0
 49
-7.0
  0
LTYPE
  2
RAND5
 70
    64
  3
ランダム線5
 72
    65
 73
     4
 40
26.0
 49
5.0
 49
-6.0
 49
7.0
 49
-8.0
  0
LTYPE
  2
LONG1
 70
    64
  3
----------  --  ----------  --  
 72
    65
 73
     4
 40
40.0
 49
32.5
 49
-2.5
 49
2.5
 49
-2.5
  0
LTYPE
  2
LONG2
 70
    64
  3
--------  -  -  --------  -  -  
 72
    65
 73
     6
 40
40.0
 49
30.0
 49
-2.5
 49
1.25
 49
-2.5
 49
1.25
 49
-2.5
  0
LTYPE
  2
LONG3
 70
    64
  3
+++++++++++++++..+++++++++++++++
 72
    65
 73
     2
 40
40.0
 49
37.5
 49
-2.5
  0
LTYPE
  2
LONG4
 70
    64
  3
+++++++++++++++..+++++++++++++++
 72
    65
 73
     2
 40
80.0
 49
75.0
 49
-5.0
  0
LTYPE
  2
LONG5
 70
    64
  3
----------  --  ----------  --  
 72
    65
 73
     4
 40
60.0
 49
37.5
 49
-7.5
 49
7.5
 49
-7.5
  0
LTYPE
  2
dashed
 70
   64
  3
-------   -------------   ------
 72
   65
 73
    2
 40
7.5
 49
6
 49
-1.5
  0
LTYPE
  2
dashed_spaced
 70
   64
  3
----        --------        ----
 72
   65
 73
    2
 40
12
 49
6
 49
-6
  0
LTYPE
  2
long_dashed_dotted
 70
   64
  3
------------- --- --------------
 72
   65
 73
    4
 40
15.25
 49
12
 49
-1.5
 49
0.25
 49
-1.5
  0
LTYPE
  2
long_dashed_double-dotted
 70
   64
  3
----------- --- --- ------------
 72
   65
 73
    6
 40
17
 49
12
 49
-1.5
 49
0.25
 49
-1.5
 49
0.25
 49
-1.5
  0
LTYPE
  2
long_dashed_triplicate-dotted
 70
   64
  3
--------- --- --- --- ----------
 72
   65
 73
    8
 40
18.75
 49
12
 49
-1.5
 49
0.25
 49
-1.5
 49
0.25
 49
-1.5
 49
0.25
 49
-1.5
  0
LTYPE
  2
dotted
 70
   64
  3
   -       -       -       -    
 72
   65
 73
    2
 40
1.75
 49
0.25
 49
-1.5
  0
LTYPE
  2
chain
 70
   64
  3
-------------- -- --------------
 72
   65
 73
    4
 40
18.5
 49
12
 49
-1.5
 49
3.5
 49
-1.5
  0
LTYPE
  2
chain_double_dash
 70
   64
  3
------------ -- -- -------------
 72
   65
 73
    6
 40
23.5
 49
12
 49
-1.5
 49
3.5
 49
-1.5
 49
3.5
 49
-1.5
  0
LTYPE
  2
dashed_dotted
 70
   64
  3
-----------     -     ----------
 72
   65
 73
    4
 40
9.25
 49
6
 49
-1.5
 49
0.25
 49
-1.5
  0
LTYPE
  2
double-dashed_dotted
 70
   64
  3
------   -----------   -   -----
 72
   65
 73
    6
 40
16.75
 49
6
 49
-1.5
 49
6
 49
-1.5
 49
0.25
 49
-1.5
  0
LTYPE
  2
dashed_double-dotted
 70
   64
  3
---------    -    -    ---------
 72
   65
 73
    6
 40
11
 49
6
 49
-1.5
 49
0.25
 49
-1.5
 49
0.25
 49
-1.5
  0
LTYPE
  2
double-dashed_double-dotted
 70
   64
  3
-----   ---------   -   -   ----
 72
   65
 73
    8
 40
18.5
 49
6
 49
-1.5
 49
6
 49
-1.5
 49
0.25
 49
-1.5
 49
0.25
 49
-1.5
  0
LTYPE
  2
dashed_triplicate-dotted
 70
   64
  3
-------    -    -    -    ------
 72
   65
 73
    8
 40
12.75
 49
6
 49
-1.5
 49
0.25
 49
-1.5
 49
0.25
 49
-1.5
 49
0.25
 49
-1.5
  0
LTYPE
  2
double-dashed_triplicate-dotted
 70
   64
  3
-----  ---------  -  -  -  -----
 72
   65
 73
   10
 40
20.25
 49
6
 49
-1.5
 49
6
 49
-1.5
 49
0.25
 49
-1.5
 49
0.25
 49
-1.5
 49
0.25
 49
-1.5
  0
LTYPE
  2
undefined
 70
   64
  3
--------------------------------
 72
   65
 73
    0
 40
0
  0
ENDTAB
  0
TABLE
  2
STYLE
  5
3
100
AcDbSymbolTable
 70
     1
  0
STYLE
  5
10
100
AcDbSymbolTableRecord
100
AcDbTextStyleTableRecord
  2
STANDARD
 70
     0
 40
0.0
 41
1.0
 50
0.0
 71
     0
 42
0.2
  3
txt
  4
bigfont.shx
  0
STYLE
  5
26
100
AcDbSymbolTableRecord
100
AcDbTextStyleTableRecord
  2
TATEGAKI
 70
    68
 40
0.0
 41
1.0
 50
0.0
 71
     0
 42
1.0
  3
txt
  4
bigfont.shx
  0
ENDTAB
  0
TABLE
  2
LAYER
 70
    4
  0
LAYER
  2
_0-0_
 70
   64
 62
    7
  6
CONTINUOUS
  0
LAYER
  2
_0-1_
 70
   64
 62
    7
  6
CONTINUOUS
  0
LAYER
  2
_0-f_
 70
   64
 62
    7
  6
CONTINUOUS
  0
LAYER
  2
ADD_LINE
 70
   64
 62
    7
  6
CONTINUOUS
  0
ENDTAB
  0
ENDSEC
  0
SECTION
  2
BLOCKS
  0
ENDSEC
  0
SECTION
  2
ENTITIES
  0
TEXT
  8
_0-f_
 62
    7
 10
0.9429091052941203
 20
0.9111444966786166
 40
4.2999999999999998
 41
0.744186046511628
 50
0
  1
F152
  0
LINE
  8
_0-0_
  6
CONTINUOUS
 62
    7
 10
25.63798320530509
 20
7.2547106638898526
 11
25.63798320530509
 21
9.8547106638899891
  0
LINE
  8
_0-0_
  6
CONTINUOUS
 62
    7
 10
25.337983205304909
 20
10.154710663889716
 11
24.13798320530509
 21
10.154710663889716
  0
LINE
  8
_0-0_
  6
CONTINUOUS
 62
    7
 10
23.837983205304909
 20
9.8547106638899891
 11
23.837983205304909
 21
8.0547106638898072
  0
LINE
  8
_0-0_
  6
CONTINUOUS
 62
    7
 10
23.537983205304727
 20
7.7547106638898526
 11
20.762247274017
 21
7.7547106638898526
  0
LINE
  8
_0-0_
  6
CONTINUOUS
 62
    7
 10
20.550115239660727
 20
7.842578629533989
 11
19.525851170949181
 21
8.8668426982459891
  0
LINE
  8
_0-0_
  6
CONTINUOUS
 62
    7
 10
19.437983205304818
 20
9.0789747326018073
 11
19.437983205304818
 21
18.430446595177898
  0
LINE
  8
_0-0_
  6
CONTINUOUS
 62
    7
 10
19.525851170949181
 20
18.642578629533944
 11
20.550115239660727
 21
19.666842698245716
  0
LINE
  8
_0-0_
  6
CONTINUOUS
 62
    7
 10
20.762247274017
 20
19.754710663889853
 11
23.537983205304727
 21
19.754710663889853
  0
LINE
  8
_0-0_
  6
CONTINUOUS
 62
    7
 10
23.837983205304909
 20
19.454710663889898
 11
23.837983205304909
 21
17.654710663889944
  0
LINE
  8
_0-0_
  6
CONTINUOUS
 62
    7
 10
24.13798320530509
 20
17.354710663889989
 11
25.337983205304909
 21
17.354710663889989
  0
LINE
  8
_0-0_
  6
CONTINUOUS
 62
    7
 10
25.63798320530509
 20
17.654710663889944
 11
25.63798320530509
 21
20.254710663889853
  0
LINE
  8
_0-0_
  6
CONTINUOUS
 62
    7
 10
24.63798320530509
 20
21.254710663889853
 11
18.962247274016818
 21
21.254710663889853
  0
LINE
  8
_0-0_
  6
CONTINUOUS
 62
    7
 10
18.750115239661
 20
21.166842698245716
 11
17.725851170948999
 21
20.142578629533944
  0
LINE
  8
_0-0_
  6
CONTINUOUS
 62
    7
 10
17.513719136593181
 20
20.054710663889807
 11
8.7622472740169997
 21
20.054710663889807
  0
LINE
  8
_0-0_
  6
CONTINUOUS
 62
    7
 10
8.5501152396607267
 20
20.142578629533944
 11
7.5258511709491813
 21
21.166842698245716
  0
LINE
  8
_0-0_
  6
CONTINUOUS
 62
    7
 10
7.3137191365929084
 20
21.254710663889853
 11
1.6379832053050905
 21
21.254710663889853
  0
LINE
  8
_0-0_
  6
CONTINUOUS
 62
    7
 10
0.6379832053050904
 20
20.254710663889853
 11
0.6379832053050904
 21
17.654710663889944
  0
LINE
  8
_0-0_
  6
CONTINUOUS
 62
    7
 10
0.9379832053048176
 20
17.354710663889989
 11
2.1379832053050905
 21
17.354710663889989
  0
LINE
  8
_0-0_
  6
CONTINUOUS
 62
    7
 10
2.4379832053048176
 20
17.654710663889944
 11
2.4379832053048176
 21
19.454710663889898
  0
LINE
  8
_0-0_
  6
CONTINUOUS
 62
    7
 10
2.7379832053049995
 20
19.754710663889853
 11
5.5137191365931812
 21
19.754710663889853
  0
LINE
  8
_0-0_
  6
CONTINUOUS
 62
    7
 10
5.7258511709489994
 20
19.666842698245716
 11
6.7501152396609996
 21
18.642578629533944
  0
LINE
  8
_0-0_
  6
CONTINUOUS
 62
    7
 10
6.8379832053049086
 20
18.430446595177898
 11
6.8379832053049086
 21
9.0789747326018073
  0
LINE
  8
_0-0_
  6
CONTINUOUS
 62
    7
 10
6.7501152396609996
 20
8.8668426982459891
 11
5.7258511709489994
 21
7.842578629533989
  0
LINE
  8
_0-0_
  6
CONTINUOUS
 62
    7
 10
5.5137191365931812
 20
7.7547106638898526
 11
2.7379832053049995
 21
7.7547106638898526
  0
LINE
  8
_0-0_
  6
CONTINUOUS
 62
    7
 10
2.4379832053048176
 20
8.0547106638898072
 11
2.4379832053048176
 21
9.8547106638899891
  0
LINE
  8
_0-0_
  6
CONTINUOUS
 62
    7
 10
2.1379832053050905
 20
10.154710663889716
 11
0.9379832053048176
 21
10.154710663889716
  0
LINE
  8
_0-0_
  6
CONTINUOUS
 62
    7
 10
0.6379832053050904
 20
9.8547106638899891
 11
0.6379832053050904
 21
7.2547106638898526
  0
LINE
  8
_0-0_
  6
CONTINUOUS
 62
    7
 10
1.6379832053050905
 20
6.2547106638898526
 11
7.3137191365929084
 21
6.2547106638898526
  0
LINE
  8
_0-0_
  6
CONTINUOUS
 62
    7
 10
7.5258511709491813
 20
6.342578629533989
 11
8.5501152396607267
 21
7.3668426982459891
  0
LINE
  8
_0-0_
  6
CONTINUOUS
 62
    7
 10
8.7622472740169997
 20
7.4547106638898981
 11
17.513719136593181
 21
7.4547106638898981
  0
LINE
  8
_0-0_
  6
CONTINUOUS
 62
    7
 10
17.725851170948999
 20
7.3668426982459891
 11
18.750115239661
 21
6.342578629533989
  0
LINE
  8
_0-0_
  6
CONTINUOUS
 62
    7
 10
18.962247274016818
 20
6.2547106638898526
 11
24.63798320530509
 21
6.2547106638898526
  0
LINE
  8
_0-0_
  6
CONTINUOUS
 62
    7
 10
18.037983205305181
 20
9.25471066389008
 11
18.037983205305181
 21
18.254710663889853
  0
LINE
  8
_0-0_
  6
CONTINUOUS
 62
    7
 10
17.737983205305
 20
18.554710663889807
 11
16.270105090345396
 21
18.554710663889807
  0
LINE
  8
_0-0_
  6
CONTINUOUS
 62
    7
 10
15.980327342458395
 20
18.332356377420808
 11
15.697562856798186
 21
17.277064950359261
  0
LINE
  8
_0-0_
  6
CONTINUOUS
 62
    7
 10
15.407785108911185
 20
17.054710663889807
 11
14.576732662299037
 21
17.054710663889807
  0
LINE
  8
_0-0_
  6
CONTINUOUS
 62
    7
 10
11.699233748311144
 20
17.054710663889807
 11
10.868181301698542
 21
17.054710663889807
  0
LINE
  8
_0-0_
  6
CONTINUOUS
 62
    7
 10
10.578403553811995
 20
17.277064950359261
 11
10.295639068151331
 21
18.332356377420808
  0
LINE
  8
_0-0_
  6
CONTINUOUS
 62
    7
 10
10.005861320264785
 20
18.554710663889807
 11
8.5379832053047267
 21
18.554710663889807
  0
LINE
  8
_0-0_
  6
CONTINUOUS
 62
    7
 10
8.2379832053049995
 20
18.254710663889853
 11
8.2379832053049995
 21
9.25471066389008
  0
LINE
  8
_0-0_
  6
CONTINUOUS
 62
    7
 10
8.5379832053047267
 20
8.9547106638898981
 11
10.005861320264785
 21
8.9547106638898981
  0
LINE
  8
_0-0_
  6
CONTINUOUS
 62
    7
 10
10.295639068151331
 20
9.1770649503591244
 11
10.578403553811995
 21
10.232356377420672
  0
LINE
  8
_0-0_
  6
CONTINUOUS
 62
    7
 10
10.868181301698542
 20
10.454710663889898
 11
11.699233748311599
 21
10.454710663889898
  0
LINE
  8
_0-0_
  6
CONTINUOUS
 62
    7
 10
14.576732662298582
 20
10.454710663889898
 11
15.407785108911185
 21
10.454710663889898
  0
LINE
  8
_0-0_
  6
CONTINUOUS
 62
    7
 10
15.697562856798186
 20
10.232356377420672
 11
15.980327342458395
 21
9.1770649503591244
  0
LINE
  8
_0-0_
  6
CONTINUOUS
 62
    7
 10
16.270105090345396
 20
8.9547106638898981
 11
17.737983205305
 21
8.9547106638898981
  0
ARC
  8
_0-0_
  6
CONTINUOUS
 62
    7
 10
1.6379832053050905
 20
7.2547106638898526
 40
1
 50
180
 51
270
  0
ARC
  8
_0-0_
  6
CONTINUOUS
 62
    7
 10
1.6379832053050905
 20
20.254710663889853
 40
1
 50
90
 51
180
  0
ARC
  8
_0-0_
  6
CONTINUOUS
 62
    7
 10
24.63798320530509
 20
7.2547106638898526
 40
1
 50
270
 51
0
  0
ARC
  8
_0-0_
  6
CONTINUOUS
 62
    7
 10
24.63798320530509
 20
20.254710663889853
 40
1
 50
0
 51
90
  0
ARC
  8
_0-0_
  6
CONTINUOUS
 62
    7
 10
0.9379832053048176
 20
9.8547106638899891
 40
0.2999999999999999
 50
90
 51
180
  0
ARC
  8
_0-0_
  6
CONTINUOUS
 62
    7
 10
2.1379832053050905
 20
9.8547106638899891
 40
0.2999999999999999
 50
0
 51
90
  0
ARC
  8
_0-0_
  6
CONTINUOUS
 62
    7
 10
2.7379832053049995
 20
8.0547106638898072
 40
0.2999999999999999
 50
180
 51
270
  0
ARC
  8
_0-0_
  6
CONTINUOUS
 62
    7
 10
5.5137191365931812
 20
8.0547106638898072
 40
0.2999999999999999
 50
270
 51
315
  0
ARC
  8
_0-0_
  6
CONTINUOUS
 62
    7
 10
6.5379832053047267
 20
9.0789747326018073
 40
0.2999999999999999
 50
315.0000000000004
 51
0.0000000000000063
  0
ARC
  8
_0-0_
  6
CONTINUOUS
 62
    7
 10
5.5137191365931812
 20
19.454710663889898
 40
0.2999999999999999
 50
44.999999999999645
 51
90.000000000000028
  0
ARC
  8
_0-0_
  6
CONTINUOUS
 62
    7
 10
2.7379832053049995
 20
19.454710663889898
 40
0.2999999999999999
 50
90
 51
180
  0
ARC
  8
_0-0_
  6
CONTINUOUS
 62
    7
 10
2.1379832053050905
 20
17.654710663889944
 40
0.2999999999999999
 50
270
 51
0
  0
ARC
  8
_0-0_
  6
CONTINUOUS
 62
    7
 10
0.9379832053048176
 20
17.654710663889944
 40
0.2999999999999999
 50
180
 51
270
  0
ARC
  8
_0-0_
  6
CONTINUOUS
 62
    7
 10
7.3137191365929084
 20
20.954710663889898
 40
0.2999999999999999
 50
45
 51
90
  0
ARC
  8
_0-0_
  6
CONTINUOUS
 62
    7
 10
8.7622472740169997
 20
20.354710663889989
 40
0.2999999999999999
 50
224.99999999999963
 51
270
  0
ARC
  8
_0-0_
  6
CONTINUOUS
 62
    7
 10
17.513719136593181
 20
20.354710663889989
 40
0.2999999999999999
 50
270
 51
315
  0
ARC
  8
_0-0_
  6
CONTINUOUS
 62
    7
 10
18.962247274016818
 20
20.954710663889898
 40
0.2999999999999999
 50
90
 51
135.00000000000037
  0
ARC
  8
_0-0_
  6
CONTINUOUS
 62
    7
 10
25.337983205304909
 20
17.654710663889944
 40
0.2999999999999999
 50
270
 51
0
  0
ARC
  8
_0-0_
  6
CONTINUOUS
 62
    7
 10
24.13798320530509
 20
17.654710663889944
 40
0.2999999999999999
 50
180
 51
270
  0
ARC
  8
_0-0_
  6
CONTINUOUS
 62
    7
 10
23.537983205304727
 20
19.454710663889898
 40
0.2999999999999999
 50
0
 51
90
  0
ARC
  8
_0-0_
  6
CONTINUOUS
 62
    7
 10
20.762247274017
 20
19.454710663889898
 40
0.2999999999999999
 50
90
 51
135
  0
ARC
  8
_0-0_
  6
CONTINUOUS
 62
    7
 10
19.737983205305
 20
18.430446595177898
 40
0.2999999999999999
 50
135.00000000000037
 51
180
  0
ARC
  8
_0-0_
  6
CONTINUOUS
 62
    7
 10
20.762247274017
 20
8.0547106638898072
 40
0.2999999999999999
 50
224.99999999999963
 51
270
  0
ARC
  8
_0-0_
  6
CONTINUOUS
 62
    7
 10
24.13798320530509
 20
9.8547106638899891
 40
0.2999999999999999
 50
90
 51
180
  0
ARC
  8
_0-0_
  6
CONTINUOUS
 62
    7
 10
25.337983205304909
 20
9.8547106638899891
 40
0.2999999999999999
 50
0
 51
90
  0
ARC
  8
_0-0_
  6
CONTINUOUS
 62
    7
 10
23.537983205304727
 20
8.0547106638898072
 40
0.2999999999999999
 50
270
 51
0
  0
ARC
  8
_0-0_
  6
CONTINUOUS
 62
    7
 10
18.962247274016818
 20
6.5547106638898072
 40
0.2999999999999999
 50
225
 51
270
  0
ARC
  8
_0-0_
  6
CONTINUOUS
 62
    7
 10
17.513719136593181
 20
7.1547106638897162
 40
0.2999999999999999
 50
44.999999999999645
 51
90.000000000000028
  0
ARC
  8
_0-0_
  6
CONTINUOUS
 62
    7
 10
8.7622472740169997
 20
7.1547106638897162
 40
0.2999999999999999
 50
90
 51
135
  0
ARC
  8
_0-0_
  6
CONTINUOUS
 62
    7
 10
7.3137191365929084
 20
6.5547106638898072
 40
0.2999999999999999
 50
270
 51
315.00000000000034
  0
ARC
  8
_0-0_
  6
CONTINUOUS
 62
    7
 10
17.737983205305
 20
9.25471066389008
 40
0.2999999999999999
 50
270
 51
0
  0
ARC
  8
_0-0_
  6
CONTINUOUS
 62
    7
 10
16.270105090345396
 20
9.25471066389008
 40
0.2999999999999999
 50
194.99999999999997
 51
270
  0
ARC
  8
_0-0_
  6
CONTINUOUS
 62
    7
 10
15.407785108911185
 20
10.154710663889944
 40
0.2999999999999999
 50
14.999999999999728
 51
90.000000000000014
  0
ARC
  8
_0-0_
  6
CONTINUOUS
 62
    7
 10
10.868181301698542
 20
10.154710663889944
 40
0.2999999999999999
 50
90
 51
165.00000000000003
  0
ARC
  8
_0-0_
  6
CONTINUOUS
 62
    7
 10
10.005861320264785
 20
9.25471066389008
 40
0.2999999999999999
 50
270
 51
345.00000000000028
  0
ARC
  8
_0-0_
  6
CONTINUOUS
 62
    7
 10
8.5379832053047267
 20
9.25471066389008
 40
0.2999999999999999
 50
180
 51
270
  0
ARC
  8
_0-0_
  6
CONTINUOUS
 62
    7
 10
8.5379832053047267
 20
18.254710663889853
 40
0.2999999999999999
 50
90
 51
180
  0
ARC
  8
_0-0_
  6
CONTINUOUS
 62
    7
 10
10.005861320264785
 20
18.254710663889853
 40
0.2999999999999999
 50
14.999999999999982
 51
89.999999999999986
  0
ARC
  8
_0-0_
  6
CONTINUOUS
 62
    7
 10
10.868181301698542
 20
17.354710663889989
 40
0.2999999999999999
 50
194.99999999999977
 51
270.00000000000006
  0
ARC
  8
_0-0_
  6
CONTINUOUS
 62
    7
 10
15.407785108911185
 20
17.354710663889989
 40
0.2999999999999999
 50
270
 51
345
  0
ARC
  8
_0-0_
  6
CONTINUOUS
 62
    7
 10
16.270105090345396
 20
18.254710663889853
 40
0.2999999999999999
 50
90
 51
165.00000000000028
  0
ARC
  8
_0-0_
  6
CONTINUOUS
 62
    7
 10
17.737983205305
 20
18.254710663889853
 40
0.2999999999999999
 50
0
 51
90
  0
ARC
  8
_0-0_
  6
CONTINUOUS
 62
    7
 10
6.5379832053047267
 20
18.430446595177898
 40
0.2999999999999999
 50
0
 51
45
  0
ARC
  8
_0-0_
  6
CONTINUOUS
 62
    7
 10
19.737983205305
 20
9.0789747326018073
 40
0.2999999999999999
 50
180
 51
225
  0
ARC
  8
_0-0_
  6
CONTINUOUS
 62
    7
 10
13.13798320530509
 20
13.754710663889853
 40
3.6000000000000001
 50
246.44353569090609
 51
293.55646430909383
  0
ARC
  8
_0-0_
  6
CONTINUOUS
 62
    7
 10
13.13798320530509
 20
13.754710663889853
 40
3.6000000000000001
 50
66.443535690896994
 51
113.55646430910299
  0
LINE
  8
_0-1_
  6
CENTER1
 62
  152
 10
0.6379832053050904
 20
13.754710663889853
 11
25.63798320530509
 21
13.754710663889853
  0
LINE
  8
_0-1_
  6
CENTER1
 62
  152
 10
13.13798320530509
 20
6.2547106638898526
 11
13.13798320530509
 21
21.254710663889853
  0
ENDSEC
  0
EOF
