  0
SECTION
  2
HEADER
  9
$ACADVER
  1
AC1009
  9
$INSBASE
 10
0
 20
0
 30
0
  9
$EXTMIN
 10
0
 20
0
  9
$EXTMAX
 10
1189
 20
841
  9
$LIMMIN
 10
0
 20
0
  9
$LIMMAX
 10
1189
 20
841
  9
$LTSCALE
 40
1
  0
ENDSEC
  0
SECTION
  2
TABLES
  0
TABLE
  2
LTYPE
 70
     9
  0
LTYPE
  2
CONTINUOUS
 70
    64
  3
実線
 72
    65
 73
     0
 40
0.0
  0
LTYPE
  2
DASHED1
 70
    64
  3
--  --  --  --  --  --  --  --  
 72
    65
 73
     2
 40
2.5
 49
1.25
 49
-1.25
  0
LTYPE
  2
DASHED2
 70
    64
  3
----    ----    ----    ----    
 72
    65
 73
     2
 40
5.0
 49
2.5
 49
-2.5
  0
LTYPE
  2
DASHED3
 70
    64
  3
------  ------  ------  ------  
 72
    65
 73
     2
 40
5.0
 49
3.75
 49
-1.25
  0
LTYPE
  2
CENTER1
 70
    64
  3
----- - ----- - ----- - ----- - 
 72
    65
 73
     4
 40
10.0
 49
6.25
 49
-1.25
 49
1.25
 49
-1.25
  0
LTYPE
  2
CENTER2
 70
    64
  3
----------  --  ----------  --  
 72
    65
 73
     4
 40
20.0
 49
12.5
 49
-2.5
 49
2.5
 49
-2.5
  0
LTYPE
  2
PHANTOM1
 70
    64
  3
--- - - --- - - --- - - --- - - 
 72
    65
 73
     6
 40
10.0
 49
3.25
 49
-1.25
 49
1.25
 49
-1.25
 49
1.25
 49
-1.25
  0
LTYPE
  2
PHANTOM2
 70
    64
  3
--------  -  -  --------  -  -  
 72
    65
 73
     6
 40
20.0
 49
10.0
 49
-2.5
 49
1.25
 49
-2.5
 49
1.25
 49
-2.5
  0
LTYPE
  2
DOT
 70
    64
  3
-   -   -   -   -   -   -   -   
 72
    65
 73
     2
 40
2.5
 49
0.625
 49
-1.875
  0
LTYPE
  2
DUMMY
 70
    64
  3
ダミー
 72
    65
 73
     0
 40
0.0
  0
LTYPE
  2
RAND1
 70
    64
  3
ランダム線1
 72
    65
 73
     4
 40
10.0
 49
1.0
 49
-2.0
 49
3.0
 49
-4.0
  0
LTYPE
  2
RAND2
 70
    64
  3
ランダム線2
 72
    65
 73
     4
 40
14.0
 49
2.0
 49
-3.0
 49
4.0
 49
-5.0
  0
LTYPE
  2
RAND3
 70
    64
  3
ランダム線3
 72
    65
 73
     4
 40
18.0
 49
3.0
 49
-4.0
 49
5.0
 49
-6.0
  0
LTYPE
  2
RAND4
 70
    64
  3
ランダム線4
 72
    65
 73
     4
 40
22.0
 49
4.0
 49
-5.0
 49
6.0
 49
-7.0
  0
LTYPE
  2
RAND5
 70
    64
  3
ランダム線5
 72
    65
 73
     4
 40
26.0
 49
5.0
 49
-6.0
 49
7.0
 49
-8.0
  0
LTYPE
  2
LONG1
 70
    64
  3
----------  --  ----------  --  
 72
    65
 73
     4
 40
40.0
 49
32.5
 49
-2.5
 49
2.5
 49
-2.5
  0
LTYPE
  2
LONG2
 70
    64
  3
--------  -  -  --------  -  -  
 72
    65
 73
     6
 40
40.0
 49
30.0
 49
-2.5
 49
1.25
 49
-2.5
 49
1.25
 49
-2.5
  0
LTYPE
  2
LONG3
 70
    64
  3
+++++++++++++++..+++++++++++++++
 72
    65
 73
     2
 40
40.0
 49
37.5
 49
-2.5
  0
LTYPE
  2
LONG4
 70
    64
  3
+++++++++++++++..+++++++++++++++
 72
    65
 73
     2
 40
80.0
 49
75.0
 49
-5.0
  0
LTYPE
  2
LONG5
 70
    64
  3
----------  --  ----------  --  
 72
    65
 73
     4
 40
60.0
 49
37.5
 49
-7.5
 49
7.5
 49
-7.5
  0
LTYPE
  2
dashed
 70
   64
  3
-------   -------------   ------
 72
   65
 73
    2
 40
7.5
 49
6
 49
-1.5
  0
LTYPE
  2
dashed_spaced
 70
   64
  3
----        --------        ----
 72
   65
 73
    2
 40
12
 49
6
 49
-6
  0
LTYPE
  2
long_dashed_dotted
 70
   64
  3
------------- --- --------------
 72
   65
 73
    4
 40
15.25
 49
12
 49
-1.5
 49
0.25
 49
-1.5
  0
LTYPE
  2
long_dashed_double-dotted
 70
   64
  3
----------- --- --- ------------
 72
   65
 73
    6
 40
17
 49
12
 49
-1.5
 49
0.25
 49
-1.5
 49
0.25
 49
-1.5
  0
LTYPE
  2
long_dashed_triplicate-dotted
 70
   64
  3
--------- --- --- --- ----------
 72
   65
 73
    8
 40
18.75
 49
12
 49
-1.5
 49
0.25
 49
-1.5
 49
0.25
 49
-1.5
 49
0.25
 49
-1.5
  0
LTYPE
  2
dotted
 70
   64
  3
   -       -       -       -    
 72
   65
 73
    2
 40
1.75
 49
0.25
 49
-1.5
  0
LTYPE
  2
chain
 70
   64
  3
-------------- -- --------------
 72
   65
 73
    4
 40
18.5
 49
12
 49
-1.5
 49
3.5
 49
-1.5
  0
LTYPE
  2
chain_double_dash
 70
   64
  3
------------ -- -- -------------
 72
   65
 73
    6
 40
23.5
 49
12
 49
-1.5
 49
3.5
 49
-1.5
 49
3.5
 49
-1.5
  0
LTYPE
  2
dashed_dotted
 70
   64
  3
-----------     -     ----------
 72
   65
 73
    4
 40
9.25
 49
6
 49
-1.5
 49
0.25
 49
-1.5
  0
LTYPE
  2
double-dashed_dotted
 70
   64
  3
------   -----------   -   -----
 72
   65
 73
    6
 40
16.75
 49
6
 49
-1.5
 49
6
 49
-1.5
 49
0.25
 49
-1.5
  0
LTYPE
  2
dashed_double-dotted
 70
   64
  3
---------    -    -    ---------
 72
   65
 73
    6
 40
11
 49
6
 49
-1.5
 49
0.25
 49
-1.5
 49
0.25
 49
-1.5
  0
LTYPE
  2
double-dashed_double-dotted
 70
   64
  3
-----   ---------   -   -   ----
 72
   65
 73
    8
 40
18.5
 49
6
 49
-1.5
 49
6
 49
-1.5
 49
0.25
 49
-1.5
 49
0.25
 49
-1.5
  0
LTYPE
  2
dashed_triplicate-dotted
 70
   64
  3
-------    -    -    -    ------
 72
   65
 73
    8
 40
12.75
 49
6
 49
-1.5
 49
0.25
 49
-1.5
 49
0.25
 49
-1.5
 49
0.25
 49
-1.5
  0
LTYPE
  2
double-dashed_triplicate-dotted
 70
   64
  3
-----  ---------  -  -  -  -----
 72
   65
 73
   10
 40
20.25
 49
6
 49
-1.5
 49
6
 49
-1.5
 49
0.25
 49
-1.5
 49
0.25
 49
-1.5
 49
0.25
 49
-1.5
  0
LTYPE
  2
undefined
 70
   64
  3
--------------------------------
 72
   65
 73
    0
 40
0
  0
ENDTAB
  0
TABLE
  2
STYLE
  5
3
100
AcDbSymbolTable
 70
     1
  0
STYLE
  5
10
100
AcDbSymbolTableRecord
100
AcDbTextStyleTableRecord
  2
STANDARD
 70
     0
 40
0.0
 41
1.0
 50
0.0
 71
     0
 42
0.2
  3
txt
  4
bigfont.shx
  0
STYLE
  5
26
100
AcDbSymbolTableRecord
100
AcDbTextStyleTableRecord
  2
TATEGAKI
 70
    68
 40
0.0
 41
1.0
 50
0.0
 71
     0
 42
1.0
  3
txt
  4
bigfont.shx
  0
ENDTAB
  0
TABLE
  2
LAYER
 70
    4
  0
LAYER
  2
_0-0_
 70
   64
 62
    7
  6
CONTINUOUS
  0
LAYER
  2
_0-1_
 70
   64
 62
    7
  6
CONTINUOUS
  0
LAYER
  2
_0-f_
 70
   64
 62
    7
  6
CONTINUOUS
  0
LAYER
  2
ADD_LINE
 70
   64
 62
    7
  6
CONTINUOUS
  0
ENDTAB
  0
ENDSEC
  0
SECTION
  2
BLOCKS
  0
ENDSEC
  0
SECTION
  2
ENTITIES
  0
LINE
  8
_0-1_
  6
CENTER1
 62
  152
 10
42.226481675320201
 20
23.068444008975803
 11
2.2264816753202012
 21
23.068444008975803
  0
LINE
  8
_0-0_
  6
CONTINUOUS
 62
    7
 10
16.126481675320179
 20
18.568444008975803
 11
16.126481675320179
 21
27.568444008975803
  0
LINE
  8
_0-0_
  6
CONTINUOUS
 62
    7
 10
16.426481675319906
 20
27.868444008975985
 11
19.094359790279896
 21
27.868444008975985
  0
LINE
  8
_0-0_
  6
CONTINUOUS
 62
    7
 10
19.384137538166897
 20
27.646089722506531
 11
19.666902023827561
 21
26.590798295444984
  0
LINE
  8
_0-0_
  6
CONTINUOUS
 62
    7
 10
19.956679771714107
 20
26.368444008975985
 11
24.496283578926295
 21
26.368444008975985
  0
LINE
  8
_0-0_
  6
CONTINUOUS
 62
    7
 10
24.786061326812842
 20
26.590798295444984
 11
25.068825812473506
 21
27.646089722506531
  0
LINE
  8
_0-0_
  6
CONTINUOUS
 62
    7
 10
25.358603560360507
 20
27.868444008975985
 11
28.026481675320497
 21
27.868444008975985
  0
LINE
  8
_0-0_
  6
CONTINUOUS
 62
    7
 10
28.326481675320224
 20
27.568444008975803
 11
28.326481675320224
 21
18.568444008975746
  0
LINE
  8
_0-0_
  6
CONTINUOUS
 62
    7
 10
28.026481675320497
 20
18.268444008975564
 11
25.358603560360507
 21
18.268444008975564
  0
LINE
  8
_0-0_
  6
CONTINUOUS
 62
    7
 10
25.068825812473506
 20
18.490798295445018
 11
24.786061326812842
 21
19.546089722506565
  0
LINE
  8
_0-0_
  6
CONTINUOUS
 62
    7
 10
24.496283578926295
 20
19.768444008975564
 11
19.956679771714107
 21
19.768444008975621
  0
LINE
  8
_0-0_
  6
CONTINUOUS
 62
    7
 10
19.666902023827561
 20
19.546089722506622
 11
19.384137538166897
 21
18.490798295445074
  0
LINE
  8
_0-0_
  6
CONTINUOUS
 62
    7
 10
19.094359790279896
 20
18.268444008975621
 11
16.426481675319906
 21
18.268444008975621
  0
LINE
  8
_0-0_
  6
CONTINUOUS
 62
    7
 10
17.338613709676338
 20
16.680576043331712
 11
16.314349640964338
 21
15.656311974619712
  0
LINE
  8
_0-0_
  6
CONTINUOUS
 62
    7
 10
16.226481675320201
 20
15.444179940263894
 11
16.226481675320201
 21
12.668444008975712
  0
LINE
  8
_0-0_
  6
CONTINUOUS
 62
    7
 10
16.526481675320156
 20
12.36844400897553
 11
18.326481675320338
 21
12.36844400897553
  0
LINE
  8
_0-0_
  6
CONTINUOUS
 62
    7
 10
18.626481675320292
 20
12.068444008975803
 11
18.626481675320292
 21
10.868444008975985
  0
LINE
  8
_0-0_
  6
CONTINUOUS
 62
    7
 10
18.32648167532011
 20
10.568444008975803
 11
15.726481675320201
 21
10.568444008975803
  0
LINE
  8
_0-0_
  6
CONTINUOUS
 62
    7
 10
14.726481675320201
 20
11.568444008975803
 11
14.726481675320201
 21
29.568444008975803
  0
LINE
  8
_0-0_
  6
CONTINUOUS
 62
    7
 10
15.726481675320201
 20
30.568444008975803
 11
17.830071513806615
 21
30.568444008975803
  0
LINE
  8
_0-0_
  6
CONTINUOUS
 62
    7
 10
17.980071513806706
 20
30.528251630111072
 11
18.776481675320383
 21
30.068444008975803
  0
LINE
  8
_0-0_
  6
CONTINUOUS
 62
    7
 10
18.856866433049845
 20
30.068444008975803
 11
25.596096917590557
 21
30.068444008975803
  0
LINE
  8
_0-0_
  6
CONTINUOUS
 62
    7
 10
25.676481675320019
 20
30.068444008975803
 11
26.472891836833696
 21
30.528251630111072
  0
LINE
  8
_0-0_
  6
CONTINUOUS
 62
    7
 10
26.542507079104439
 20
30.568444008975803
 11
28.726481675320201
 21
30.568444008975803
  0
LINE
  8
_0-0_
  6
CONTINUOUS
 62
    7
 10
29.726481675320201
 20
29.568444008975803
 11
29.726481675320201
 21
11.568444008975803
  0
LINE
  8
_0-0_
  6
CONTINUOUS
 62
    7
 10
28.726481675320201
 20
10.568444008975803
 11
26.126481675320292
 21
10.568444008975803
  0
LINE
  8
_0-0_
  6
CONTINUOUS
 62
    7
 10
25.82648167532011
 20
10.868444008975985
 11
25.82648167532011
 21
12.068444008975803
  0
LINE
  8
_0-0_
  6
CONTINUOUS
 62
    7
 10
26.126481675320065
 20
12.36844400897553
 11
27.926481675320247
 21
12.36844400897553
  0
LINE
  8
_0-0_
  6
CONTINUOUS
 62
    7
 10
28.226481675320201
 20
12.668444008975712
 11
28.226481675320201
 21
15.444179940263894
  0
LINE
  8
_0-0_
  6
CONTINUOUS
 62
    7
 10
28.138613709676065
 20
15.656311974619712
 11
27.114349640964065
 21
16.680576043331712
  0
LINE
  8
_0-0_
  6
CONTINUOUS
 62
    7
 10
26.902217606608019
 20
16.768444008975621
 11
17.550745744032383
 21
16.768444008975621
  0
LINE
  8
_0-1_
  6
CENTER1
 62
  152
 10
22.226481675320201
 20
3.0684440089757459
 11
22.226481675320201
 21
43.068444008975803
  0
ARC
  8
_0-0_
  6
CONTINUOUS
 62
    7
 10
25.358603560360507
 20
18.568444008975746
 40
0.2999999999999998
 50
194.99999999999997
 51
270
  0
ARC
  8
_0-0_
  6
CONTINUOUS
 62
    7
 10
24.496283578926295
 20
19.468444008975837
 40
0.2999999999999998
 50
15.000000000000187
 51
90.000000000000057
  0
ARC
  8
_0-0_
  6
CONTINUOUS
 62
    7
 10
25.358603560360507
 20
27.568444008975803
 40
0.2999999999999998
 50
89.999999999999986
 51
165.00000000000003
  0
ARC
  8
_0-0_
  6
CONTINUOUS
 62
    7
 10
24.496283578926295
 20
26.668444008975712
 40
0.2999999999999998
 50
269.99999999999994
 51
344.99999999999983
  0
ARC
  8
_0-0_
  6
CONTINUOUS
 62
    7
 10
26.126481675320292
 20
10.868444008975985
 40
0.2999999999999998
 50
180
 51
270
  0
ARC
  8
_0-0_
  6
CONTINUOUS
 62
    7
 10
26.126481675320065
 20
12.068444008975803
 40
0.2999999999999998
 50
90
 51
180
  0
ARC
  8
_0-0_
  6
CONTINUOUS
 62
    7
 10
27.926481675320247
 20
12.668444008975712
 40
0.2999999999999998
 50
270
 51
0
  0
ARC
  8
_0-0_
  6
CONTINUOUS
 62
    7
 10
27.926481675320247
 20
15.444179940263894
 40
0.2999999999999998
 50
0
 51
45
  0
ARC
  8
_0-0_
  6
CONTINUOUS
 62
    7
 10
26.902217606608247
 20
16.468444008975439
 40
0.2999999999999998
 50
45.000000000000384
 51
90.000000000000014
  0
ARC
  8
_0-0_
  6
CONTINUOUS
 62
    7
 10
28.726481675320201
 20
11.568444008975803
 40
1
 50
270
 51
0.0000000000000254
  0
ARC
  8
_0-0_
  6
CONTINUOUS
 62
    7
 10
28.726481675320201
 20
29.568444008975803
 40
1
 50
0
 51
90
  0
ARC
  8
_0-0_
  6
CONTINUOUS
 62
    7
 10
26.622891836833787
 20
30.268444008975791
 40
0.3
 50
90
 51
120.00000000000011
  0
ARC
  8
_0-0_
  6
CONTINUOUS
 62
    7
 10
25.596096917590557
 20
30.368444008975757
 40
0.3
 50
270
 51
299.99999999999989
  0
ARC
  8
_0-0_
  6
CONTINUOUS
 62
    7
 10
19.094359790279896
 20
18.568444008975803
 40
0.2999999999999998
 50
269.99999999999994
 51
345
  0
ARC
  8
_0-0_
  6
CONTINUOUS
 62
    7
 10
19.956679771714107
 20
19.468444008975894
 40
0.2999999999999998
 50
89.999999999999929
 51
164.9999999999998
  0
ARC
  8
_0-0_
  6
CONTINUOUS
 62
    7
 10
19.094359790279896
 20
27.568444008975803
 40
0.2999999999999998
 50
14.999999999999957
 51
90.000000000000014
  0
ARC
  8
_0-0_
  6
CONTINUOUS
 62
    7
 10
19.956679771714107
 20
26.668444008975712
 40
0.2999999999999998
 50
195.0000000000002
 51
270.00000000000006
  0
ARC
  8
_0-0_
  6
CONTINUOUS
 62
    7
 10
18.32648167532011
 20
10.868444008975985
 40
0.2999999999999998
 50
270
 51
0
  0
ARC
  8
_0-0_
  6
CONTINUOUS
 62
    7
 10
18.326481675320338
 20
12.068444008975803
 40
0.2999999999999998
 50
0
 51
90
  0
ARC
  8
_0-0_
  6
CONTINUOUS
 62
    7
 10
16.526481675320156
 20
12.668444008975712
 40
0.2999999999999998
 50
180
 51
270
  0
ARC
  8
_0-0_
  6
CONTINUOUS
 62
    7
 10
16.526481675320156
 20
15.444179940263894
 40
0.2999999999999998
 50
135
 51
180
  0
ARC
  8
_0-0_
  6
CONTINUOUS
 62
    7
 10
17.550745744032156
 20
16.468444008975439
 40
0.2999999999999998
 50
89.999999999999986
 51
134.99999999999963
  0
ARC
  8
_0-0_
  6
CONTINUOUS
 62
    7
 10
15.726481675320201
 20
11.568444008975803
 40
1
 50
179.99999999999997
 51
270
  0
ARC
  8
_0-0_
  6
CONTINUOUS
 62
    7
 10
15.726481675320201
 20
29.568444008975803
 40
1
 50
90
 51
180
  0
ARC
  8
_0-0_
  6
CONTINUOUS
 62
    7
 10
17.830071513806615
 20
30.268444008975791
 40
0.3
 50
59.999999999999879
 51
90
  0
ARC
  8
_0-0_
  6
CONTINUOUS
 62
    7
 10
18.856866433049845
 20
30.368444008975757
 40
0.3
 50
240.00000000000014
 51
270
  0
ARC
  8
_0-0_
  6
CONTINUOUS
 62
    7
 10
16.426481675319906
 20
18.568444008975803
 40
0.2999999999999998
 50
180
 51
270
  0
ARC
  8
_0-0_
  6
CONTINUOUS
 62
    7
 10
16.426481675319906
 20
27.568444008975803
 40
0.2999999999999998
 50
90
 51
180
  0
ARC
  8
_0-0_
  6
CONTINUOUS
 62
    7
 10
28.026481675320497
 20
18.568444008975746
 40
0.2999999999999998
 50
270
 51
0
  0
ARC
  8
_0-0_
  6
CONTINUOUS
 62
    7
 10
28.026481675320497
 20
27.568444008975803
 40
0.2999999999999998
 50
0
 51
90
  0
TEXT
  8
_0-f_
 62
    7
 10
2.3465717580272667
 20
3.2452656554905843
 40
4.2999999999999998
 41
0.744186046511628
 50
0
  1
F12M
  0
ENDSEC
  0
EOF
