  0
SECTION
  2
HEADER
  9
$ACADVER
  1
AC1009
  9
$INSBASE
 10
0
 20
0
 30
0
  9
$EXTMIN
 10
0
 20
0
  9
$EXTMAX
 10
1189
 20
841
  9
$LIMMIN
 10
0
 20
0
  9
$LIMMAX
 10
1189
 20
841
  9
$LTSCALE
 40
1
  0
ENDSEC
  0
SECTION
  2
TABLES
  0
TABLE
  2
LTYPE
 70
     9
  0
LTYPE
  2
CONTINUOUS
 70
    64
  3
実線
 72
    65
 73
     0
 40
0.0
  0
LTYPE
  2
DASHED1
 70
    64
  3
--  --  --  --  --  --  --  --  
 72
    65
 73
     2
 40
2.5
 49
1.25
 49
-1.25
  0
LTYPE
  2
DASHED2
 70
    64
  3
----    ----    ----    ----    
 72
    65
 73
     2
 40
5.0
 49
2.5
 49
-2.5
  0
LTYPE
  2
DASHED3
 70
    64
  3
------  ------  ------  ------  
 72
    65
 73
     2
 40
5.0
 49
3.75
 49
-1.25
  0
LTYPE
  2
CENTER1
 70
    64
  3
----- - ----- - ----- - ----- - 
 72
    65
 73
     4
 40
10.0
 49
6.25
 49
-1.25
 49
1.25
 49
-1.25
  0
LTYPE
  2
CENTER2
 70
    64
  3
----------  --  ----------  --  
 72
    65
 73
     4
 40
20.0
 49
12.5
 49
-2.5
 49
2.5
 49
-2.5
  0
LTYPE
  2
PHANTOM1
 70
    64
  3
--- - - --- - - --- - - --- - - 
 72
    65
 73
     6
 40
10.0
 49
3.25
 49
-1.25
 49
1.25
 49
-1.25
 49
1.25
 49
-1.25
  0
LTYPE
  2
PHANTOM2
 70
    64
  3
--------  -  -  --------  -  -  
 72
    65
 73
     6
 40
20.0
 49
10.0
 49
-2.5
 49
1.25
 49
-2.5
 49
1.25
 49
-2.5
  0
LTYPE
  2
DOT
 70
    64
  3
-   -   -   -   -   -   -   -   
 72
    65
 73
     2
 40
2.5
 49
0.625
 49
-1.875
  0
LTYPE
  2
DUMMY
 70
    64
  3
ダミー
 72
    65
 73
     0
 40
0.0
  0
LTYPE
  2
RAND1
 70
    64
  3
ランダム線1
 72
    65
 73
     4
 40
10.0
 49
1.0
 49
-2.0
 49
3.0
 49
-4.0
  0
LTYPE
  2
RAND2
 70
    64
  3
ランダム線2
 72
    65
 73
     4
 40
14.0
 49
2.0
 49
-3.0
 49
4.0
 49
-5.0
  0
LTYPE
  2
RAND3
 70
    64
  3
ランダム線3
 72
    65
 73
     4
 40
18.0
 49
3.0
 49
-4.0
 49
5.0
 49
-6.0
  0
LTYPE
  2
RAND4
 70
    64
  3
ランダム線4
 72
    65
 73
     4
 40
22.0
 49
4.0
 49
-5.0
 49
6.0
 49
-7.0
  0
LTYPE
  2
RAND5
 70
    64
  3
ランダム線5
 72
    65
 73
     4
 40
26.0
 49
5.0
 49
-6.0
 49
7.0
 49
-8.0
  0
LTYPE
  2
LONG1
 70
    64
  3
----------  --  ----------  --  
 72
    65
 73
     4
 40
40.0
 49
32.5
 49
-2.5
 49
2.5
 49
-2.5
  0
LTYPE
  2
LONG2
 70
    64
  3
--------  -  -  --------  -  -  
 72
    65
 73
     6
 40
40.0
 49
30.0
 49
-2.5
 49
1.25
 49
-2.5
 49
1.25
 49
-2.5
  0
LTYPE
  2
LONG3
 70
    64
  3
+++++++++++++++..+++++++++++++++
 72
    65
 73
     2
 40
40.0
 49
37.5
 49
-2.5
  0
LTYPE
  2
LONG4
 70
    64
  3
+++++++++++++++..+++++++++++++++
 72
    65
 73
     2
 40
80.0
 49
75.0
 49
-5.0
  0
LTYPE
  2
LONG5
 70
    64
  3
----------  --  ----------  --  
 72
    65
 73
     4
 40
60.0
 49
37.5
 49
-7.5
 49
7.5
 49
-7.5
  0
LTYPE
  2
dashed
 70
   64
  3
-------   -------------   ------
 72
   65
 73
    2
 40
7.5
 49
6
 49
-1.5
  0
LTYPE
  2
dashed_spaced
 70
   64
  3
----        --------        ----
 72
   65
 73
    2
 40
12
 49
6
 49
-6
  0
LTYPE
  2
long_dashed_dotted
 70
   64
  3
------------- --- --------------
 72
   65
 73
    4
 40
15.25
 49
12
 49
-1.5
 49
0.25
 49
-1.5
  0
LTYPE
  2
long_dashed_double-dotted
 70
   64
  3
----------- --- --- ------------
 72
   65
 73
    6
 40
17
 49
12
 49
-1.5
 49
0.25
 49
-1.5
 49
0.25
 49
-1.5
  0
LTYPE
  2
long_dashed_triplicate-dotted
 70
   64
  3
--------- --- --- --- ----------
 72
   65
 73
    8
 40
18.75
 49
12
 49
-1.5
 49
0.25
 49
-1.5
 49
0.25
 49
-1.5
 49
0.25
 49
-1.5
  0
LTYPE
  2
dotted
 70
   64
  3
   -       -       -       -    
 72
   65
 73
    2
 40
1.75
 49
0.25
 49
-1.5
  0
LTYPE
  2
chain
 70
   64
  3
-------------- -- --------------
 72
   65
 73
    4
 40
18.5
 49
12
 49
-1.5
 49
3.5
 49
-1.5
  0
LTYPE
  2
chain_double_dash
 70
   64
  3
------------ -- -- -------------
 72
   65
 73
    6
 40
23.5
 49
12
 49
-1.5
 49
3.5
 49
-1.5
 49
3.5
 49
-1.5
  0
LTYPE
  2
dashed_dotted
 70
   64
  3
-----------     -     ----------
 72
   65
 73
    4
 40
9.25
 49
6
 49
-1.5
 49
0.25
 49
-1.5
  0
LTYPE
  2
double-dashed_dotted
 70
   64
  3
------   -----------   -   -----
 72
   65
 73
    6
 40
16.75
 49
6
 49
-1.5
 49
6
 49
-1.5
 49
0.25
 49
-1.5
  0
LTYPE
  2
dashed_double-dotted
 70
   64
  3
---------    -    -    ---------
 72
   65
 73
    6
 40
11
 49
6
 49
-1.5
 49
0.25
 49
-1.5
 49
0.25
 49
-1.5
  0
LTYPE
  2
double-dashed_double-dotted
 70
   64
  3
-----   ---------   -   -   ----
 72
   65
 73
    8
 40
18.5
 49
6
 49
-1.5
 49
6
 49
-1.5
 49
0.25
 49
-1.5
 49
0.25
 49
-1.5
  0
LTYPE
  2
dashed_triplicate-dotted
 70
   64
  3
-------    -    -    -    ------
 72
   65
 73
    8
 40
12.75
 49
6
 49
-1.5
 49
0.25
 49
-1.5
 49
0.25
 49
-1.5
 49
0.25
 49
-1.5
  0
LTYPE
  2
double-dashed_triplicate-dotted
 70
   64
  3
-----  ---------  -  -  -  -----
 72
   65
 73
   10
 40
20.25
 49
6
 49
-1.5
 49
6
 49
-1.5
 49
0.25
 49
-1.5
 49
0.25
 49
-1.5
 49
0.25
 49
-1.5
  0
LTYPE
  2
undefined
 70
   64
  3
--------------------------------
 72
   65
 73
    0
 40
0
  0
ENDTAB
  0
TABLE
  2
STYLE
  5
3
100
AcDbSymbolTable
 70
     1
  0
STYLE
  5
10
100
AcDbSymbolTableRecord
100
AcDbTextStyleTableRecord
  2
STANDARD
 70
     0
 40
0.0
 41
1.0
 50
0.0
 71
     0
 42
0.2
  3
txt
  4
bigfont.shx
  0
STYLE
  5
26
100
AcDbSymbolTableRecord
100
AcDbTextStyleTableRecord
  2
TATEGAKI
 70
    68
 40
0.0
 41
1.0
 50
0.0
 71
     0
 42
1.0
  3
txt
  4
bigfont.shx
  0
ENDTAB
  0
TABLE
  2
LAYER
 70
    4
  0
LAYER
  2
_0-0_
 70
   64
 62
    7
  6
CONTINUOUS
  0
LAYER
  2
_0-1_
 70
   64
 62
    7
  6
CONTINUOUS
  0
LAYER
  2
_0-f_
 70
   64
 62
    7
  6
CONTINUOUS
  0
LAYER
  2
ADD_LINE
 70
   64
 62
    7
  6
CONTINUOUS
  0
ENDTAB
  0
ENDSEC
  0
SECTION
  2
BLOCKS
  0
ENDSEC
  0
SECTION
  2
ENTITIES
  0
TEXT
  8
_0-f_
 62
    7
 10
2.1707985926319679
 20
2.4235261072674916
 40
4.2999999999999998
 41
0.744186046511628
 50
0
  1
EP48_EP48S
  0
ARC
  8
_0-0_
  6
CONTINUOUS
 62
    7
 10
77.814641936051657
 20
16.005972615091935
 40
0.6866147596063365
 50
19.118120314093797
 51
73.770896322251104
  0
ARC
  8
_0-0_
  6
CONTINUOUS
 62
    7
 10
77.546007045150645
 20
16.005972615091935
 40
0.6866147596063365
 50
106.22910367774885
 51
160.88187968590611
  0
ARC
  8
_0-0_
  6
CONTINUOUS
 62
    7
 10
77.680324490601151
 20
15.382575638377432
 40
1.3234835615556069
 50
75.730707223577085
 51
104.26929277642289
  0
ARC
  8
_0-0_
  6
CONTINUOUS
 62
    7
 10
76.796874178676035
 20
15.856702271396273
 40
1.1115687810639554
 50
359.28077569259494
 51
15.355258257845747
  0
ARC
  8
_0-0_
  6
CONTINUOUS
 62
    7
 10
77.680324490601151
 20
16.086969581744427
 40
0.1990355837046194
 50
18.780934832588613
 51
161.2190651674114
  0
ARC
  8
_0-0_
  6
CONTINUOUS
 62
    7
 10
78.563774802527178
 20
15.856702271396273
 40
1.1115687810639554
 50
164.64474174215434
 51
180.71922430740514
  0
ARC
  8
_0-0_
  6
CONTINUOUS
 62
    7
 10
78.563774802527178
 20
15.038874145524289
 40
1.1115687810639554
 50
179.28077569259483
 51
195.35525825784563
  0
ARC
  8
_0-0_
  6
CONTINUOUS
 62
    7
 10
76.796874178676035
 20
15.038874145524289
 40
1.1115687810639554
 50
344.64474174215439
 51
0.7192243074051524
  0
ARC
  8
_0-0_
  6
CONTINUOUS
 62
    7
 10
75.693150512593775
 20
15.447788208460508
 40
2.8787836133968554
 50
344.21600247589299
 51
15.783997524107125
  0
ARC
  8
_0-0_
  6
CONTINUOUS
 62
    7
 10
77.546007045150645
 20
14.889603801828628
 40
0.6866147596063365
 50
199.11812031409383
 51
253.77089632225113
  0
ARC
  8
_0-0_
  6
CONTINUOUS
 62
    7
 10
77.814641936051657
 20
14.889603801828628
 40
0.6866147596063365
 50
286.22910367774892
 51
340.88187968590626
  0
ARC
  8
_0-0_
  6
CONTINUOUS
 62
    7
 10
77.680324490601151
 20
15.51300077854313
 40
1.3234835615556069
 50
255.7307072235771
 51
284.2692927764229
  0
ARC
  8
_0-0_
  6
CONTINUOUS
 62
    7
 10
77.680324490601151
 20
14.808606835176136
 40
0.1990355837046194
 50
198.7809348325886
 51
341.21906516741143
  0
ARC
  8
_0-0_
  6
CONTINUOUS
 62
    7
 10
70.608545795033706
 20
15.447788208455052
 40
7.3112867397731955
 50
356.78919008197272
 51
3.210809918027389
  0
ARC
  8
_0-0_
  6
CONTINUOUS
 62
    7
 10
84.752103186168654
 20
15.447788208455506
 40
7.3112867397731929
 50
176.78919008197266
 51
183.21080991802734
  0
ARC
  8
_0-0_
  6
CONTINUOUS
 62
    7
 10
79.667498468608528
 20
15.447788208460508
 40
2.8787836133968554
 50
164.21600247589294
 51
195.78399752410709
  0
ARC
  8
_0-0_
  6
CONTINUOUS
 62
    7
 10
75.398856285115244
 20
16.005972615091935
 40
0.6866147596063365
 50
106.22910367774885
 51
160.88187968590611
  0
ARC
  8
_0-0_
  6
CONTINUOUS
 62
    7
 10
75.53317373056575
 20
15.382575638377432
 40
1.3234835615556069
 50
75.730707223577085
 51
104.26929277642289
  0
ARC
  8
_0-0_
  6
CONTINUOUS
 62
    7
 10
73.545999752558373
 20
15.447788208460508
 40
2.8787836133968554
 50
9.8663227198208787
 51
15.783997524107056
  0
ARC
  8
_0-0_
  6
CONTINUOUS
 62
    7
 10
75.667491176016256
 20
16.005972615091935
 40
0.6866147596063365
 50
19.118120314093797
 51
73.770896322251104
  0
ARC
  8
_0-0_
  6
CONTINUOUS
 62
    7
 10
74.649723418640633
 20
15.856702271396273
 40
1.1115687810639554
 50
4.3528100028009247
 51
15.355258257845687
  0
ARC
  8
_0-0_
  6
CONTINUOUS
 62
    7
 10
76.416624042491776
 20
15.856702271396273
 40
1.1115687810639554
 50
164.64474174215434
 51
180.71922430740514
  0
ARC
  8
_0-0_
  6
CONTINUOUS
 62
    7
 10
75.53317373056575
 20
16.086969581744427
 40
0.1990355837046194
 50
18.780934832588613
 51
161.2190651674114
  0
ARC
  8
_0-0_
  6
CONTINUOUS
 62
    7
 10
76.416624042491776
 20
15.038874145524289
 40
1.1115687810639554
 50
179.28077569259483
 51
195.35525825784563
  0
ARC
  8
_0-0_
  6
CONTINUOUS
 62
    7
 10
74.649723418640633
 20
15.038874145524289
 40
1.1115687810639554
 50
344.64474174215434
 51
1.000075600874982
  0
ARC
  8
_0-0_
  6
CONTINUOUS
 62
    7
 10
75.53317373056575
 20
14.808606835176136
 40
0.1990355837046194
 50
198.7809348325886
 51
341.21906516741143
  0
ARC
  8
_0-0_
  6
CONTINUOUS
 62
    7
 10
73.545999752558373
 20
15.447788208460508
 40
2.8787836133968554
 50
344.21600247589299
 51
352.223758552802
  0
ARC
  8
_0-0_
  6
CONTINUOUS
 62
    7
 10
75.667491176016256
 20
14.889603801828628
 40
0.6866147596063365
 50
286.22910367774892
 51
340.88187968590626
  0
ARC
  8
_0-0_
  6
CONTINUOUS
 62
    7
 10
75.53317373056575
 20
15.51300077854313
 40
1.3234835615556069
 50
255.7307072235771
 51
284.2692927764229
  0
ARC
  8
_0-0_
  6
CONTINUOUS
 62
    7
 10
75.398856285115244
 20
14.889603801828628
 40
0.6866147596063365
 50
199.11812031409383
 51
253.77089632225113
  0
ARC
  8
_0-0_
  6
CONTINUOUS
 62
    7
 10
82.604952426133252
 20
15.447788208455506
 40
7.3112867397731929
 50
176.78919008197266
 51
183.21080991802734
  0
ARC
  8
_0-0_
  6
CONTINUOUS
 62
    7
 10
77.520347708573127
 20
15.447788208460508
 40
2.8787836133968554
 50
164.21600247589294
 51
195.78399752410709
  0
ARC
  8
_0-0_
  6
CONTINUOUS
 62
    7
 10
135.42674931294715
 20
33.195498949549858
 40
1
 50
0.0000000000000063
 51
87.000000000000142
  0
ARC
  8
_0-0_
  6
CONTINUOUS
 62
    7
 10
135.42674931294715
 20
27.627136992942098
 40
1
 50
273.00000000000028
 51
0
  0
ARC
  8
_0-0_
  6
CONTINUOUS
 62
    7
 10
124.92674931294715
 20
11.911317971245637
 40
1.5
 50
180
 51
270
  0
ARC
  8
_0-0_
  6
CONTINUOUS
 62
    7
 10
124.92674931294715
 20
48.911317971245637
 40
1.5
 50
90
 51
180
  0
ARC
  8
_0-0_
  6
CONTINUOUS
 62
    7
 10
135.92674931294715
 20
31.952654709584579
 40
0.5
 50
273.00000000000068
 51
0
  0
ARC
  8
_0-0_
  6
CONTINUOUS
 62
    7
 10
135.92674931294715
 20
28.869981232907151
 40
0.5
 50
0.0000000000000127
 51
87.000000000000014
  0
ARC
  8
_0-0_
  6
CONTINUOUS
 62
    7
 10
61.130124261561605
 20
31.731318023697725
 40
0.8799999952316283
 50
270
 51
0
  0
ARC
  8
_0-0_
  6
CONTINUOUS
 62
    7
 10
61.130124261561605
 20
29.09131791879355
 40
0.8799999952316283
 50
0
 51
90
  0
ARC
  8
_0-0_
  6
CONTINUOUS
 62
    7
 10
63.77012436646578
 20
29.09131791879355
 40
0.8799999952316283
 50
90
 51
180
  0
ARC
  8
_0-0_
  6
CONTINUOUS
 62
    7
 10
63.77012436646578
 20
31.731318023697725
 40
0.8799999952316283
 50
180
 51
270
  0
CIRCLE
  8
_0-0_
  6
CONTINUOUS
 62
    7
 10
62.450124314013692
 20
30.411317971245637
 40
4
  0
ARC
  8
_0-0_
  6
CONTINUOUS
 62
    7
 10
21.130124261561605
 20
31.731318023697725
 40
0.8799999952316283
 50
270
 51
0
  0
ARC
  8
_0-0_
  6
CONTINUOUS
 62
    7
 10
21.130124261561605
 20
29.09131791879355
 40
0.8799999952316283
 50
0
 51
90
  0
ARC
  8
_0-0_
  6
CONTINUOUS
 62
    7
 10
23.77012436646578
 20
29.09131791879355
 40
0.8799999952316283
 50
90
 51
180
  0
ARC
  8
_0-0_
  6
CONTINUOUS
 62
    7
 10
23.77012436646578
 20
31.731318023697725
 40
0.8799999952316283
 50
180
 51
270
  0
CIRCLE
  8
_0-0_
  6
CONTINUOUS
 62
    7
 10
22.450124314013692
 20
30.411317971245637
 40
4
  0
ARC
  8
_0-0_
  6
CONTINUOUS
 62
    7
 10
3.9501243140136921
 20
11.911317971245637
 40
1.5
 50
180
 51
270
  0
ARC
  8
_0-0_
  6
CONTINUOUS
 62
    7
 10
3.9501243140136921
 20
48.911317971245637
 40
1.5
 50
90
 51
180
  0
ARC
  8
_0-0_
  6
CONTINUOUS
 62
    7
 10
79.050124314013146
 20
13.811317971245728
 40
0.4
 50
270.00000000000006
 51
0.0000000000000508
  0
ARC
  8
_0-0_
  6
CONTINUOUS
 62
    7
 10
79.050124314013146
 20
17.011317971246001
 40
0.4
 50
0.0000000000000508
 51
90.000000000000057
  0
ARC
  8
_0-0_
  6
CONTINUOUS
 62
    7
 10
69.850124314013328
 20
13.811317971245728
 40
0.4
 50
180.00000000000006
 51
270
  0
ARC
  8
_0-0_
  6
CONTINUOUS
 62
    7
 10
69.850124314013328
 20
17.011317971246001
 40
0.4
 50
90.000000000000028
 51
180.00000000000006
  0
ARC
  8
_0-0_
  6
CONTINUOUS
 62
    7
 10
80.950124314013692
 20
11.911317971245637
 40
1.5
 50
270
 51
0
  0
ARC
  8
_0-0_
  6
CONTINUOUS
 62
    7
 10
80.950124314013692
 20
48.911317971245637
 40
1.5
 50
0
 51
90
  0
LINE
  8
_0-0_
  6
CONTINUOUS
 62
    7
 10
129.42674931294715
 20
34.511317971245774
 11
126.42674931294715
 21
34.511317971245774
  0
LINE
  8
_0-0_
  6
CONTINUOUS
 62
    7
 10
135.47908526919019
 20
26.628507458187244
 11
129.42674931294715
 21
26.311317971245728
  0
LINE
  8
_0-0_
  6
CONTINUOUS
 62
    7
 10
136.42674931294715
 20
28.869981232907151
 11
136.42674931294715
 21
27.627136992942098
  0
LINE
  8
_0-0_
  6
CONTINUOUS
 62
    7
 10
129.42674931294715
 20
29.711317971245819
 11
135.95291729106867
 21
29.369296000284351
  0
LINE
  8
_0-0_
  6
CONTINUOUS
 62
    7
 10
135.95291729106867
 20
31.453339942207378
 11
129.42674931294715
 21
31.11131797124591
  0
LINE
  8
_0-0_
  6
CONTINUOUS
 62
    7
 10
136.42674931294715
 20
33.195498949549858
 11
136.42674931294715
 21
31.952654709584579
  0
LINE
  8
_0-0_
  6
CONTINUOUS
 62
    7
 10
129.42674931294715
 20
34.511317971245774
 11
135.47908526919019
 21
34.194128484304258
  0
LINE
  8
_0-0_
  6
CONTINUOUS
 62
    7
 10
129.42674931294715
 20
26.311317971245728
 11
129.42674931294715
 21
34.511317971245774
  0
LINE
  8
_0-0_
  6
CONTINUOUS
 62
    7
 10
126.42674931294715
 20
26.311317971245728
 11
129.42674931294715
 21
26.311317971245728
  0
LINE
  8
_0-0_
  6
CONTINUOUS
 62
    7
 10
126.42674931294715
 20
10.411317971245637
 11
124.92674931294715
 21
10.411317971245637
  0
LINE
  8
_0-0_
  6
CONTINUOUS
 62
    7
 10
126.42674931294715
 20
50.411317971245637
 11
126.42674931294715
 21
10.411317971245637
  0
LINE
  8
_0-0_
  6
CONTINUOUS
 62
    7
 10
124.92674931294715
 20
50.411317971245637
 11
126.42674931294715
 21
50.411317971245637
  0
LINE
  8
_0-0_
  6
CONTINUOUS
 62
    7
 10
123.42674931294715
 20
11.911317971245637
 11
123.42674931294715
 21
48.911317971245637
  0
LINE
  8
_0-0_
  6
CONTINUOUS
 62
    7
 10
76.39831016335097
 20
15.058275162148504
 11
75.761122876796207
 21
15.058275162148504
  0
LINE
  8
_0-0_
  6
CONTINUOUS
 62
    7
 10
75.758085992305269
 20
15.941067906196452
 11
76.382206767669004
 21
15.941067906196452
  0
LINE
  8
_0-0_
  6
CONTINUOUS
 62
    7
 10
74.193955548525764
 20
16.672724954020225
 11
72.478297798672202
 21
16.672724954020225
  0
LINE
  8
_0-0_
  6
CONTINUOUS
 62
    7
 10
74.193955548525764
 20
16.235975429918938
 11
74.193955548525764
 21
16.672724954020225
  0
LINE
  8
_0-0_
  6
CONTINUOUS
 62
    7
 10
73.087057901200524
 20
16.235975429918938
 11
74.193955548525764
 21
16.235975429918938
  0
LINE
  8
_0-0_
  6
CONTINUOUS
 62
    7
 10
73.087057901200524
 20
15.667842253192077
 11
73.087057901200524
 21
16.235975429918938
  0
LINE
  8
_0-0_
  6
CONTINUOUS
 62
    7
 10
74.088402311173695
 20
15.667842253192077
 11
73.087057901200524
 21
15.667842253192077
  0
LINE
  8
_0-0_
  6
CONTINUOUS
 62
    7
 10
74.088402311173695
 20
15.257860959616039
 11
74.088402311173695
 21
15.667842253192077
  0
LINE
  8
_0-0_
  6
CONTINUOUS
 62
    7
 10
73.087057901200524
 20
15.257860959616039
 11
74.088402311173695
 21
15.257860959616039
  0
LINE
  8
_0-0_
  6
CONTINUOUS
 62
    7
 10
73.087057901200524
 20
14.659600987036185
 11
73.087057901200524
 21
15.257860959616039
  0
LINE
  8
_0-0_
  6
CONTINUOUS
 62
    7
 10
74.193955548525764
 20
14.659600987036185
 11
73.087057901200524
 21
14.659600987036185
  0
LINE
  8
_0-0_
  6
CONTINUOUS
 62
    7
 10
74.193955548525764
 20
14.222851462900337
 11
74.193955548525764
 21
14.659600987036185
  0
LINE
  8
_0-0_
  6
CONTINUOUS
 62
    7
 10
72.478297798672202
 20
14.222851462900337
 11
74.193955548525764
 21
14.222851462900337
  0
LINE
  8
_0-0_
  6
CONTINUOUS
 62
    7
 10
72.478297798672202
 20
16.672724954020225
 11
72.478297798672202
 21
14.222851462900337
  0
LINE
  8
_0-0_
  6
CONTINUOUS
 62
    7
 10
70.902657533761385
 20
16.672724954020225
 11
70.291730899681852
 21
16.672724954020225
  0
LINE
  8
_0-0_
  6
CONTINUOUS
 62
    7
 10
70.902657533761385
 20
14.659600987036185
 11
70.902657533761385
 21
16.672724954020225
  0
LINE
  8
_0-0_
  6
CONTINUOUS
 62
    7
 10
72.00694223125879
 20
14.659600987036185
 11
70.902657533761385
 21
14.659600987036185
  0
LINE
  8
_0-0_
  6
CONTINUOUS
 62
    7
 10
72.00694223125879
 20
14.222851462900337
 11
72.00694223125879
 21
14.659600987036185
  0
LINE
  8
_0-0_
  6
CONTINUOUS
 62
    7
 10
70.291730899681852
 20
14.222851462900337
 11
72.00694223125879
 21
14.222851462900337
  0
LINE
  8
_0-0_
  6
CONTINUOUS
 62
    7
 10
70.291730899681852
 20
16.672724954020225
 11
70.291730899681852
 21
14.222851462900337
  0
LINE
  8
_0-0_
  6
CONTINUOUS
 62
    7
 10
79.050124314013146
 20
17.411317971245637
 11
69.850124314013328
 21
17.411317971245637
  0
LINE
  8
_0-0_
  6
CONTINUOUS
 62
    7
 10
79.450124314013692
 20
13.811317971245728
 11
79.450124314013692
 21
17.011317971246001
  0
LINE
  8
_0-0_
  6
CONTINUOUS
 62
    7
 10
69.850124314013328
 20
13.411317971245637
 11
79.050124314013146
 21
13.411317971245637
  0
LINE
  8
_0-0_
  6
CONTINUOUS
 62
    7
 10
69.450124314013237
 20
17.011317971246001
 11
69.450124314013237
 21
13.811317971245728
  0
LINE
  8
_0-0_
  6
CONTINUOUS
 62
    7
 10
62.890124311629506
 20
28.211317923561921
 11
62.890124311629506
 21
29.09131791879355
  0
LINE
  8
_0-0_
  6
CONTINUOUS
 62
    7
 10
62.010124316397878
 20
28.211317923561921
 11
62.890124311629506
 21
28.211317923561921
  0
LINE
  8
_0-0_
  6
CONTINUOUS
 62
    7
 10
62.010124316397878
 20
29.09131791879355
 11
62.010124316397878
 21
28.211317923561921
  0
LINE
  8
_0-0_
  6
CONTINUOUS
 62
    7
 10
60.250124266329976
 20
29.971317973629823
 11
61.130124261561605
 21
29.971317973629823
  0
LINE
  8
_0-0_
  6
CONTINUOUS
 62
    7
 10
60.250124266329976
 20
30.851317968861451
 11
60.250124266329976
 21
29.971317973629823
  0
LINE
  8
_0-0_
  6
CONTINUOUS
 62
    7
 10
61.130124261561605
 20
30.851317968861451
 11
60.250124266329976
 21
30.851317968861451
  0
LINE
  8
_0-0_
  6
CONTINUOUS
 62
    7
 10
62.010124316397878
 20
32.611318018929353
 11
62.010124316397878
 21
31.731318023697725
  0
LINE
  8
_0-0_
  6
CONTINUOUS
 62
    7
 10
62.890124311629506
 20
32.611318018929353
 11
62.010124316397878
 21
32.611318018929353
  0
LINE
  8
_0-0_
  6
CONTINUOUS
 62
    7
 10
62.890124311629506
 20
31.731318023697725
 11
62.890124311629506
 21
32.611318018929353
  0
LINE
  8
_0-0_
  6
CONTINUOUS
 62
    7
 10
64.650124361697408
 20
30.851317968861451
 11
63.77012436646578
 21
30.851317968861451
  0
LINE
  8
_0-0_
  6
CONTINUOUS
 62
    7
 10
64.650124361697408
 20
29.971317973629823
 11
64.650124361697408
 21
30.851317968861451
  0
LINE
  8
_0-0_
  6
CONTINUOUS
 62
    7
 10
64.650124361697408
 20
29.971317973629823
 11
63.77012436646578
 21
29.971317973629823
  0
LINE
  8
_0-0_
  6
CONTINUOUS
 62
    7
 10
24.650124361697408
 20
30.851317968861451
 11
23.77012436646578
 21
30.851317968861451
  0
LINE
  8
_0-0_
  6
CONTINUOUS
 62
    7
 10
24.650124361697408
 20
29.971317973629823
 11
24.650124361697408
 21
30.851317968861451
  0
LINE
  8
_0-0_
  6
CONTINUOUS
 62
    7
 10
23.77012436646578
 20
29.971317973629823
 11
24.650124361697408
 21
29.971317973629823
  0
LINE
  8
_0-0_
  6
CONTINUOUS
 62
    7
 10
22.890124311629506
 20
28.211317923561921
 11
22.890124311629506
 21
29.09131791879355
  0
LINE
  8
_0-0_
  6
CONTINUOUS
 62
    7
 10
22.010124316397878
 20
28.211317923561921
 11
22.890124311629506
 21
28.211317923561921
  0
LINE
  8
_0-0_
  6
CONTINUOUS
 62
    7
 10
22.010124316397878
 20
29.09131791879355
 11
22.010124316397878
 21
28.211317923561921
  0
LINE
  8
_0-0_
  6
CONTINUOUS
 62
    7
 10
20.250124266329976
 20
29.971317973629823
 11
21.130124261561605
 21
29.971317973629823
  0
LINE
  8
_0-0_
  6
CONTINUOUS
 62
    7
 10
20.250124266329976
 20
30.851317968861451
 11
20.250124266329976
 21
29.971317973629823
  0
LINE
  8
_0-0_
  6
CONTINUOUS
 62
    7
 10
21.130124261561605
 20
30.851317968861451
 11
20.250124266329976
 21
30.851317968861451
  0
LINE
  8
_0-0_
  6
CONTINUOUS
 62
    7
 10
22.010124316397878
 20
32.611318018929353
 11
22.010124316397878
 21
31.731318023697725
  0
LINE
  8
_0-0_
  6
CONTINUOUS
 62
    7
 10
22.890124311629506
 20
32.611318018929353
 11
22.010124316397878
 21
32.611318018929353
  0
LINE
  8
_0-0_
  6
CONTINUOUS
 62
    7
 10
22.890124311629506
 20
32.611318018929353
 11
22.890124311629506
 21
31.731318023697725
  0
LINE
  8
_0-0_
  6
CONTINUOUS
 62
    7
 10
2.4501243140136921
 20
48.911317971245637
 11
2.4501243140136921
 21
11.911317971245637
  0
LINE
  8
_0-0_
  6
CONTINUOUS
 62
    7
 10
80.950124314013692
 20
50.411317971245637
 11
3.9501243140136921
 21
50.411317971245637
  0
LINE
  8
_0-0_
  6
CONTINUOUS
 62
    7
 10
82.450124314013692
 20
11.911317971245637
 11
82.450124314013692
 21
48.911317971245637
  0
LINE
  8
_0-0_
  6
CONTINUOUS
 62
    7
 10
3.9501243140136921
 20
10.411317971245637
 11
80.950124314013692
 21
10.411317971245637
  0
LINE
  8
_0-0_
  6
CONTINUOUS
 62
    7
 10
82.450124314013465
 20
77.39438620016773
 11
2.4501243140134648
 21
77.39438620016773
  0
LINE
  8
_0-0_
  6
CONTINUOUS
 62
    7
 10
2.4501243140134648
 20
77.39438620016773
 11
2.4501243140134648
 21
75.89438620016773
  0
LINE
  8
_0-0_
  6
CONTINUOUS
 62
    7
 10
3.9501243140134648
 20
74.39438620016773
 11
80.950124314013465
 21
74.39438620016773
  0
LINE
  8
_0-0_
  6
CONTINUOUS
 62
    7
 10
82.450124314013465
 20
75.89438620016773
 11
82.450124314013465
 21
77.39438620016773
  0
LINE
  8
_0-0_
  6
CONTINUOUS
 62
    7
 10
70.450124314013465
 20
77.39438620016773
 11
70.450124314013465
 21
79.89438620016773
  0
LINE
  8
_0-0_
  6
CONTINUOUS
 62
    7
 10
69.950124314013465
 20
80.39438620016773
 11
54.950124314013465
 21
80.39438620016773
  0
LINE
  8
_0-0_
  6
CONTINUOUS
 62
    7
 10
54.450124314013465
 20
79.89438620016773
 11
54.450124314013465
 21
77.39438620016773
  0
LINE
  8
_0-0_
  6
CONTINUOUS
 62
    7
 10
58.450124314013465
 20
80.39438620016773
 11
58.742481316935027
 21
85.972890134531838
  0
LINE
  8
_0-0_
  6
CONTINUOUS
 62
    7
 10
60.240425619067082
 20
87.39438620016773
 11
64.659823008959847
 21
87.39438620016773
  0
LINE
  8
_0-0_
  6
CONTINUOUS
 62
    7
 10
66.450124314013465
 20
80.394386200167276
 11
66.157767311091675
 21
85.972890134531838
  0
LINE
  8
_0-0_
  6
CONTINUOUS
 62
    7
 10
26.157767311091675
 20
85.972890134531838
 11
26.450124314013465
 21
80.394386200167276
  0
LINE
  8
_0-0_
  6
CONTINUOUS
 62
    7
 10
29.950124314013465
 20
80.39438620016773
 11
14.950124314013465
 21
80.39438620016773
  0
LINE
  8
_0-0_
  6
CONTINUOUS
 62
    7
 10
14.450124314013465
 20
79.89438620016773
 11
14.450124314013465
 21
77.39438620016773
  0
LINE
  8
_0-0_
  6
CONTINUOUS
 62
    7
 10
18.450124314013465
 20
80.39438620016773
 11
18.742481316935027
 21
85.972890134531838
  0
LINE
  8
_0-0_
  6
CONTINUOUS
 62
    7
 10
20.240425619067082
 20
87.39438620016773
 11
24.659823008959847
 21
87.39438620016773
  0
LINE
  8
_0-0_
  6
CONTINUOUS
 62
    7
 10
30.450124314013465
 20
77.39438620016773
 11
30.450124314013465
 21
79.89438620016773
  0
ARC
  8
_0-0_
  6
CONTINUOUS
 62
    7
 10
29.950124314013465
 20
79.89438620016773
 40
0.5
 50
0
 51
90
  0
ARC
  8
_0-0_
  6
CONTINUOUS
 62
    7
 10
14.950124314013465
 20
79.89438620016773
 40
0.5
 50
90
 51
180
  0
ARC
  8
_0-0_
  6
CONTINUOUS
 62
    7
 10
24.659823008959847
 20
85.89438620016773
 40
1.5
 50
3.0000000000002718
 51
89.999999999999986
  0
ARC
  8
_0-0_
  6
CONTINUOUS
 62
    7
 10
20.240425619067082
 20
85.89438620016773
 40
1.5
 50
90
 51
177.00000000000068
  0
ARC
  8
_0-0_
  6
CONTINUOUS
 62
    7
 10
3.9501243140134648
 20
75.89438620016773
 40
1.5
 50
180
 51
270
  0
ARC
  8
_0-0_
  6
CONTINUOUS
 62
    7
 10
69.950124314013465
 20
79.89438620016773
 40
0.5
 50
0
 51
90
  0
ARC
  8
_0-0_
  6
CONTINUOUS
 62
    7
 10
54.950124314013465
 20
79.89438620016773
 40
0.5
 50
90
 51
180
  0
ARC
  8
_0-0_
  6
CONTINUOUS
 62
    7
 10
64.659823008959847
 20
85.89438620016773
 40
1.5
 50
3.0000000000002718
 51
89.999999999999986
  0
ARC
  8
_0-0_
  6
CONTINUOUS
 62
    7
 10
60.240425619067082
 20
85.89438620016773
 40
1.5
 50
90
 51
177.00000000000068
  0
ARC
  8
_0-0_
  6
CONTINUOUS
 62
    7
 10
80.950124314013465
 20
75.89438620016773
 40
1.5
 50
270
 51
0
  0
LINE
  8
_0-1_
  6
DASHED3
 62
  152
 10
126.42674931294715
 20
50.411317971245637
 11
125.92674931294715
 21
50.411317971245637
  0
LINE
  8
_0-1_
  6
CENTER1
 62
  152
 10
123.42674931294715
 20
30.411317971245637
 11
136.42674931294715
 21
30.411317971245637
  0
LINE
  8
_0-1_
  6
CENTER1
 62
  152
 10
62.450124314013692
 20
22.411317971245637
 11
62.450124314013692
 21
38.411317971245637
  0
LINE
  8
_0-1_
  6
CENTER1
 62
  152
 10
54.450124314013692
 20
30.411317971245637
 11
70.450124314013692
 21
30.411317971245637
  0
LINE
  8
_0-1_
  6
CENTER1
 62
  152
 10
30.450124314013692
 20
30.411317971245637
 11
14.450124314013692
 21
30.411317971245637
  0
LINE
  8
_0-1_
  6
CENTER1
 62
  152
 10
22.450124314013692
 20
22.411317971245637
 11
22.450124314013692
 21
38.411317971245637
  0
LINE
  8
_0-1_
  6
CENTER1
 62
  152
 10
62.450124314013465
 20
87.39438620016773
 11
62.450124314013465
 21
74.39438620016773
  0
LINE
  8
_0-1_
  6
CENTER1
 62
  152
 10
22.450124314013465
 20
87.39438620016773
 11
22.450124314013465
 21
74.39438620016773
  0
ENDSEC
  0
EOF
