  0
SECTION
  2
HEADER
  9
$ACADVER
  1
AC1009
  9
$INSBASE
 10
0
 20
0
 30
0
  9
$EXTMIN
 10
0
 20
0
  9
$EXTMAX
 10
1189
 20
841
  9
$LIMMIN
 10
0
 20
0
  9
$LIMMAX
 10
1189
 20
841
  9
$LTSCALE
 40
1
  0
ENDSEC
  0
SECTION
  2
TABLES
  0
TABLE
  2
LTYPE
 70
     9
  0
LTYPE
  2
CONTINUOUS
 70
    64
  3
実線
 72
    65
 73
     0
 40
0.0
  0
LTYPE
  2
DASHED1
 70
    64
  3
--  --  --  --  --  --  --  --  
 72
    65
 73
     2
 40
2.5
 49
1.25
 49
-1.25
  0
LTYPE
  2
DASHED2
 70
    64
  3
----    ----    ----    ----    
 72
    65
 73
     2
 40
5.0
 49
2.5
 49
-2.5
  0
LTYPE
  2
DASHED3
 70
    64
  3
------  ------  ------  ------  
 72
    65
 73
     2
 40
5.0
 49
3.75
 49
-1.25
  0
LTYPE
  2
CENTER1
 70
    64
  3
----- - ----- - ----- - ----- - 
 72
    65
 73
     4
 40
10.0
 49
6.25
 49
-1.25
 49
1.25
 49
-1.25
  0
LTYPE
  2
CENTER2
 70
    64
  3
----------  --  ----------  --  
 72
    65
 73
     4
 40
20.0
 49
12.5
 49
-2.5
 49
2.5
 49
-2.5
  0
LTYPE
  2
PHANTOM1
 70
    64
  3
--- - - --- - - --- - - --- - - 
 72
    65
 73
     6
 40
10.0
 49
3.25
 49
-1.25
 49
1.25
 49
-1.25
 49
1.25
 49
-1.25
  0
LTYPE
  2
PHANTOM2
 70
    64
  3
--------  -  -  --------  -  -  
 72
    65
 73
     6
 40
20.0
 49
10.0
 49
-2.5
 49
1.25
 49
-2.5
 49
1.25
 49
-2.5
  0
LTYPE
  2
DOT
 70
    64
  3
-   -   -   -   -   -   -   -   
 72
    65
 73
     2
 40
2.5
 49
0.625
 49
-1.875
  0
LTYPE
  2
DUMMY
 70
    64
  3
ダミー
 72
    65
 73
     0
 40
0.0
  0
LTYPE
  2
RAND1
 70
    64
  3
ランダム線1
 72
    65
 73
     4
 40
10.0
 49
1.0
 49
-2.0
 49
3.0
 49
-4.0
  0
LTYPE
  2
RAND2
 70
    64
  3
ランダム線2
 72
    65
 73
     4
 40
14.0
 49
2.0
 49
-3.0
 49
4.0
 49
-5.0
  0
LTYPE
  2
RAND3
 70
    64
  3
ランダム線3
 72
    65
 73
     4
 40
18.0
 49
3.0
 49
-4.0
 49
5.0
 49
-6.0
  0
LTYPE
  2
RAND4
 70
    64
  3
ランダム線4
 72
    65
 73
     4
 40
22.0
 49
4.0
 49
-5.0
 49
6.0
 49
-7.0
  0
LTYPE
  2
RAND5
 70
    64
  3
ランダム線5
 72
    65
 73
     4
 40
26.0
 49
5.0
 49
-6.0
 49
7.0
 49
-8.0
  0
LTYPE
  2
LONG1
 70
    64
  3
----------  --  ----------  --  
 72
    65
 73
     4
 40
40.0
 49
32.5
 49
-2.5
 49
2.5
 49
-2.5
  0
LTYPE
  2
LONG2
 70
    64
  3
--------  -  -  --------  -  -  
 72
    65
 73
     6
 40
40.0
 49
30.0
 49
-2.5
 49
1.25
 49
-2.5
 49
1.25
 49
-2.5
  0
LTYPE
  2
LONG3
 70
    64
  3
+++++++++++++++..+++++++++++++++
 72
    65
 73
     2
 40
40.0
 49
37.5
 49
-2.5
  0
LTYPE
  2
LONG4
 70
    64
  3
+++++++++++++++..+++++++++++++++
 72
    65
 73
     2
 40
80.0
 49
75.0
 49
-5.0
  0
LTYPE
  2
LONG5
 70
    64
  3
----------  --  ----------  --  
 72
    65
 73
     4
 40
60.0
 49
37.5
 49
-7.5
 49
7.5
 49
-7.5
  0
LTYPE
  2
dashed
 70
   64
  3
-------   -------------   ------
 72
   65
 73
    2
 40
7.5
 49
6
 49
-1.5
  0
LTYPE
  2
dashed_spaced
 70
   64
  3
----        --------        ----
 72
   65
 73
    2
 40
12
 49
6
 49
-6
  0
LTYPE
  2
long_dashed_dotted
 70
   64
  3
------------- --- --------------
 72
   65
 73
    4
 40
15.25
 49
12
 49
-1.5
 49
0.25
 49
-1.5
  0
LTYPE
  2
long_dashed_double-dotted
 70
   64
  3
----------- --- --- ------------
 72
   65
 73
    6
 40
17
 49
12
 49
-1.5
 49
0.25
 49
-1.5
 49
0.25
 49
-1.5
  0
LTYPE
  2
long_dashed_triplicate-dotted
 70
   64
  3
--------- --- --- --- ----------
 72
   65
 73
    8
 40
18.75
 49
12
 49
-1.5
 49
0.25
 49
-1.5
 49
0.25
 49
-1.5
 49
0.25
 49
-1.5
  0
LTYPE
  2
dotted
 70
   64
  3
   -       -       -       -    
 72
   65
 73
    2
 40
1.75
 49
0.25
 49
-1.5
  0
LTYPE
  2
chain
 70
   64
  3
-------------- -- --------------
 72
   65
 73
    4
 40
18.5
 49
12
 49
-1.5
 49
3.5
 49
-1.5
  0
LTYPE
  2
chain_double_dash
 70
   64
  3
------------ -- -- -------------
 72
   65
 73
    6
 40
23.5
 49
12
 49
-1.5
 49
3.5
 49
-1.5
 49
3.5
 49
-1.5
  0
LTYPE
  2
dashed_dotted
 70
   64
  3
-----------     -     ----------
 72
   65
 73
    4
 40
9.25
 49
6
 49
-1.5
 49
0.25
 49
-1.5
  0
LTYPE
  2
double-dashed_dotted
 70
   64
  3
------   -----------   -   -----
 72
   65
 73
    6
 40
16.75
 49
6
 49
-1.5
 49
6
 49
-1.5
 49
0.25
 49
-1.5
  0
LTYPE
  2
dashed_double-dotted
 70
   64
  3
---------    -    -    ---------
 72
   65
 73
    6
 40
11
 49
6
 49
-1.5
 49
0.25
 49
-1.5
 49
0.25
 49
-1.5
  0
LTYPE
  2
double-dashed_double-dotted
 70
   64
  3
-----   ---------   -   -   ----
 72
   65
 73
    8
 40
18.5
 49
6
 49
-1.5
 49
6
 49
-1.5
 49
0.25
 49
-1.5
 49
0.25
 49
-1.5
  0
LTYPE
  2
dashed_triplicate-dotted
 70
   64
  3
-------    -    -    -    ------
 72
   65
 73
    8
 40
12.75
 49
6
 49
-1.5
 49
0.25
 49
-1.5
 49
0.25
 49
-1.5
 49
0.25
 49
-1.5
  0
LTYPE
  2
double-dashed_triplicate-dotted
 70
   64
  3
-----  ---------  -  -  -  -----
 72
   65
 73
   10
 40
20.25
 49
6
 49
-1.5
 49
6
 49
-1.5
 49
0.25
 49
-1.5
 49
0.25
 49
-1.5
 49
0.25
 49
-1.5
  0
LTYPE
  2
undefined
 70
   64
  3
--------------------------------
 72
   65
 73
    0
 40
0
  0
ENDTAB
  0
TABLE
  2
STYLE
  5
3
100
AcDbSymbolTable
 70
     1
  0
STYLE
  5
10
100
AcDbSymbolTableRecord
100
AcDbTextStyleTableRecord
  2
STANDARD
 70
     0
 40
0.0
 41
1.0
 50
0.0
 71
     0
 42
0.2
  3
txt
  4
bigfont.shx
  0
STYLE
  5
26
100
AcDbSymbolTableRecord
100
AcDbTextStyleTableRecord
  2
TATEGAKI
 70
    68
 40
0.0
 41
1.0
 50
0.0
 71
     0
 42
1.0
  3
txt
  4
bigfont.shx
  0
ENDTAB
  0
TABLE
  2
LAYER
 70
    4
  0
LAYER
  2
_0-0_
 70
   64
 62
    7
  6
CONTINUOUS
  0
LAYER
  2
_0-1_
 70
   64
 62
    7
  6
CONTINUOUS
  0
LAYER
  2
_0-f_
 70
   64
 62
    7
  6
CONTINUOUS
  0
LAYER
  2
ADD_LINE
 70
   64
 62
    7
  6
CONTINUOUS
  0
ENDTAB
  0
ENDSEC
  0
SECTION
  2
BLOCKS
  0
ENDSEC
  0
SECTION
  2
ENTITIES
  0
TEXT
  8
_0-f_
 62
    7
 10
1.1117652711253641
 20
1.0733684805744588
 40
4.2999999999999998
 41
0.744186046511628
 50
0
  1
EP46_EP46S
  0
LINE
  8
_0-0_
  6
CONTINUOUS
 62
    7
 10
93.147497488222598
 20
35.225588905324514
 11
99.199833444465639
 21
34.908399418382999
  0
LINE
  8
_0-0_
  6
CONTINUOUS
 62
    7
 10
100.14749748822283
 20
33.909769883628599
 11
100.14749748822283
 21
32.666925643663546
  0
LINE
  8
_0-0_
  6
CONTINUOUS
 62
    7
 10
100.14749748822283
 20
28.341407927020839
 11
100.14749748822283
 21
29.584252166985891
  0
LINE
  8
_0-0_
  6
CONTINUOUS
 62
    7
 10
9.8258029935079776
 20
11.406895003319221
 11
66.825802993507978
 21
11.406895003319221
  0
LINE
  8
_0-0_
  6
CONTINUOUS
 62
    7
 10
68.325802993507978
 20
12.906895003319221
 11
68.325802993507978
 21
49.906895003319221
  0
LINE
  8
_0-0_
  6
CONTINUOUS
 62
    7
 10
66.825802993507978
 20
51.406895003319221
 11
9.8258029935079776
 21
51.406895003319221
  0
LINE
  8
_0-0_
  6
CONTINUOUS
 62
    7
 10
8.3258029935079776
 20
49.906895003319221
 11
8.3258029935079776
 21
12.906895003319221
  0
LINE
  8
_0-0_
  6
CONTINUOUS
 62
    7
 10
30.970862993508035
 20
31.992035003319359
 11
29.777872993508026
 21
31.992035003319359
  0
LINE
  8
_0-0_
  6
CONTINUOUS
 62
    7
 10
29.777872993508026
 20
30.821715003319639
 11
30.970862993508035
 21
30.821715003319639
  0
LINE
  8
_0-0_
  6
CONTINUOUS
 62
    7
 10
28.911002993507964
 20
29.954845003319349
 11
28.911002993507964
 21
28.761805003319239
  0
LINE
  8
_0-0_
  6
CONTINUOUS
 62
    7
 10
27.740702993507966
 20
28.761805003319239
 11
27.740702993507966
 21
29.954845003319349
  0
LINE
  8
_0-0_
  6
CONTINUOUS
 62
    7
 10
26.873932993508106
 20
30.821715003319639
 11
25.680842993508122
 21
30.821715003319639
  0
LINE
  8
_0-0_
  6
CONTINUOUS
 62
    7
 10
25.680842993508122
 20
31.992035003319359
 11
26.873932993508106
 21
31.992035003319359
  0
LINE
  8
_0-0_
  6
CONTINUOUS
 62
    7
 10
27.740702993507966
 20
32.858935003319345
 11
27.740702993507966
 21
34.051955003319961
  0
LINE
  8
_0-0_
  6
CONTINUOUS
 62
    7
 10
28.911002993507964
 20
34.051955003319961
 11
28.911002993507964
 21
32.858935003319345
  0
LINE
  8
_0-0_
  6
CONTINUOUS
 62
    7
 10
47.740702993507966
 20
34.051955003319961
 11
47.740702993507966
 21
32.858935003319345
  0
LINE
  8
_0-0_
  6
CONTINUOUS
 62
    7
 10
48.911002993507964
 20
32.858935003319345
 11
48.911002993507964
 21
34.051955003319961
  0
LINE
  8
_0-0_
  6
CONTINUOUS
 62
    7
 10
49.777872993508026
 20
31.992035003319359
 11
50.970862993508035
 21
31.992035003319359
  0
LINE
  8
_0-0_
  6
CONTINUOUS
 62
    7
 10
50.970862993508035
 20
30.821715003319639
 11
49.777872993508026
 21
30.821715003319639
  0
LINE
  8
_0-0_
  6
CONTINUOUS
 62
    7
 10
48.911002993507964
 20
29.954845003319349
 11
48.911002993507964
 21
28.761805003319239
  0
LINE
  8
_0-0_
  6
CONTINUOUS
 62
    7
 10
47.740702993507966
 20
28.761805003319239
 11
47.740702993507966
 21
29.954845003319349
  0
LINE
  8
_0-0_
  6
CONTINUOUS
 62
    7
 10
46.873932993508106
 20
30.821715003319639
 11
45.680842993508122
 21
30.821715003319639
  0
LINE
  8
_0-0_
  6
CONTINUOUS
 62
    7
 10
45.680842993508122
 20
31.992035003319359
 11
46.873932993508106
 21
31.992035003319359
  0
LINE
  8
_0-0_
  6
CONTINUOUS
 62
    7
 10
55.849202993507788
 20
17.821805003319639
 11
64.849192993508041
 21
17.821805003319639
  0
LINE
  8
_0-0_
  6
CONTINUOUS
 62
    7
 10
64.833042993508116
 20
16.902015003319718
 11
64.833042993508116
 21
14.653635003319721
  0
LINE
  8
_0-0_
  6
CONTINUOUS
 62
    7
 10
64.833042993508116
 20
14.653635003319721
 11
64.22728299350797
 21
14.653635003319721
  0
LINE
  8
_0-0_
  6
CONTINUOUS
 62
    7
 10
64.22728299350797
 20
14.653635003319721
 11
64.22728299350797
 21
16.902015003319718
  0
LINE
  8
_0-0_
  6
CONTINUOUS
 62
    7
 10
64.22728299350797
 20
16.902015003319718
 11
64.833042993508116
 21
16.902015003319718
  0
LINE
  8
_0-0_
  6
CONTINUOUS
 62
    7
 10
65.349222993507965
 20
17.321725003319386
 11
65.349222993507965
 21
14.321815003319387
  0
LINE
  8
_0-0_
  6
CONTINUOUS
 62
    7
 10
64.849192993508041
 20
13.821735003319588
 11
55.849202993507788
 21
13.821735003319588
  0
LINE
  8
_0-0_
  6
CONTINUOUS
 62
    7
 10
55.349172993508091
 20
14.321815003319387
 11
55.349172993508091
 21
17.321725003319386
  0
LINE
  8
_0-0_
  6
CONTINUOUS
 62
    7
 10
55.712602993507971
 20
16.934075003319265
 11
56.454662993508009
 21
16.934075003319265
  0
LINE
  8
_0-0_
  6
CONTINUOUS
 62
    7
 10
56.454662993508009
 20
16.934075003319265
 11
56.898652993507994
 21
16.217055003319217
  0
LINE
  8
_0-0_
  6
CONTINUOUS
 62
    7
 10
56.898652993507994
 20
16.217055003319217
 11
57.342592993508106
 21
16.934075003319265
  0
LINE
  8
_0-0_
  6
CONTINUOUS
 62
    7
 10
57.342592993508106
 20
16.934075003319265
 11
58.084602993507815
 21
16.934075003319265
  0
LINE
  8
_0-0_
  6
CONTINUOUS
 62
    7
 10
58.084602993507815
 20
16.934075003319265
 11
57.178842993507942
 21
15.470885003319779
  0
LINE
  8
_0-0_
  6
CONTINUOUS
 62
    7
 10
57.178842993507942
 20
15.470885003319779
 11
57.178842993507942
 21
14.685835003319369
  0
LINE
  8
_0-0_
  6
CONTINUOUS
 62
    7
 10
57.178842993507942
 20
14.685835003319369
 11
56.572982993507821
 21
14.685835003319369
  0
LINE
  8
_0-0_
  6
CONTINUOUS
 62
    7
 10
56.572982993507821
 20
14.685835003319369
 11
56.572982993507821
 21
15.544285003319544
  0
LINE
  8
_0-0_
  6
CONTINUOUS
 62
    7
 10
56.572982993507821
 20
15.544285003319544
 11
55.712602993507971
 21
16.934075003319265
  0
LINE
  8
_0-0_
  6
CONTINUOUS
 62
    7
 10
58.613772993508064
 20
16.902015003319718
 11
59.219532993507983
 21
16.902015003319718
  0
LINE
  8
_0-0_
  6
CONTINUOUS
 62
    7
 10
59.219532993507983
 20
16.902015003319718
 11
59.219532993507983
 21
15.671275003319749
  0
LINE
  8
_0-0_
  6
CONTINUOUS
 62
    7
 10
59.219862993508059
 20
15.671275003319749
 11
59.226792993507843
 21
15.580665003319552
  0
LINE
  8
_0-0_
  6
CONTINUOUS
 62
    7
 10
59.226792993507843
 20
15.580665003319552
 11
59.247382993508154
 21
15.492815003319663
  0
LINE
  8
_0-0_
  6
CONTINUOUS
 62
    7
 10
59.247382993508154
 20
15.492815003319663
 11
59.281002993507855
 21
15.410385003319277
  0
LINE
  8
_0-0_
  6
CONTINUOUS
 62
    7
 10
59.281002993507855
 20
15.410385003319277
 11
59.326622993507954
 21
15.335885003319561
  0
LINE
  8
_0-0_
  6
CONTINUOUS
 62
    7
 10
59.326622993507954
 20
15.335885003319561
 11
59.382872993508045
 21
15.271575003319356
  0
LINE
  8
_0-0_
  6
CONTINUOUS
 62
    7
 10
59.382872993508045
 20
15.271575003319356
 11
59.448032993507923
 21
15.219405003319878
  0
LINE
  8
_0-0_
  6
CONTINUOUS
 62
    7
 10
59.448032993507923
 20
15.219405003319878
 11
59.520122993507812
 21
15.180975003319361
  0
LINE
  8
_0-0_
  6
CONTINUOUS
 62
    7
 10
59.520122993507812
 20
15.180975003319361
 11
59.596962993507987
 21
15.157435003319677
  0
LINE
  8
_0-0_
  6
CONTINUOUS
 62
    7
 10
59.596962993507987
 20
15.157435003319677
 11
59.676202993507786
 21
15.149505003319462
  0
LINE
  8
_0-0_
  6
CONTINUOUS
 62
    7
 10
59.676202993507786
 20
15.149505003319462
 11
59.755442993507813
 21
15.157435003319677
  0
LINE
  8
_0-0_
  6
CONTINUOUS
 62
    7
 10
59.755442993507813
 20
15.157435003319677
 11
59.832282993507988
 21
15.180975003319361
  0
LINE
  8
_0-0_
  6
CONTINUOUS
 62
    7
 10
59.832282993507988
 20
15.180975003319361
 11
59.904372993508105
 21
15.219405003319878
  0
LINE
  8
_0-0_
  6
CONTINUOUS
 62
    7
 10
59.904372993508105
 20
15.219405003319878
 11
59.969532993507983
 21
15.271575003319356
  0
LINE
  8
_0-0_
  6
CONTINUOUS
 62
    7
 10
59.969532993507983
 20
15.271575003319356
 11
60.025782993507846
 21
15.335885003319561
  0
LINE
  8
_0-0_
  6
CONTINUOUS
 62
    7
 10
60.025782993507846
 20
15.335885003319561
 11
60.071402993507945
 21
15.410385003319277
  0
LINE
  8
_0-0_
  6
CONTINUOUS
 62
    7
 10
60.071402993507945
 20
15.410385003319277
 11
60.105022993507873
 21
15.492815003319663
  0
LINE
  8
_0-0_
  6
CONTINUOUS
 62
    7
 10
60.105022993507873
 20
15.492815003319663
 11
60.125612993507957
 21
15.580665003319552
  0
LINE
  8
_0-0_
  6
CONTINUOUS
 62
    7
 10
60.125612993507957
 20
15.580665003319552
 11
60.132542993507968
 21
15.671275003319749
  0
LINE
  8
_0-0_
  6
CONTINUOUS
 62
    7
 10
60.132722993507969
 20
15.671275003319749
 11
60.132722993507969
 21
16.902015003319718
  0
LINE
  8
_0-0_
  6
CONTINUOUS
 62
    7
 10
60.132722993507969
 20
16.902015003319718
 11
60.738482993508114
 21
16.902015003319718
  0
LINE
  8
_0-0_
  6
CONTINUOUS
 62
    7
 10
60.738482993508114
 20
16.902015003319718
 11
60.738482993508114
 21
15.671275003319749
  0
LINE
  8
_0-0_
  6
CONTINUOUS
 62
    7
 10
60.737752993508138
 20
15.671275003319749
 11
60.721622993507935
 21
15.472745003319631
  0
LINE
  8
_0-0_
  6
CONTINUOUS
 62
    7
 10
60.721622993507935
 20
15.472745003319631
 11
60.673732993508111
 21
15.280245003319976
  0
LINE
  8
_0-0_
  6
CONTINUOUS
 62
    7
 10
60.673732993508111
 20
15.280245003319976
 11
60.595532993507959
 21
15.099625003319886
  0
LINE
  8
_0-0_
  6
CONTINUOUS
 62
    7
 10
60.595532993507959
 20
15.099625003319886
 11
60.489392993507863
 21
14.93637500331937
  0
LINE
  8
_0-0_
  6
CONTINUOUS
 62
    7
 10
60.489392993507863
 20
14.93637500331937
 11
60.358552993508056
 21
14.795465003319293
  0
LINE
  8
_0-0_
  6
CONTINUOUS
 62
    7
 10
60.358552993508056
 20
14.795465003319293
 11
60.206972993508089
 21
14.681155003319361
  0
LINE
  8
_0-0_
  6
CONTINUOUS
 62
    7
 10
60.206972993508089
 20
14.681155003319361
 11
60.039272993507893
 21
14.596935003319629
  0
LINE
  8
_0-0_
  6
CONTINUOUS
 62
    7
 10
60.039272993507893
 20
14.596935003319629
 11
59.860532993507832
 21
14.545355003319344
  0
LINE
  8
_0-0_
  6
CONTINUOUS
 62
    7
 10
59.860532993507832
 20
14.545355003319344
 11
59.676202993507786
 21
14.52798500331977
  0
LINE
  8
_0-0_
  6
CONTINUOUS
 62
    7
 10
59.676202993507786
 20
14.52798500331977
 11
59.491862993507993
 21
14.545355003319344
  0
LINE
  8
_0-0_
  6
CONTINUOUS
 62
    7
 10
59.491862993507993
 20
14.545355003319344
 11
59.313132993508134
 21
14.596935003319629
  0
LINE
  8
_0-0_
  6
CONTINUOUS
 62
    7
 10
59.313132993508134
 20
14.596935003319629
 11
59.145432993507939
 21
14.681155003319361
  0
LINE
  8
_0-0_
  6
CONTINUOUS
 62
    7
 10
59.145432993507939
 20
14.681155003319361
 11
58.993852993507971
 21
14.795465003319293
  0
LINE
  8
_0-0_
  6
CONTINUOUS
 62
    7
 10
58.993852993507971
 20
14.795465003319293
 11
58.863012993507937
 21
14.93637500331937
  0
LINE
  8
_0-0_
  6
CONTINUOUS
 62
    7
 10
58.863012993507937
 20
14.93637500331937
 11
58.756872993507841
 21
15.099625003319886
  0
LINE
  8
_0-0_
  6
CONTINUOUS
 62
    7
 10
58.756872993507841
 20
15.099625003319886
 11
58.678672993508144
 21
15.280245003319976
  0
LINE
  8
_0-0_
  6
CONTINUOUS
 62
    7
 10
58.678672993508144
 20
15.280245003319976
 11
58.630782993507864
 21
15.472745003319631
  0
LINE
  8
_0-0_
  6
CONTINUOUS
 62
    7
 10
58.630782993507864
 20
15.472745003319631
 11
58.614652993508116
 21
15.671275003319749
  0
LINE
  8
_0-0_
  6
CONTINUOUS
 62
    7
 10
58.613772993508064
 20
15.671275003319749
 11
58.613772993508064
 21
16.902015003319718
  0
LINE
  8
_0-0_
  6
CONTINUOUS
 62
    7
 10
61.521472993507814
 20
16.902015003319718
 11
62.127282993508061
 21
16.902015003319718
  0
LINE
  8
_0-0_
  6
CONTINUOUS
 62
    7
 10
62.127282993508061
 20
16.902015003319718
 11
62.127282993508061
 21
16.28070500331927
  0
LINE
  8
_0-0_
  6
CONTINUOUS
 62
    7
 10
62.127282993508061
 20
16.28070500331927
 11
62.736512993508086
 21
16.902015003319718
  0
LINE
  8
_0-0_
  6
CONTINUOUS
 62
    7
 10
62.736512993508086
 20
16.902015003319718
 11
63.646092993508091
 21
16.902015003319718
  0
LINE
  8
_0-0_
  6
CONTINUOUS
 62
    7
 10
63.646092993508091
 20
16.902015003319718
 11
62.67433299350796
 21
15.910785003319631
  0
LINE
  8
_0-0_
  6
CONTINUOUS
 62
    7
 10
62.67433299350796
 20
15.910785003319631
 11
63.646092993508091
 21
14.653635003319721
  0
LINE
  8
_0-0_
  6
CONTINUOUS
 62
    7
 10
63.646092993508091
 20
14.653635003319721
 11
62.837792993507946
 21
14.653635003319721
  0
LINE
  8
_0-0_
  6
CONTINUOUS
 62
    7
 10
62.837792993507946
 20
14.653635003319721
 11
62.222412993507987
 21
15.449795003319593
  0
LINE
  8
_0-0_
  6
CONTINUOUS
 62
    7
 10
62.222412993507987
 20
15.449795003319593
 11
62.127282993508061
 21
15.352735003319538
  0
LINE
  8
_0-0_
  6
CONTINUOUS
 62
    7
 10
62.127282993508061
 20
15.352735003319538
 11
62.127282993508061
 21
14.657895003319425
  0
LINE
  8
_0-0_
  6
CONTINUOUS
 62
    7
 10
62.127282993508061
 20
14.657895003319425
 11
61.521472993507814
 21
14.657895003319425
  0
LINE
  8
_0-0_
  6
CONTINUOUS
 62
    7
 10
61.521472993507814
 20
14.657895003319425
 11
61.521472993507814
 21
16.902015003319718
  0
CIRCLE
  8
_0-0_
  6
CONTINUOUS
 62
    7
 10
48.325902993507952
 20
31.406895003319221
 40
4.1989502999999999
  0
ARC
  8
_0-0_
  6
CONTINUOUS
 62
    7
 10
46.873932993508106
 20
32.858935003319345
 40
0.8668801000000001
 50
270
 51
0
  0
ARC
  8
_0-0_
  6
CONTINUOUS
 62
    7
 10
49.777872993508026
 20
32.858935003319345
 40
0.8668801000000001
 50
180
 51
270
  0
ARC
  8
_0-0_
  6
CONTINUOUS
 62
    7
 10
49.777872993508026
 20
29.954845003319349
 40
0.8668801000000001
 50
90
 51
180
  0
ARC
  8
_0-0_
  6
CONTINUOUS
 62
    7
 10
46.873932993508106
 20
29.954845003319349
 40
0.8668801000000001
 50
0
 51
90
  0
ARC
  8
_0-0_
  6
CONTINUOUS
 62
    7
 10
48.325902993507952
 20
31.406895003319221
 40
2.7090001000000004
 50
347.52571999999998
 51
12.474272999999984
  0
ARC
  8
_0-0_
  6
CONTINUOUS
 62
    7
 10
48.325902993507952
 20
31.406895003319221
 40
2.7090001000000004
 50
77.525817000000089
 51
102.47418000000003
  0
ARC
  8
_0-0_
  6
CONTINUOUS
 62
    7
 10
48.325902993507952
 20
31.406895003319221
 40
2.7090001000000004
 50
167.52571999999995
 51
192.47426999999996
  0
ARC
  8
_0-0_
  6
CONTINUOUS
 62
    7
 10
48.325902993507952
 20
31.406895003319221
 40
2.7090001000000004
 50
257.52580999999998
 51
282.47417999999999
  0
CIRCLE
  8
_0-0_
  6
CONTINUOUS
 62
    7
 10
28.325902993507952
 20
31.406895003319221
 40
4.1989502999999999
  0
ARC
  8
_0-0_
  6
CONTINUOUS
 62
    7
 10
26.873932993508106
 20
32.858935003319345
 40
0.8668801000000001
 50
270
 51
0
  0
ARC
  8
_0-0_
  6
CONTINUOUS
 62
    7
 10
29.777872993508026
 20
32.858935003319345
 40
0.8668801000000001
 50
180
 51
270
  0
ARC
  8
_0-0_
  6
CONTINUOUS
 62
    7
 10
29.777872993508026
 20
29.954845003319349
 40
0.8668801000000001
 50
90
 51
180
  0
ARC
  8
_0-0_
  6
CONTINUOUS
 62
    7
 10
26.873932993508106
 20
29.954845003319349
 40
0.8668801000000001
 50
0
 51
90
  0
ARC
  8
_0-0_
  6
CONTINUOUS
 62
    7
 10
28.325902993507952
 20
31.406895003319221
 40
2.7090001000000004
 50
347.52571999999998
 51
12.474272999999984
  0
ARC
  8
_0-0_
  6
CONTINUOUS
 62
    7
 10
28.325902993507952
 20
31.406895003319221
 40
2.7090001000000004
 50
77.525817000000089
 51
102.47418000000003
  0
ARC
  8
_0-0_
  6
CONTINUOUS
 62
    7
 10
28.325902993507952
 20
31.406895003319221
 40
2.7090001000000004
 50
167.52571999999995
 51
192.47426999999996
  0
ARC
  8
_0-0_
  6
CONTINUOUS
 62
    7
 10
28.325902993507952
 20
31.406895003319221
 40
2.7090001000000004
 50
257.52580999999998
 51
282.47417999999999
  0
ARC
  8
_0-0_
  6
CONTINUOUS
 62
    7
 10
9.8258029935079776
 20
49.906895003319221
 40
1.5
 50
90
 51
180
  0
ARC
  8
_0-0_
  6
CONTINUOUS
 62
    7
 10
9.8258029935079776
 20
12.906895003319221
 40
1.5
 50
180
 51
270
  0
ARC
  8
_0-0_
  6
CONTINUOUS
 62
    7
 10
66.825802993507978
 20
12.906895003319221
 40
1.5
 50
270
 51
0
  0
ARC
  8
_0-0_
  6
CONTINUOUS
 62
    7
 10
66.825802993507978
 20
49.906895003319221
 40
1.5
 50
0
 51
90
  0
ARC
  8
_0-0_
  6
CONTINUOUS
 62
    7
 10
64.849192993508041
 20
17.321725003319386
 40
0.4999999
 50
0
 51
90
  0
ARC
  8
_0-0_
  6
CONTINUOUS
 62
    7
 10
64.849192993508041
 20
14.321815003319387
 40
0.4999999
 50
270
 51
0
  0
ARC
  8
_0-0_
  6
CONTINUOUS
 62
    7
 10
55.849202993507788
 20
14.321815003319387
 40
0.4999999
 50
180
 51
270
  0
ARC
  8
_0-0_
  6
CONTINUOUS
 62
    7
 10
55.849202993507788
 20
17.321725003319386
 40
0.4999999
 50
90
 51
180
  0
LINE
  8
_0-0_
  6
CONTINUOUS
 62
    7
 10
21.117888813846093
 20
94.489845716540572
 11
20.825531810924531
 21
88.911341782176464
  0
LINE
  8
_0-0_
  6
CONTINUOUS
 62
    7
 10
17.325531810924531
 20
88.911341782176464
 11
32.325531810924531
 21
88.911341782176464
  0
LINE
  8
_0-0_
  6
CONTINUOUS
 62
    7
 10
32.825531810924531
 20
88.411341782176464
 11
32.825531810924531
 21
85.911341782176464
  0
LINE
  8
_0-0_
  6
CONTINUOUS
 62
    7
 10
36.825531810924531
 20
85.911341782176464
 11
36.825531810924531
 21
88.411341782176464
  0
LINE
  8
_0-0_
  6
CONTINUOUS
 62
    7
 10
37.325531810924531
 20
88.911341782176464
 11
52.325531810924531
 21
88.911341782176464
  0
LINE
  8
_0-0_
  6
CONTINUOUS
 62
    7
 10
52.825531810924531
 20
88.411341782176464
 11
52.825531810924531
 21
85.911341782176464
  0
LINE
  8
_0-0_
  6
CONTINUOUS
 62
    7
 10
48.825531810924531
 20
88.911341782176009
 11
48.533174808002514
 21
94.489845716540572
  0
LINE
  8
_0-0_
  6
CONTINUOUS
 62
    7
 10
47.035230505870913
 20
95.911341782176464
 11
42.615833115978148
 21
95.911341782176464
  0
LINE
  8
_0-0_
  6
CONTINUOUS
 62
    7
 10
40.825531810924531
 20
88.911341782176464
 11
41.117888813846093
 21
94.489845716540572
  0
LINE
  8
_0-0_
  6
CONTINUOUS
 62
    7
 10
28.533174808002514
 20
94.489845716540572
 11
28.825531810924531
 21
88.911341782176009
  0
LINE
  8
_0-0_
  6
CONTINUOUS
 62
    7
 10
27.035230505870913
 20
95.911341782176464
 11
22.615833115978148
 21
95.911341782176464
  0
LINE
  8
_0-0_
  6
CONTINUOUS
 62
    7
 10
16.825531810924531
 20
85.911341782176464
 11
16.825531810924531
 21
88.411341782176464
  0
LINE
  8
_0-0_
  6
CONTINUOUS
 62
    7
 10
4.8255318109245309
 20
85.911341782176464
 11
64.825531810924531
 21
85.911341782176464
  0
LINE
  8
_0-0_
  6
CONTINUOUS
 62
    7
 10
64.825531810924531
 20
85.911341782176464
 11
64.825531810924531
 21
84.411341782176464
  0
LINE
  8
_0-0_
  6
CONTINUOUS
 62
    7
 10
63.325531810924531
 20
82.911341782176464
 11
6.3255318109245309
 21
82.911341782176464
  0
LINE
  8
_0-0_
  6
CONTINUOUS
 62
    7
 10
4.8255318109245309
 20
84.411341782176464
 11
4.8255318109245309
 21
85.911341782176464
  0
ARC
  8
_0-0_
  6
CONTINUOUS
 62
    7
 10
63.325531810924531
 20
84.411341782176464
 40
1.5
 50
270
 51
0
  0
ARC
  8
_0-0_
  6
CONTINUOUS
 62
    7
 10
42.615833115978148
 20
94.411341782176464
 40
1.5
 50
90
 51
177.00000000000068
  0
ARC
  8
_0-0_
  6
CONTINUOUS
 62
    7
 10
47.035230505870913
 20
94.411341782176464
 40
1.5
 50
3.0000000000002718
 51
89.999999999999986
  0
ARC
  8
_0-0_
  6
CONTINUOUS
 62
    7
 10
37.325531810924531
 20
88.411341782176464
 40
0.5
 50
90
 51
180
  0
ARC
  8
_0-0_
  6
CONTINUOUS
 62
    7
 10
52.325531810924531
 20
88.411341782176464
 40
0.5
 50
0
 51
90
  0
ARC
  8
_0-0_
  6
CONTINUOUS
 62
    7
 10
6.3255318109245309
 20
84.411341782176464
 40
1.5
 50
180
 51
270
  0
ARC
  8
_0-0_
  6
CONTINUOUS
 62
    7
 10
22.615833115978148
 20
94.411341782176464
 40
1.5
 50
90
 51
177.00000000000068
  0
ARC
  8
_0-0_
  6
CONTINUOUS
 62
    7
 10
27.035230505870913
 20
94.411341782176464
 40
1.5
 50
3.0000000000002718
 51
89.999999999999986
  0
ARC
  8
_0-0_
  6
CONTINUOUS
 62
    7
 10
17.325531810924531
 20
88.411341782176464
 40
0.5
 50
90
 51
180
  0
ARC
  8
_0-0_
  6
CONTINUOUS
 62
    7
 10
32.325531810924531
 20
88.411341782176464
 40
0.5
 50
0
 51
90
  0
LINE
  8
_0-0_
  6
CONTINUOUS
 62
    7
 10
87.147497488222598
 20
49.625588905324719
 11
87.147497488222598
 21
12.625588905324605
  0
LINE
  8
_0-0_
  6
CONTINUOUS
 62
    7
 10
90.147497488222598
 20
51.125588905324719
 11
88.647497488222598
 21
51.125588905324719
  0
LINE
  8
_0-0_
  6
CONTINUOUS
 62
    7
 10
93.147497488222598
 20
27.025588905324469
 11
99.199833444465639
 21
27.342778392265984
  0
LINE
  8
_0-0_
  6
CONTINUOUS
 62
    7
 10
90.147497488222598
 20
11.125588905324605
 11
88.647497488222598
 21
11.125588905324605
  0
ARC
  8
_0-0_
  6
CONTINUOUS
 62
    7
 10
99.647497488222825
 20
29.584252166985891
 40
0.5
 50
0.0000000000000127
 51
87.000000000000014
  0
ARC
  8
_0-0_
  6
CONTINUOUS
 62
    7
 10
99.647497488222825
 20
32.666925643663546
 40
0.5
 50
273.00000000000068
 51
0
  0
ARC
  8
_0-0_
  6
CONTINUOUS
 62
    7
 10
88.647497488222598
 20
49.625588905324719
 40
1.5
 50
90
 51
180
  0
ARC
  8
_0-0_
  6
CONTINUOUS
 62
    7
 10
88.647497488222598
 20
12.625588905324605
 40
1.5
 50
180
 51
270
  0
ARC
  8
_0-0_
  6
CONTINUOUS
 62
    7
 10
99.147497488222825
 20
33.909769883628599
 40
1
 50
0.0000000000000063
 51
87.000000000000142
  0
ARC
  8
_0-0_
  6
CONTINUOUS
 62
    7
 10
99.147497488222825
 20
28.341407927020839
 40
1
 50
273.00000000000028
 51
0
  0
LINE
  8
_0-0_
  6
CONTINUOUS
 62
    7
 10
99.673665466344119
 20
30.083566934363319
 11
93.147497488222598
 21
30.425588905324787
  0
LINE
  8
_0-0_
  6
CONTINUOUS
 62
    7
 10
99.673665466344119
 20
32.167610876286119
 11
93.147497488222598
 21
31.825588905324878
  0
LINE
  8
_0-0_
  6
CONTINUOUS
 62
    7
 10
90.147497488222598
 20
11.125588905324605
 11
90.147497488222598
 21
51.125588905324719
  0
LINE
  8
_0-0_
  6
CONTINUOUS
 62
    7
 10
90.147497488222598
 20
35.225588905324514
 11
93.147497488222598
 21
35.225588905324514
  0
LINE
  8
_0-0_
  6
CONTINUOUS
 62
    7
 10
93.147497488222598
 20
35.225588905324514
 11
93.147497488222598
 21
27.025588905324469
  0
LINE
  8
_0-0_
  6
CONTINUOUS
 62
    7
 10
90.147497488222598
 20
27.025588905324469
 11
93.147497488222598
 21
27.025588905324469
  0
LINE
  8
_0-1_
  6
CENTER2
 62
  152
 10
23.325832993508129
 20
31.406895003319221
 11
33.325832993508129
 21
31.406895003319221
  0
LINE
  8
_0-1_
  6
CENTER2
 62
  152
 10
28.325802993507978
 20
36.406885003319474
 11
28.325802993507978
 21
26.406895003319221
  0
LINE
  8
_0-1_
  6
CENTER2
 62
  152
 10
48.325802993507978
 20
26.406895003319221
 11
48.325802993507978
 21
36.406885003319474
  0
LINE
  8
_0-1_
  6
CENTER2
 62
  152
 10
43.325832993508129
 20
31.406895003319221
 11
53.325832993508129
 21
31.406895003319221
  0
LINE
  8
ADD_LINE
  6
DOT
 62
  152
 10
38.325812993507952
 20
12.906905003319878
 11
38.325812993507952
 21
49.906875003319271
  0
LINE
  8
_0-1_
  6
CENTER1
 62
  152
 10
44.825531810924531
 20
95.911341782176464
 11
44.825531810924531
 21
82.911341782176464
  0
LINE
  8
_0-1_
  6
CENTER1
 62
  152
 10
24.825531810924531
 20
95.911341782176464
 11
24.825531810924531
 21
82.911341782176464
  0
LINE
  8
_0-1_
  6
DASHED3
 62
  152
 10
89.647497488222598
 20
51.125588905324719
 11
90.147497488222598
 21
51.125588905324719
  0
ENDSEC
  0
EOF
