  0
SECTION
  2
HEADER
  9
$ACADVER
  1
AC1009
  9
$INSBASE
 10
0
 20
0
 30
0
  9
$EXTMIN
 10
0
 20
0
  9
$EXTMAX
 10
1189
 20
841
  9
$LIMMIN
 10
0
 20
0
  9
$LIMMAX
 10
1189
 20
841
  9
$LTSCALE
 40
1
  0
ENDSEC
  0
SECTION
  2
TABLES
  0
TABLE
  2
LTYPE
 70
     9
  0
LTYPE
  2
CONTINUOUS
 70
    64
  3
実線
 72
    65
 73
     0
 40
0.0
  0
LTYPE
  2
DASHED1
 70
    64
  3
--  --  --  --  --  --  --  --  
 72
    65
 73
     2
 40
2.5
 49
1.25
 49
-1.25
  0
LTYPE
  2
DASHED2
 70
    64
  3
----    ----    ----    ----    
 72
    65
 73
     2
 40
5.0
 49
2.5
 49
-2.5
  0
LTYPE
  2
DASHED3
 70
    64
  3
------  ------  ------  ------  
 72
    65
 73
     2
 40
5.0
 49
3.75
 49
-1.25
  0
LTYPE
  2
CENTER1
 70
    64
  3
----- - ----- - ----- - ----- - 
 72
    65
 73
     4
 40
10.0
 49
6.25
 49
-1.25
 49
1.25
 49
-1.25
  0
LTYPE
  2
CENTER2
 70
    64
  3
----------  --  ----------  --  
 72
    65
 73
     4
 40
20.0
 49
12.5
 49
-2.5
 49
2.5
 49
-2.5
  0
LTYPE
  2
PHANTOM1
 70
    64
  3
--- - - --- - - --- - - --- - - 
 72
    65
 73
     6
 40
10.0
 49
3.25
 49
-1.25
 49
1.25
 49
-1.25
 49
1.25
 49
-1.25
  0
LTYPE
  2
PHANTOM2
 70
    64
  3
--------  -  -  --------  -  -  
 72
    65
 73
     6
 40
20.0
 49
10.0
 49
-2.5
 49
1.25
 49
-2.5
 49
1.25
 49
-2.5
  0
LTYPE
  2
DOT
 70
    64
  3
-   -   -   -   -   -   -   -   
 72
    65
 73
     2
 40
2.5
 49
0.625
 49
-1.875
  0
LTYPE
  2
DUMMY
 70
    64
  3
ダミー
 72
    65
 73
     0
 40
0.0
  0
LTYPE
  2
RAND1
 70
    64
  3
ランダム線1
 72
    65
 73
     4
 40
10.0
 49
1.0
 49
-2.0
 49
3.0
 49
-4.0
  0
LTYPE
  2
RAND2
 70
    64
  3
ランダム線2
 72
    65
 73
     4
 40
14.0
 49
2.0
 49
-3.0
 49
4.0
 49
-5.0
  0
LTYPE
  2
RAND3
 70
    64
  3
ランダム線3
 72
    65
 73
     4
 40
18.0
 49
3.0
 49
-4.0
 49
5.0
 49
-6.0
  0
LTYPE
  2
RAND4
 70
    64
  3
ランダム線4
 72
    65
 73
     4
 40
22.0
 49
4.0
 49
-5.0
 49
6.0
 49
-7.0
  0
LTYPE
  2
RAND5
 70
    64
  3
ランダム線5
 72
    65
 73
     4
 40
26.0
 49
5.0
 49
-6.0
 49
7.0
 49
-8.0
  0
LTYPE
  2
LONG1
 70
    64
  3
----------  --  ----------  --  
 72
    65
 73
     4
 40
40.0
 49
32.5
 49
-2.5
 49
2.5
 49
-2.5
  0
LTYPE
  2
LONG2
 70
    64
  3
--------  -  -  --------  -  -  
 72
    65
 73
     6
 40
40.0
 49
30.0
 49
-2.5
 49
1.25
 49
-2.5
 49
1.25
 49
-2.5
  0
LTYPE
  2
LONG3
 70
    64
  3
+++++++++++++++..+++++++++++++++
 72
    65
 73
     2
 40
40.0
 49
37.5
 49
-2.5
  0
LTYPE
  2
LONG4
 70
    64
  3
+++++++++++++++..+++++++++++++++
 72
    65
 73
     2
 40
80.0
 49
75.0
 49
-5.0
  0
LTYPE
  2
LONG5
 70
    64
  3
----------  --  ----------  --  
 72
    65
 73
     4
 40
60.0
 49
37.5
 49
-7.5
 49
7.5
 49
-7.5
  0
LTYPE
  2
dashed
 70
   64
  3
-------   -------------   ------
 72
   65
 73
    2
 40
7.5
 49
6
 49
-1.5
  0
LTYPE
  2
dashed_spaced
 70
   64
  3
----        --------        ----
 72
   65
 73
    2
 40
12
 49
6
 49
-6
  0
LTYPE
  2
long_dashed_dotted
 70
   64
  3
------------- --- --------------
 72
   65
 73
    4
 40
15.25
 49
12
 49
-1.5
 49
0.25
 49
-1.5
  0
LTYPE
  2
long_dashed_double-dotted
 70
   64
  3
----------- --- --- ------------
 72
   65
 73
    6
 40
17
 49
12
 49
-1.5
 49
0.25
 49
-1.5
 49
0.25
 49
-1.5
  0
LTYPE
  2
long_dashed_triplicate-dotted
 70
   64
  3
--------- --- --- --- ----------
 72
   65
 73
    8
 40
18.75
 49
12
 49
-1.5
 49
0.25
 49
-1.5
 49
0.25
 49
-1.5
 49
0.25
 49
-1.5
  0
LTYPE
  2
dotted
 70
   64
  3
   -       -       -       -    
 72
   65
 73
    2
 40
1.75
 49
0.25
 49
-1.5
  0
LTYPE
  2
chain
 70
   64
  3
-------------- -- --------------
 72
   65
 73
    4
 40
18.5
 49
12
 49
-1.5
 49
3.5
 49
-1.5
  0
LTYPE
  2
chain_double_dash
 70
   64
  3
------------ -- -- -------------
 72
   65
 73
    6
 40
23.5
 49
12
 49
-1.5
 49
3.5
 49
-1.5
 49
3.5
 49
-1.5
  0
LTYPE
  2
dashed_dotted
 70
   64
  3
-----------     -     ----------
 72
   65
 73
    4
 40
9.25
 49
6
 49
-1.5
 49
0.25
 49
-1.5
  0
LTYPE
  2
double-dashed_dotted
 70
   64
  3
------   -----------   -   -----
 72
   65
 73
    6
 40
16.75
 49
6
 49
-1.5
 49
6
 49
-1.5
 49
0.25
 49
-1.5
  0
LTYPE
  2
dashed_double-dotted
 70
   64
  3
---------    -    -    ---------
 72
   65
 73
    6
 40
11
 49
6
 49
-1.5
 49
0.25
 49
-1.5
 49
0.25
 49
-1.5
  0
LTYPE
  2
double-dashed_double-dotted
 70
   64
  3
-----   ---------   -   -   ----
 72
   65
 73
    8
 40
18.5
 49
6
 49
-1.5
 49
6
 49
-1.5
 49
0.25
 49
-1.5
 49
0.25
 49
-1.5
  0
LTYPE
  2
dashed_triplicate-dotted
 70
   64
  3
-------    -    -    -    ------
 72
   65
 73
    8
 40
12.75
 49
6
 49
-1.5
 49
0.25
 49
-1.5
 49
0.25
 49
-1.5
 49
0.25
 49
-1.5
  0
LTYPE
  2
double-dashed_triplicate-dotted
 70
   64
  3
-----  ---------  -  -  -  -----
 72
   65
 73
   10
 40
20.25
 49
6
 49
-1.5
 49
6
 49
-1.5
 49
0.25
 49
-1.5
 49
0.25
 49
-1.5
 49
0.25
 49
-1.5
  0
LTYPE
  2
undefined
 70
   64
  3
--------------------------------
 72
   65
 73
    0
 40
0
  0
ENDTAB
  0
TABLE
  2
STYLE
  5
3
100
AcDbSymbolTable
 70
     1
  0
STYLE
  5
10
100
AcDbSymbolTableRecord
100
AcDbTextStyleTableRecord
  2
STANDARD
 70
     0
 40
0.0
 41
1.0
 50
0.0
 71
     0
 42
0.2
  3
txt
  4
bigfont.shx
  0
STYLE
  5
26
100
AcDbSymbolTableRecord
100
AcDbTextStyleTableRecord
  2
TATEGAKI
 70
    68
 40
0.0
 41
1.0
 50
0.0
 71
     0
 42
1.0
  3
txt
  4
bigfont.shx
  0
ENDTAB
  0
TABLE
  2
LAYER
 70
    4
  0
LAYER
  2
_0-0_
 70
   64
 62
    7
  6
CONTINUOUS
  0
LAYER
  2
_0-1_
 70
   64
 62
    7
  6
CONTINUOUS
  0
LAYER
  2
_0-f_
 70
   64
 62
    7
  6
CONTINUOUS
  0
LAYER
  2
ADD_LINE
 70
   64
 62
    7
  6
CONTINUOUS
  0
ENDTAB
  0
ENDSEC
  0
SECTION
  2
BLOCKS
  0
ENDSEC
  0
SECTION
  2
ENTITIES
  0
TEXT
  8
_0-f_
 62
    7
 10
1.1269012937008256
 20
1.48851051912294
 40
4.2999999999999998
 41
0.744186046511628
 50
0
  1
EP44_EP44S
  0
LINE
  8
_0-0_
  6
CONTINUOUS
 62
    7
 10
39.396790212368387
 20
7.6723750590392115
 11
2.3967902123683871
 21
7.6723750590392115
  0
LINE
  8
_0-0_
  6
CONTINUOUS
 62
    7
 10
0.896790212368387
 20
9.1723750590392115
 11
0.896790212368387
 21
46.172375059039098
  0
LINE
  8
_0-0_
  6
CONTINUOUS
 62
    7
 10
2.3967902123683871
 20
47.672375059039098
 11
39.396790212368387
 21
47.672375059039098
  0
LINE
  8
_0-0_
  6
CONTINUOUS
 62
    7
 10
40.896790212368387
 20
46.172375059039098
 11
40.896790212368387
 21
9.1723750590392115
  0
LINE
  8
_0-0_
  6
CONTINUOUS
 62
    7
 10
37.182650212368344
 20
11.172375059038757
 11
37.182650212368344
 21
14.172315059038453
  0
LINE
  8
_0-0_
  6
CONTINUOUS
 62
    7
 10
36.666420212368166
 20
13.752555059038684
 11
36.666420212368166
 21
11.504215059039041
  0
LINE
  8
_0-0_
  6
CONTINUOUS
 62
    7
 10
36.666420212368166
 20
11.504215059039041
 11
36.060660212368248
 21
11.504215059039041
  0
LINE
  8
_0-0_
  6
CONTINUOUS
 62
    7
 10
36.060660212368248
 20
11.504215059039041
 11
36.060660212368248
 21
13.752555059038684
  0
LINE
  8
_0-0_
  6
CONTINUOUS
 62
    7
 10
36.060660212368248
 20
13.752555059038684
 11
36.666420212368166
 21
13.752555059038684
  0
LINE
  8
_0-0_
  6
CONTINUOUS
 62
    7
 10
36.682570212368546
 20
14.672335059038858
 11
27.682580212368293
 21
14.672335059038858
  0
LINE
  8
_0-0_
  6
CONTINUOUS
 62
    7
 10
27.182600212368698
 20
14.172315059038453
 11
27.182600212368698
 21
11.172375059038757
  0
LINE
  8
_0-0_
  6
CONTINUOUS
 62
    7
 10
27.682580212368293
 20
10.67232505903911
 11
36.682570212368546
 21
10.67232505903911
  0
LINE
  8
_0-0_
  6
CONTINUOUS
 62
    7
 10
35.479480212368571
 20
11.504215059039041
 11
34.507760212368112
 21
12.761345059039002
  0
LINE
  8
_0-0_
  6
CONTINUOUS
 62
    7
 10
34.507760212368112
 20
12.761345059039002
 11
35.479480212368571
 21
13.752555059038684
  0
LINE
  8
_0-0_
  6
CONTINUOUS
 62
    7
 10
35.479480212368571
 20
13.752555059038684
 11
34.569890212368364
 21
13.752555059038684
  0
LINE
  8
_0-0_
  6
CONTINUOUS
 62
    7
 10
34.569890212368364
 20
13.752555059038684
 11
33.960670212368086
 21
13.131235059038488
  0
LINE
  8
_0-0_
  6
CONTINUOUS
 62
    7
 10
33.960670212368086
 20
13.131235059038488
 11
33.960670212368086
 21
13.752555059038684
  0
LINE
  8
_0-0_
  6
CONTINUOUS
 62
    7
 10
33.960670212368086
 20
13.752555059038684
 11
33.354860212368067
 21
13.752555059038684
  0
LINE
  8
_0-0_
  6
CONTINUOUS
 62
    7
 10
33.354860212368067
 20
13.752555059038684
 11
33.354860212368067
 21
11.508445059039047
  0
LINE
  8
_0-0_
  6
CONTINUOUS
 62
    7
 10
33.354860212368067
 20
11.508445059039047
 11
33.960670212368086
 21
11.508445059039047
  0
LINE
  8
_0-0_
  6
CONTINUOUS
 62
    7
 10
33.960670212368086
 20
11.508445059039047
 11
33.960670212368086
 21
12.203315059038857
  0
LINE
  8
_0-0_
  6
CONTINUOUS
 62
    7
 10
33.960670212368086
 20
12.203315059038857
 11
34.055800212368695
 21
12.300355059038964
  0
LINE
  8
_0-0_
  6
CONTINUOUS
 62
    7
 10
34.055800212368695
 20
12.300355059038964
 11
34.671170212368224
 21
11.504215059039041
  0
LINE
  8
_0-0_
  6
CONTINUOUS
 62
    7
 10
34.671170212368224
 20
11.504215059039041
 11
35.479480212368571
 21
11.504215059039041
  0
LINE
  8
_0-0_
  6
CONTINUOUS
 62
    7
 10
32.191930212368561
 20
11.646015059038916
 11
32.040350212368367
 21
11.531715059038731
  0
LINE
  8
_0-0_
  6
CONTINUOUS
 62
    7
 10
32.040350212368367
 20
11.531715059038731
 11
31.872650212368399
 21
11.447485059038797
  0
LINE
  8
_0-0_
  6
CONTINUOUS
 62
    7
 10
31.872650212368399
 20
11.447485059038797
 11
31.693920212368312
 21
11.395905059038967
  0
LINE
  8
_0-0_
  6
CONTINUOUS
 62
    7
 10
31.693920212368312
 20
11.395905059038967
 11
31.509580212368519
 21
11.378535059038938
  0
LINE
  8
_0-0_
  6
CONTINUOUS
 62
    7
 10
31.509580212368519
 20
11.378535059038938
 11
31.325250212368474
 21
11.395905059038967
  0
LINE
  8
_0-0_
  6
CONTINUOUS
 62
    7
 10
31.325250212368474
 20
11.395905059038967
 11
31.146510212368185
 21
11.447485059038797
  0
LINE
  8
_0-0_
  6
CONTINUOUS
 62
    7
 10
31.146510212368185
 20
11.447485059038797
 11
30.978810212368217
 21
11.531715059038731
  0
LINE
  8
_0-0_
  6
CONTINUOUS
 62
    7
 10
30.978810212368217
 20
11.531715059038731
 11
30.827230212368477
 21
11.646015059038916
  0
LINE
  8
_0-0_
  6
CONTINUOUS
 62
    7
 10
30.827230212368477
 20
11.646015059038916
 11
30.696390212368215
 21
11.786935059039195
  0
LINE
  8
_0-0_
  6
CONTINUOUS
 62
    7
 10
30.696390212368215
 20
11.786935059039195
 11
30.590250212368346
 21
11.950185059038802
  0
LINE
  8
_0-0_
  6
CONTINUOUS
 62
    7
 10
30.590250212368346
 20
11.950185059038802
 11
30.512050212367967
 21
12.130805059038892
  0
LINE
  8
_0-0_
  6
CONTINUOUS
 62
    7
 10
30.512050212367967
 20
12.130805059038892
 11
30.464160212368142
 21
12.323305059039001
  0
LINE
  8
_0-0_
  6
CONTINUOUS
 62
    7
 10
30.464160212368142
 20
12.323305059039001
 11
30.448030212368167
 21
12.52183505903912
  0
LINE
  8
_0-0_
  6
CONTINUOUS
 62
    7
 10
30.44715021236857
 20
12.52183505903912
 11
30.44715021236857
 21
13.752555059038684
  0
LINE
  8
_0-0_
  6
CONTINUOUS
 62
    7
 10
30.44715021236857
 20
13.752555059038684
 11
31.052910212368033
 21
13.752555059038684
  0
LINE
  8
_0-0_
  6
CONTINUOUS
 62
    7
 10
31.052910212368033
 20
13.752555059038684
 11
31.052910212368033
 21
12.52183505903912
  0
LINE
  8
_0-0_
  6
CONTINUOUS
 62
    7
 10
31.053240212368792
 20
12.52183505903912
 11
31.060170212368348
 21
12.431225059038923
  0
LINE
  8
_0-0_
  6
CONTINUOUS
 62
    7
 10
31.060170212368348
 20
12.431225059038923
 11
31.080760212368432
 21
12.343375059039033
  0
LINE
  8
_0-0_
  6
CONTINUOUS
 62
    7
 10
31.080760212368432
 20
12.343375059039033
 11
31.114380212368587
 21
12.260945059039102
  0
LINE
  8
_0-0_
  6
CONTINUOUS
 62
    7
 10
31.114380212368587
 20
12.260945059039102
 11
31.160010212368206
 21
12.186445059038931
  0
LINE
  8
_0-0_
  6
CONTINUOUS
 62
    7
 10
31.160010212368206
 20
12.186445059038931
 11
31.216250212368095
 21
12.122135059039181
  0
LINE
  8
_0-0_
  6
CONTINUOUS
 62
    7
 10
31.216250212368095
 20
12.122135059039181
 11
31.281410212368201
 21
12.069965059039248
  0
LINE
  8
_0-0_
  6
CONTINUOUS
 62
    7
 10
31.281410212368201
 20
12.069965059039248
 11
31.353500212368317
 21
12.031525059038984
  0
LINE
  8
_0-0_
  6
CONTINUOUS
 62
    7
 10
31.353500212368317
 20
12.031525059038984
 11
31.430340212368492
 21
12.007985059038845
  0
LINE
  8
_0-0_
  6
CONTINUOUS
 62
    7
 10
31.430340212368492
 20
12.007985059038845
 11
31.509580212368519
 21
12.000065059038832
  0
LINE
  8
_0-0_
  6
CONTINUOUS
 62
    7
 10
31.509580212368519
 20
12.000065059038832
 11
31.588820212368546
 21
12.007985059038845
  0
LINE
  8
_0-0_
  6
CONTINUOUS
 62
    7
 10
31.588820212368546
 20
12.007985059038845
 11
31.665660212368266
 21
12.031525059038984
  0
LINE
  8
_0-0_
  6
CONTINUOUS
 62
    7
 10
31.665660212368266
 20
12.031525059038984
 11
31.737750212368383
 21
12.069965059039248
  0
LINE
  8
_0-0_
  6
CONTINUOUS
 62
    7
 10
31.737750212368383
 20
12.069965059039248
 11
31.802910212368033
 21
12.122135059039181
  0
LINE
  8
_0-0_
  6
CONTINUOUS
 62
    7
 10
31.802910212368033
 20
12.122135059039181
 11
31.859160212368579
 21
12.186445059038931
  0
LINE
  8
_0-0_
  6
CONTINUOUS
 62
    7
 10
31.859160212368579
 20
12.186445059038931
 11
31.904780212368451
 21
12.260945059039102
  0
LINE
  8
_0-0_
  6
CONTINUOUS
 62
    7
 10
31.904780212368451
 20
12.260945059039102
 11
31.938400212368606
 21
12.343375059039033
  0
LINE
  8
_0-0_
  6
CONTINUOUS
 62
    7
 10
31.938400212368606
 20
12.343375059039033
 11
31.958990212368235
 21
12.431225059038923
  0
LINE
  8
_0-0_
  6
CONTINUOUS
 62
    7
 10
31.958990212368235
 20
12.431225059038923
 11
31.965920212368246
 21
12.52183505903912
  0
LINE
  8
_0-0_
  6
CONTINUOUS
 62
    7
 10
31.966110212367994
 20
12.52183505903912
 11
31.966110212367994
 21
13.752555059038684
  0
LINE
  8
_0-0_
  6
CONTINUOUS
 62
    7
 10
31.966110212367994
 20
13.752555059038684
 11
32.571870212368367
 21
13.752555059038684
  0
LINE
  8
_0-0_
  6
CONTINUOUS
 62
    7
 10
32.571870212368367
 20
13.752555059038684
 11
32.571870212368367
 21
12.52183505903912
  0
LINE
  8
_0-0_
  6
CONTINUOUS
 62
    7
 10
32.571130212367962
 20
12.52183505903912
 11
32.555000212367986
 21
12.323305059039001
  0
LINE
  8
_0-0_
  6
CONTINUOUS
 62
    7
 10
32.555000212367986
 20
12.323305059039001
 11
32.507110212368161
 21
12.130805059038892
  0
LINE
  8
_0-0_
  6
CONTINUOUS
 62
    7
 10
32.507110212368161
 20
12.130805059038892
 11
32.428910212368237
 21
11.950185059038802
  0
LINE
  8
_0-0_
  6
CONTINUOUS
 62
    7
 10
32.428910212368237
 20
11.950185059038802
 11
32.322770212368368
 21
11.786935059039195
  0
LINE
  8
_0-0_
  6
CONTINUOUS
 62
    7
 10
32.322770212368368
 20
11.786935059039195
 11
32.191930212368561
 21
11.646015059038916
  0
LINE
  8
_0-0_
  6
CONTINUOUS
 62
    7
 10
29.01222021236822
 20
11.536415059039143
 11
29.01222021236822
 21
12.321435059038947
  0
LINE
  8
_0-0_
  6
CONTINUOUS
 62
    7
 10
29.01222021236822
 20
12.321435059038947
 11
29.917990212368522
 21
13.784655059039039
  0
LINE
  8
_0-0_
  6
CONTINUOUS
 62
    7
 10
29.917990212368522
 20
13.784655059039039
 11
29.176020212368485
 21
13.784655059039039
  0
LINE
  8
_0-0_
  6
CONTINUOUS
 62
    7
 10
29.176020212368485
 20
13.784655059039039
 11
28.732080212368373
 21
13.067615059039042
  0
LINE
  8
_0-0_
  6
CONTINUOUS
 62
    7
 10
28.732080212368373
 20
13.067615059039042
 11
28.28804021236806
 21
13.784655059039039
  0
LINE
  8
_0-0_
  6
CONTINUOUS
 62
    7
 10
28.28804021236806
 20
13.784655059039039
 11
27.545980212368477
 21
13.784655059039039
  0
LINE
  8
_0-0_
  6
CONTINUOUS
 62
    7
 10
27.545980212368477
 20
13.784655059039039
 11
28.406410212368201
 21
12.394845059038914
  0
LINE
  8
_0-0_
  6
CONTINUOUS
 62
    7
 10
28.406410212368201
 20
12.394845059038914
 11
28.406410212368201
 21
11.536415059039143
  0
LINE
  8
_0-0_
  6
CONTINUOUS
 62
    7
 10
28.406410212368201
 20
11.536415059039143
 11
29.01222021236822
 21
11.536415059039143
  0
LINE
  8
_0-0_
  6
CONTINUOUS
 62
    7
 10
18.251830212368759
 20
28.257425059038781
 11
19.444870212368414
 21
28.257425059038781
  0
LINE
  8
_0-0_
  6
CONTINUOUS
 62
    7
 10
19.444870212368414
 20
27.087225059038758
 11
18.251830212368759
 21
27.087225059038758
  0
LINE
  8
_0-0_
  6
CONTINUOUS
 62
    7
 10
20.311690212368148
 20
26.22025505903872
 11
20.311690212368148
 21
25.027265059038712
  0
LINE
  8
_0-0_
  6
CONTINUOUS
 62
    7
 10
21.481940212368272
 20
25.027265059038712
 11
21.481940212368272
 21
26.22025505903872
  0
LINE
  8
_0-0_
  6
CONTINUOUS
 62
    7
 10
22.348860212368663
 20
27.087225059038758
 11
23.54195021236842
 21
27.087225059038758
  0
LINE
  8
_0-0_
  6
CONTINUOUS
 62
    7
 10
23.54195021236842
 20
28.257425059038781
 11
22.348860212368663
 21
28.257425059038781
  0
LINE
  8
_0-0_
  6
CONTINUOUS
 62
    7
 10
21.481940212368272
 20
29.124395059038818
 11
21.481940212368272
 21
30.317385059038372
  0
LINE
  8
_0-0_
  6
CONTINUOUS
 62
    7
 10
20.311690212368148
 20
30.317385059038372
 11
20.311690212368148
 21
29.124395059038818
  0
CIRCLE
  8
_0-0_
  6
CONTINUOUS
 62
    7
 10
20.896840212368033
 20
27.672375059039098
 40
4.1989502999999999
  0
ARC
  8
_0-0_
  6
CONTINUOUS
 62
    7
 10
19.444870212368414
 20
29.124395059038818
 40
0.8668801000000001
 50
270
 51
0
  0
ARC
  8
_0-0_
  6
CONTINUOUS
 62
    7
 10
22.348860212368663
 20
29.124395059038818
 40
0.8668801000000001
 50
180
 51
270
  0
ARC
  8
_0-0_
  6
CONTINUOUS
 62
    7
 10
22.348860212368663
 20
26.22025505903872
 40
0.8668801000000001
 50
90
 51
180
  0
ARC
  8
_0-0_
  6
CONTINUOUS
 62
    7
 10
19.444870212368414
 20
26.22025505903872
 40
0.8668801000000001
 50
0
 51
90
  0
ARC
  8
_0-0_
  6
CONTINUOUS
 62
    7
 10
20.896840212368033
 20
27.672375059039098
 40
2.7090001000000004
 50
347.52571999999998
 51
12.474273000000045
  0
ARC
  8
_0-0_
  6
CONTINUOUS
 62
    7
 10
20.896840212368033
 20
27.672375059039098
 40
2.7090001000000004
 50
77.525817000000018
 51
102.47418000000003
  0
ARC
  8
_0-0_
  6
CONTINUOUS
 62
    7
 10
20.896840212368033
 20
27.672375059039098
 40
2.7090001000000004
 50
167.52571999999995
 51
192.47426999999996
  0
ARC
  8
_0-0_
  6
CONTINUOUS
 62
    7
 10
20.896840212368033
 20
27.672375059039098
 40
2.7090001000000004
 50
257.52580999999998
 51
282.47417999999999
  0
ARC
  8
_0-0_
  6
CONTINUOUS
 62
    7
 10
39.396790212368387
 20
46.172375059039098
 40
1.5
 50
0
 51
90.000000000000028
  0
ARC
  8
_0-0_
  6
CONTINUOUS
 62
    7
 10
2.3967902123683871
 20
46.172375059039098
 40
1.5
 50
90
 51
180
  0
ARC
  8
_0-0_
  6
CONTINUOUS
 62
    7
 10
2.3967902123683871
 20
9.1723750590392115
 40
1.5
 50
180
 51
270
  0
ARC
  8
_0-0_
  6
CONTINUOUS
 62
    7
 10
39.396790212368387
 20
9.1723750590392115
 40
1.5
 50
270
 51
0
  0
ARC
  8
_0-0_
  6
CONTINUOUS
 62
    7
 10
36.682570212368546
 20
14.172315059038453
 40
0.4999999
 50
0
 51
90
  0
ARC
  8
_0-0_
  6
CONTINUOUS
 62
    7
 10
36.682570212368546
 20
11.172375059038757
 40
0.4999999
 50
270
 51
0
  0
ARC
  8
_0-0_
  6
CONTINUOUS
 62
    7
 10
27.682580212368293
 20
11.172375059038757
 40
0.4999999
 50
180
 51
270
  0
ARC
  8
_0-0_
  6
CONTINUOUS
 62
    7
 10
27.682580212368293
 20
14.172315059038453
 40
0.4999999
 50
90
 51
180
  0
LINE
  8
_0-0_
  6
CONTINUOUS
 62
    7
 10
75.582075747061026
 20
47.672375059039211
 11
74.082075747061026
 21
47.672375059039211
  0
LINE
  8
_0-0_
  6
CONTINUOUS
 62
    7
 10
72.582075747061026
 20
46.172375059039211
 11
72.582075747061026
 21
9.1723750590392115
  0
LINE
  8
_0-0_
  6
CONTINUOUS
 62
    7
 10
74.082075747061026
 20
7.6723750590392115
 11
75.582075747061026
 21
7.6723750590392115
  0
LINE
  8
_0-0_
  6
CONTINUOUS
 62
    7
 10
75.582075747061026
 20
7.6723750590392115
 11
75.582075747061026
 21
47.672375059039211
  0
LINE
  8
_0-0_
  6
CONTINUOUS
 62
    7
 10
75.582075747061026
 20
31.672375059039211
 11
78.582075747061026
 21
31.672375059039211
  0
LINE
  8
_0-0_
  6
CONTINUOUS
 62
    7
 10
78.582075747061026
 20
31.672375059039211
 11
84.634411703304067
 21
31.355185572097696
  0
LINE
  8
_0-0_
  6
CONTINUOUS
 62
    7
 10
85.58207574706114
 20
30.356556037343296
 11
85.58207574706114
 21
29.213711797378153
  0
LINE
  8
_0-0_
  6
CONTINUOUS
 62
    7
 10
78.582075747061026
 20
28.372375059039484
 11
85.108243725182547
 21
28.714397030000725
  0
LINE
  8
_0-0_
  6
CONTINUOUS
 62
    7
 10
75.582075747061026
 20
23.672375059039211
 11
78.582075747061026
 21
23.672375059039211
  0
LINE
  8
_0-0_
  6
CONTINUOUS
 62
    7
 10
78.582075747061026
 20
23.672375059039211
 11
84.634411703304067
 21
23.989564545980727
  0
LINE
  8
_0-0_
  6
CONTINUOUS
 62
    7
 10
85.58207574706114
 20
24.988194080735582
 11
85.58207574706114
 21
26.131038320700497
  0
LINE
  8
_0-0_
  6
CONTINUOUS
 62
    7
 10
78.582075747061026
 20
26.972375059039393
 11
85.108243725182547
 21
26.630353088077925
  0
LINE
  8
_0-0_
  6
CONTINUOUS
 62
    7
 10
78.582075747061026
 20
31.672375059039211
 11
78.582075747061026
 21
23.672375059039211
  0
ARC
  8
_0-0_
  6
CONTINUOUS
 62
    7
 10
84.58207574706114
 20
30.356556037343296
 40
1
 50
0.0000000000000063
 51
87.000000000000142
  0
ARC
  8
_0-0_
  6
CONTINUOUS
 62
    7
 10
84.58207574706114
 20
24.988194080735582
 40
1
 50
273.00000000000028
 51
0
  0
ARC
  8
_0-0_
  6
CONTINUOUS
 62
    7
 10
79.282075747061072
 20
27.636650255739767
 40
0.7
 50
180
 51
267.00000000000006
  0
ARC
  8
_0-0_
  6
CONTINUOUS
 62
    7
 10
79.282075747061072
 20
27.708099862338884
 40
0.7
 50
93.000000000000455
 51
180
  0
ARC
  8
_0-0_
  6
CONTINUOUS
 62
    7
 10
85.08207574706114
 20
26.131038320700497
 40
0.5
 50
0.0000000000000127
 51
87.000000000000014
  0
ARC
  8
_0-0_
  6
CONTINUOUS
 62
    7
 10
85.08207574706114
 20
29.213711797378153
 40
0.5
 50
273.00000000000068
 51
0
  0
ARC
  8
_0-0_
  6
CONTINUOUS
 62
    7
 10
74.082075747061026
 20
46.172375059039211
 40
1.5
 50
90
 51
180
  0
ARC
  8
_0-0_
  6
CONTINUOUS
 62
    7
 10
74.082075747061026
 20
9.1723750590392115
 40
1.5
 50
180
 51
270
  0
LINE
  8
_0-0_
  6
CONTINUOUS
 62
    7
 10
18.687091517422004
 20
90.38999484209404
 11
23.10648890731477
 21
90.38999484209404
  0
LINE
  8
_0-0_
  6
CONTINUOUS
 62
    7
 10
24.604433209446597
 20
88.968498776458375
 11
24.896790212368387
 21
83.389994842093699
  0
LINE
  8
_0-0_
  6
CONTINUOUS
 62
    7
 10
13.396790212368387
 20
83.389994842093927
 11
28.396790212368387
 21
83.389994842093927
  0
LINE
  8
_0-0_
  6
CONTINUOUS
 62
    7
 10
0.8967902123686144
 20
80.389994842093927
 11
0.8967902123686144
 21
78.889994842093927
  0
LINE
  8
_0-0_
  6
CONTINUOUS
 62
    7
 10
2.3967902123686144
 20
77.389994842093927
 11
39.396790212368387
 21
77.389994842093927
  0
LINE
  8
_0-0_
  6
CONTINUOUS
 62
    7
 10
40.896790212368387
 20
78.889994842093927
 11
40.896790212368387
 21
80.389994842093927
  0
LINE
  8
_0-0_
  6
CONTINUOUS
 62
    7
 10
16.896790212368387
 20
83.389994842094154
 11
17.18914721528995
 21
88.968498776458375
  0
ARC
  8
_0-0_
  6
CONTINUOUS
 62
    7
 10
13.396790212368387
 20
82.889994842093927
 40
0.5
 50
90
 51
180
  0
ARC
  8
_0-0_
  6
CONTINUOUS
 62
    7
 10
28.396790212368387
 20
82.889994842093927
 40
0.5
 50
0
 51
90
  0
ARC
  8
_0-0_
  6
CONTINUOUS
 62
    7
 10
2.3967902123686144
 20
78.889994842093927
 40
1.4999999999999993
 50
180
 51
270
  0
ARC
  8
_0-0_
  6
CONTINUOUS
 62
    7
 10
18.687091517422004
 20
88.88999484209404
 40
1.5
 50
90
 51
177.00000000000068
  0
ARC
  8
_0-0_
  6
CONTINUOUS
 62
    7
 10
23.10648890731477
 20
88.88999484209404
 40
1.5
 50
3.0000000000002718
 51
89.999999999999986
  0
ARC
  8
_0-0_
  6
CONTINUOUS
 62
    7
 10
39.396790212368387
 20
78.889994842093927
 40
1.4999999999999993
 50
270
 51
0
  0
LINE
  8
_0-0_
  6
CONTINUOUS
 62
    7
 10
12.896790212368387
 20
82.889994842093927
 11
12.896790212368387
 21
80.389994842093927
  0
LINE
  8
_0-0_
  6
CONTINUOUS
 62
    7
 10
28.896790212368387
 20
82.889994842093927
 11
28.896790212368387
 21
80.389994842093927
  0
LINE
  8
_0-0_
  6
CONTINUOUS
 62
    7
 10
0.8967902123686144
 20
80.389994842093927
 11
40.896790212368387
 21
80.389994842093927
  0
LINE
  8
_0-1_
  6
CENTER2
 62
  152
 10
25.896810212368791
 20
27.672375059039098
 11
15.896770212367983
 21
27.672375059039098
  0
LINE
  8
_0-1_
  6
CENTER2
 62
  152
 10
20.896790212368387
 20
32.672345059038491
 11
20.896790212368387
 21
22.672375059039098
  0
LINE
  8
_0-1_
  6
CENTER2
 62
  152
 10
20.896790212368387
 20
91.672469523768314
 11
20.896790212368387
 21
75.695910977931931
  0
LINE
  8
_0-1_
  6
CENTER2
 62
  152
 10
70.734875612193264
 20
27.672375059039211
 11
88.051747092804476
 21
27.672375059039211
  0
ENDSEC
  0
EOF
