  0
SECTION
  2
HEADER
  9
$ACADVER
  1
AC1009
  9
$INSBASE
 10
0
 20
0
 30
0
  9
$EXTMIN
 10
0
 20
0
  9
$EXTMAX
 10
1189
 20
841
  9
$LIMMIN
 10
0
 20
0
  9
$LIMMAX
 10
1189
 20
841
  9
$LTSCALE
 40
1
  0
ENDSEC
  0
SECTION
  2
TABLES
  0
TABLE
  2
LTYPE
 70
     9
  0
LTYPE
  2
CONTINUOUS
 70
    64
  3
実線
 72
    65
 73
     0
 40
0.0
  0
LTYPE
  2
DASHED1
 70
    64
  3
--  --  --  --  --  --  --  --  
 72
    65
 73
     2
 40
2.5
 49
1.25
 49
-1.25
  0
LTYPE
  2
DASHED2
 70
    64
  3
----    ----    ----    ----    
 72
    65
 73
     2
 40
5.0
 49
2.5
 49
-2.5
  0
LTYPE
  2
DASHED3
 70
    64
  3
------  ------  ------  ------  
 72
    65
 73
     2
 40
5.0
 49
3.75
 49
-1.25
  0
LTYPE
  2
CENTER1
 70
    64
  3
----- - ----- - ----- - ----- - 
 72
    65
 73
     4
 40
10.0
 49
6.25
 49
-1.25
 49
1.25
 49
-1.25
  0
LTYPE
  2
CENTER2
 70
    64
  3
----------  --  ----------  --  
 72
    65
 73
     4
 40
20.0
 49
12.5
 49
-2.5
 49
2.5
 49
-2.5
  0
LTYPE
  2
PHANTOM1
 70
    64
  3
--- - - --- - - --- - - --- - - 
 72
    65
 73
     6
 40
10.0
 49
3.25
 49
-1.25
 49
1.25
 49
-1.25
 49
1.25
 49
-1.25
  0
LTYPE
  2
PHANTOM2
 70
    64
  3
--------  -  -  --------  -  -  
 72
    65
 73
     6
 40
20.0
 49
10.0
 49
-2.5
 49
1.25
 49
-2.5
 49
1.25
 49
-2.5
  0
LTYPE
  2
DOT
 70
    64
  3
-   -   -   -   -   -   -   -   
 72
    65
 73
     2
 40
2.5
 49
0.625
 49
-1.875
  0
LTYPE
  2
DUMMY
 70
    64
  3
ダミー
 72
    65
 73
     0
 40
0.0
  0
LTYPE
  2
RAND1
 70
    64
  3
ランダム線1
 72
    65
 73
     4
 40
10.0
 49
1.0
 49
-2.0
 49
3.0
 49
-4.0
  0
LTYPE
  2
RAND2
 70
    64
  3
ランダム線2
 72
    65
 73
     4
 40
14.0
 49
2.0
 49
-3.0
 49
4.0
 49
-5.0
  0
LTYPE
  2
RAND3
 70
    64
  3
ランダム線3
 72
    65
 73
     4
 40
18.0
 49
3.0
 49
-4.0
 49
5.0
 49
-6.0
  0
LTYPE
  2
RAND4
 70
    64
  3
ランダム線4
 72
    65
 73
     4
 40
22.0
 49
4.0
 49
-5.0
 49
6.0
 49
-7.0
  0
LTYPE
  2
RAND5
 70
    64
  3
ランダム線5
 72
    65
 73
     4
 40
26.0
 49
5.0
 49
-6.0
 49
7.0
 49
-8.0
  0
LTYPE
  2
LONG1
 70
    64
  3
----------  --  ----------  --  
 72
    65
 73
     4
 40
40.0
 49
32.5
 49
-2.5
 49
2.5
 49
-2.5
  0
LTYPE
  2
LONG2
 70
    64
  3
--------  -  -  --------  -  -  
 72
    65
 73
     6
 40
40.0
 49
30.0
 49
-2.5
 49
1.25
 49
-2.5
 49
1.25
 49
-2.5
  0
LTYPE
  2
LONG3
 70
    64
  3
+++++++++++++++..+++++++++++++++
 72
    65
 73
     2
 40
40.0
 49
37.5
 49
-2.5
  0
LTYPE
  2
LONG4
 70
    64
  3
+++++++++++++++..+++++++++++++++
 72
    65
 73
     2
 40
80.0
 49
75.0
 49
-5.0
  0
LTYPE
  2
LONG5
 70
    64
  3
----------  --  ----------  --  
 72
    65
 73
     4
 40
60.0
 49
37.5
 49
-7.5
 49
7.5
 49
-7.5
  0
LTYPE
  2
dashed
 70
   64
  3
-------   -------------   ------
 72
   65
 73
    2
 40
7.5
 49
6
 49
-1.5
  0
LTYPE
  2
dashed_spaced
 70
   64
  3
----        --------        ----
 72
   65
 73
    2
 40
12
 49
6
 49
-6
  0
LTYPE
  2
long_dashed_dotted
 70
   64
  3
------------- --- --------------
 72
   65
 73
    4
 40
15.25
 49
12
 49
-1.5
 49
0.25
 49
-1.5
  0
LTYPE
  2
long_dashed_double-dotted
 70
   64
  3
----------- --- --- ------------
 72
   65
 73
    6
 40
17
 49
12
 49
-1.5
 49
0.25
 49
-1.5
 49
0.25
 49
-1.5
  0
LTYPE
  2
long_dashed_triplicate-dotted
 70
   64
  3
--------- --- --- --- ----------
 72
   65
 73
    8
 40
18.75
 49
12
 49
-1.5
 49
0.25
 49
-1.5
 49
0.25
 49
-1.5
 49
0.25
 49
-1.5
  0
LTYPE
  2
dotted
 70
   64
  3
   -       -       -       -    
 72
   65
 73
    2
 40
1.75
 49
0.25
 49
-1.5
  0
LTYPE
  2
chain
 70
   64
  3
-------------- -- --------------
 72
   65
 73
    4
 40
18.5
 49
12
 49
-1.5
 49
3.5
 49
-1.5
  0
LTYPE
  2
chain_double_dash
 70
   64
  3
------------ -- -- -------------
 72
   65
 73
    6
 40
23.5
 49
12
 49
-1.5
 49
3.5
 49
-1.5
 49
3.5
 49
-1.5
  0
LTYPE
  2
dashed_dotted
 70
   64
  3
-----------     -     ----------
 72
   65
 73
    4
 40
9.25
 49
6
 49
-1.5
 49
0.25
 49
-1.5
  0
LTYPE
  2
double-dashed_dotted
 70
   64
  3
------   -----------   -   -----
 72
   65
 73
    6
 40
16.75
 49
6
 49
-1.5
 49
6
 49
-1.5
 49
0.25
 49
-1.5
  0
LTYPE
  2
dashed_double-dotted
 70
   64
  3
---------    -    -    ---------
 72
   65
 73
    6
 40
11
 49
6
 49
-1.5
 49
0.25
 49
-1.5
 49
0.25
 49
-1.5
  0
LTYPE
  2
double-dashed_double-dotted
 70
   64
  3
-----   ---------   -   -   ----
 72
   65
 73
    8
 40
18.5
 49
6
 49
-1.5
 49
6
 49
-1.5
 49
0.25
 49
-1.5
 49
0.25
 49
-1.5
  0
LTYPE
  2
dashed_triplicate-dotted
 70
   64
  3
-------    -    -    -    ------
 72
   65
 73
    8
 40
12.75
 49
6
 49
-1.5
 49
0.25
 49
-1.5
 49
0.25
 49
-1.5
 49
0.25
 49
-1.5
  0
LTYPE
  2
double-dashed_triplicate-dotted
 70
   64
  3
-----  ---------  -  -  -  -----
 72
   65
 73
   10
 40
20.25
 49
6
 49
-1.5
 49
6
 49
-1.5
 49
0.25
 49
-1.5
 49
0.25
 49
-1.5
 49
0.25
 49
-1.5
  0
LTYPE
  2
undefined
 70
   64
  3
--------------------------------
 72
   65
 73
    0
 40
0
  0
ENDTAB
  0
TABLE
  2
STYLE
  5
3
100
AcDbSymbolTable
 70
     1
  0
STYLE
  5
10
100
AcDbSymbolTableRecord
100
AcDbTextStyleTableRecord
  2
STANDARD
 70
     0
 40
0.0
 41
1.0
 50
0.0
 71
     0
 42
0.2
  3
txt
  4
bigfont.shx
  0
STYLE
  5
26
100
AcDbSymbolTableRecord
100
AcDbTextStyleTableRecord
  2
TATEGAKI
 70
    68
 40
0.0
 41
1.0
 50
0.0
 71
     0
 42
1.0
  3
txt
  4
bigfont.shx
  0
ENDTAB
  0
TABLE
  2
LAYER
 70
    4
  0
LAYER
  2
_0-0_
 70
   64
 62
    7
  6
CONTINUOUS
  0
LAYER
  2
_0-1_
 70
   64
 62
    7
  6
CONTINUOUS
  0
LAYER
  2
_0-f_
 70
   64
 62
    7
  6
CONTINUOUS
  0
LAYER
  2
ADD_LINE
 70
   64
 62
    7
  6
CONTINUOUS
  0
ENDTAB
  0
ENDSEC
  0
SECTION
  2
BLOCKS
  0
ENDSEC
  0
SECTION
  2
ENTITIES
  0
TEXT
  8
_0-f_
 62
    7
 10
0.9773856011607904
 20
0.7814168479897034
 40
4.2999999999999998
 41
0.744186046511628
 50
0
  1
EP34_EP34S
  0
LINE
  8
_0-0_
  6
CONTINUOUS
 62
    7
 10
77.083305757293829
 20
31.241542739455781
 11
77.083305757293829
 21
23.041542739455963
  0
LINE
  8
_0-0_
  6
CONTINUOUS
 62
    7
 10
77.083305757293829
 20
23.041542739455963
 11
79.583305757293829
 21
23.041542739455963
  0
LINE
  8
_0-0_
  6
CONTINUOUS
 62
    7
 10
79.583305757293829
 20
23.041542739455963
 11
84.109482705601579
 21
23.160064854032498
  0
LINE
  8
_0-0_
  6
CONTINUOUS
 62
    7
 10
84.609473735415179
 20
26.178132437418981
 11
79.583305757293829
 21
26.441542739456054
  0
LINE
  8
_0-0_
  6
CONTINUOUS
 62
    7
 10
79.583305757293829
 20
26.441542739456054
 11
79.583305757293829
 21
27.841542739455917
  0
LINE
  8
_0-0_
  6
CONTINUOUS
 62
    7
 10
79.583305757293829
 20
27.841542739455917
 11
84.609473735415179
 21
28.104953041492763
  0
LINE
  8
_0-0_
  6
CONTINUOUS
 62
    7
 10
84.109482705601579
 20
31.123020624879246
 11
79.583305757293829
 21
31.241542739455781
  0
LINE
  8
_0-0_
  6
CONTINUOUS
 62
    7
 10
79.583305757293829
 20
31.241542739455781
 11
77.083305757293829
 21
31.241542739455781
  0
LINE
  8
_0-0_
  6
CONTINUOUS
 62
    7
 10
85.083305757293772
 20
24.159722179007986
 11
85.083305757293772
 21
25.678817670041781
  0
LINE
  8
_0-0_
  6
CONTINUOUS
 62
    7
 10
85.083305757293772
 20
28.60426780887019
 11
85.083305757293772
 21
30.123363299903758
  0
ARC
  8
_0-0_
  6
CONTINUOUS
 62
    7
 10
84.083305757293772
 20
30.123363299903758
 40
1
 50
0
 51
88.499999999999943
  0
ARC
  8
_0-0_
  6
CONTINUOUS
 62
    7
 10
84.083305757293772
 20
24.159722179007986
 40
1
 50
271.49999999999972
 51
359.99999999999994
  0
ARC
  8
_0-0_
  6
CONTINUOUS
 62
    7
 10
84.583305757293772
 20
28.60426780887019
 40
0.5
 50
273.00000000000011
 51
359.99999999999994
  0
ARC
  8
_0-0_
  6
CONTINUOUS
 62
    7
 10
84.583305757293772
 20
25.678817670041781
 40
0.5
 50
0
 51
87.000000000000142
  0
LINE
  8
_0-0_
  6
CONTINUOUS
 62
    7
 10
71.983305757293692
 20
8.6414727394553665
 11
71.983305757293692
 21
35.641572739455569
  0
LINE
  8
_0-0_
  6
CONTINUOUS
 62
    7
 10
73.483305757293692
 20
37.141572739455569
 11
74.983305757293692
 21
37.141572739455569
  0
LINE
  8
_0-0_
  6
CONTINUOUS
 62
    7
 10
74.983305757293692
 20
37.141492739456226
 11
74.983305757293692
 21
7.141472739456276
  0
LINE
  8
_0-0_
  6
CONTINUOUS
 62
    7
 10
74.983305757293692
 20
7.1414727394553665
 11
73.483305757293692
 21
7.1414727394553665
  0
ARC
  8
_0-0_
  6
CONTINUOUS
 62
    7
 10
73.483305757293692
 20
8.6414727394553665
 40
1.5
 50
180
 51
270
  0
ARC
  8
_0-0_
  6
CONTINUOUS
 62
    7
 10
73.483305757293692
 20
35.641572739455569
 40
1.5
 50
90
 51
180
  0
LINE
  8
_0-0_
  6
CONTINUOUS
 62
    7
 10
74.983305757293692
 20
31.241542739455895
 11
76.583305757293829
 21
31.241542739455895
  0
LINE
  8
_0-0_
  6
CONTINUOUS
 62
    7
 10
76.583305757293829
 20
23.041542739455849
 11
76.583305757293829
 21
31.241542739455895
  0
LINE
  8
_0-0_
  6
CONTINUOUS
 62
    7
 10
74.983305757293692
 20
23.041542739455849
 11
76.583305757293829
 21
23.041542739455849
  0
LINE
  8
_0-0_
  6
CONTINUOUS
 62
    7
 10
1.3766286034974655
 20
80.748209893251101
 11
1.3766286034974655
 21
79.248209893251101
  0
ARC
  8
_0-0_
  6
CONTINUOUS
 62
    7
 10
2.8766286034974655
 20
79.248209893251101
 40
1.5
 50
180
 51
270
  0
LINE
  8
_0-0_
  6
CONTINUOUS
 62
    7
 10
25.47669860349788
 20
80.748209893251101
 11
25.47669860349788
 21
82.348209893251124
  0
LINE
  8
_0-0_
  6
CONTINUOUS
 62
    7
 10
17.276698603497834
 20
82.348209893251124
 11
25.47669860349788
 21
82.348209893251124
  0
LINE
  8
_0-0_
  6
CONTINUOUS
 62
    7
 10
17.276698603497834
 20
80.748209893251101
 11
17.276698603497834
 21
82.348209893251124
  0
LINE
  8
_0-0_
  6
CONTINUOUS
 62
    7
 10
25.235246719170618
 20
90.848209893251124
 11
17.518150487825324
 21
90.848209893251124
  0
LINE
  8
_0-0_
  6
CONTINUOUS
 62
    7
 10
16.219112382148751
 20
90.09820989325101
 11
13.47669860349788
 21
85.348209893251124
  0
LINE
  8
_0-0_
  6
CONTINUOUS
 62
    7
 10
13.47669860349788
 20
85.348209893251124
 11
13.47669860349788
 21
82.848209893251124
  0
LINE
  8
_0-0_
  6
CONTINUOUS
 62
    7
 10
13.47669860349788
 20
82.848209893251124
 11
29.276698603497834
 21
82.848209893251124
  0
LINE
  8
_0-0_
  6
CONTINUOUS
 62
    7
 10
29.276698603497834
 20
82.848209893251124
 11
29.276698603497834
 21
85.348209893251124
  0
LINE
  8
_0-0_
  6
CONTINUOUS
 62
    7
 10
29.276698603497834
 20
85.348209893251124
 11
26.534284824847191
 21
90.09820989325101
  0
ARC
  8
_0-0_
  6
CONTINUOUS
 62
    7
 10
17.518150487825324
 20
89.348209893251124
 40
1.5
 50
90
 51
150.00000000000003
  0
ARC
  8
_0-0_
  6
CONTINUOUS
 62
    7
 10
25.235246719170618
 20
89.348209893251124
 40
1.5
 50
29.999999999999964
 51
90
  0
LINE
  8
_0-0_
  6
CONTINUOUS
 62
    7
 10
41.376668603498274
 20
8.6415427394558719
 11
41.376668603498274
 21
35.641542739455872
  0
LINE
  8
_0-0_
  6
CONTINUOUS
 62
    7
 10
39.876668603498274
 20
37.141542739455872
 11
2.876668603498274
 21
37.141542739455872
  0
LINE
  8
_0-0_
  6
CONTINUOUS
 62
    7
 10
1.376668603498274
 20
35.641542739455872
 11
1.376668603498274
 21
8.6415427394558719
  0
LINE
  8
_0-0_
  6
CONTINUOUS
 62
    7
 10
2.876668603498274
 20
7.1415427394558719
 11
39.876668603498274
 21
7.1415427394558719
  0
LINE
  8
_0-0_
  6
CONTINUOUS
 62
    7
 10
37.876618603498628
 20
10.14153273945567
 11
28.876678603498931
 21
10.14153273945567
  0
LINE
  8
_0-0_
  6
CONTINUOUS
 62
    7
 10
28.376648603498779
 20
10.641562739455821
 11
28.376648603498779
 21
13.641522739455922
  0
LINE
  8
_0-0_
  6
CONTINUOUS
 62
    7
 10
28.740028603498558
 20
13.253872739455801
 11
29.600458603498282
 21
11.864082739455625
  0
LINE
  8
_0-0_
  6
CONTINUOUS
 62
    7
 10
29.600458603498282
 20
11.864082739455625
 11
29.600458603498282
 21
11.005632739455905
  0
LINE
  8
_0-0_
  6
CONTINUOUS
 62
    7
 10
29.600458603498282
 20
11.005632739455905
 11
30.206268603498302
 21
11.005632739455905
  0
LINE
  8
_0-0_
  6
CONTINUOUS
 62
    7
 10
30.206268603498302
 20
11.005632739455905
 11
30.206268603498302
 21
11.790632739455759
  0
LINE
  8
_0-0_
  6
CONTINUOUS
 62
    7
 10
30.206268603498302
 20
11.790632739455759
 11
31.112138603498806
 21
13.253872739455801
  0
LINE
  8
_0-0_
  6
CONTINUOUS
 62
    7
 10
31.112138603498806
 20
13.253872739455801
 11
30.370068603498567
 21
13.253872739455801
  0
LINE
  8
_0-0_
  6
CONTINUOUS
 62
    7
 10
30.370068603498567
 20
13.253872739455801
 11
29.926128603498455
 21
12.536802739455652
  0
LINE
  8
_0-0_
  6
CONTINUOUS
 62
    7
 10
29.926128603498455
 20
12.536802739455652
 11
29.482138603498697
 21
13.253872739455801
  0
LINE
  8
_0-0_
  6
CONTINUOUS
 62
    7
 10
29.482138603498697
 20
13.253872739455801
 11
28.740028603498558
 21
13.253872739455801
  0
LINE
  8
_0-0_
  6
CONTINUOUS
 62
    7
 10
28.876678603498931
 20
14.141552739455619
 11
37.876618603498628
 21
14.141552739455619
  0
LINE
  8
_0-0_
  6
CONTINUOUS
 62
    7
 10
37.860518603498804
 20
13.221762739455698
 11
37.860518603498804
 21
10.9734227394556
  0
LINE
  8
_0-0_
  6
CONTINUOUS
 62
    7
 10
37.860518603498804
 20
10.9734227394556
 11
37.254658603498228
 21
10.9734227394556
  0
LINE
  8
_0-0_
  6
CONTINUOUS
 62
    7
 10
37.254658603498228
 20
10.9734227394556
 11
37.254658603498228
 21
13.221762739455698
  0
LINE
  8
_0-0_
  6
CONTINUOUS
 62
    7
 10
37.254658603498228
 20
13.221762739455698
 11
37.860518603498804
 21
13.221762739455698
  0
LINE
  8
_0-0_
  6
CONTINUOUS
 62
    7
 10
38.376648603498779
 20
13.641522739455922
 11
38.376648603498779
 21
10.641562739455821
  0
LINE
  8
_0-0_
  6
CONTINUOUS
 62
    7
 10
36.673478603498552
 20
10.9734227394556
 11
35.701808603498193
 21
12.230532739455612
  0
LINE
  8
_0-0_
  6
CONTINUOUS
 62
    7
 10
35.701808603498193
 20
12.230532739455612
 11
36.673478603498552
 21
13.221762739455698
  0
LINE
  8
_0-0_
  6
CONTINUOUS
 62
    7
 10
36.673478603498552
 20
13.221762739455698
 11
35.763898603498546
 21
13.221762739455698
  0
LINE
  8
_0-0_
  6
CONTINUOUS
 62
    7
 10
35.763898603498546
 20
13.221762739455698
 11
35.154768603498724
 21
12.600442739455957
  0
LINE
  8
_0-0_
  6
CONTINUOUS
 62
    7
 10
35.154768603498724
 20
12.600442739455957
 11
35.154768603498724
 21
13.221762739455698
  0
LINE
  8
_0-0_
  6
CONTINUOUS
 62
    7
 10
35.154768603498724
 20
13.221762739455698
 11
34.548908603498148
 21
13.221762739455698
  0
LINE
  8
_0-0_
  6
CONTINUOUS
 62
    7
 10
34.548908603498148
 20
13.221762739455698
 11
34.548908603498148
 21
10.977682739455759
  0
LINE
  8
_0-0_
  6
CONTINUOUS
 62
    7
 10
34.548908603498148
 20
10.977682739455759
 11
35.154768603498724
 21
10.977682739455759
  0
LINE
  8
_0-0_
  6
CONTINUOUS
 62
    7
 10
35.154768603498724
 20
10.977682739455759
 11
35.154768603498724
 21
11.672532739456074
  0
LINE
  8
_0-0_
  6
CONTINUOUS
 62
    7
 10
35.154768603498724
 20
11.672532739456074
 11
35.249898603498423
 21
11.769542739455574
  0
LINE
  8
_0-0_
  6
CONTINUOUS
 62
    7
 10
35.249898603498423
 20
11.769542739455574
 11
35.865268603498862
 21
10.9734227394556
  0
LINE
  8
_0-0_
  6
CONTINUOUS
 62
    7
 10
35.865268603498862
 20
10.9734227394556
 11
36.673478603498552
 21
10.9734227394556
  0
LINE
  8
_0-0_
  6
CONTINUOUS
 62
    7
 10
33.386028603498289
 20
11.115202739455981
 11
33.516868603498096
 21
11.256122739455805
  0
LINE
  8
_0-0_
  6
CONTINUOUS
 62
    7
 10
33.516868603498096
 20
11.256122739455805
 11
33.623008603498874
 21
11.419372739455866
  0
LINE
  8
_0-0_
  6
CONTINUOUS
 62
    7
 10
33.623008603498874
 20
11.419372739455866
 11
33.701208603498799
 21
11.599992739455956
  0
LINE
  8
_0-0_
  6
CONTINUOUS
 62
    7
 10
33.701208603498799
 20
11.599992739455956
 11
33.749098603498624
 21
11.792492739455611
  0
LINE
  8
_0-0_
  6
CONTINUOUS
 62
    7
 10
33.749098603498624
 20
11.792492739455611
 11
33.765228603498599
 21
11.99102273945573
  0
LINE
  8
_0-0_
  6
CONTINUOUS
 62
    7
 10
33.76596860349855
 20
11.99102273945573
 11
33.76596860349855
 21
13.221762739455698
  0
LINE
  8
_0-0_
  6
CONTINUOUS
 62
    7
 10
33.76596860349855
 20
13.221762739455698
 11
33.160108603498429
 21
13.221762739455698
  0
LINE
  8
_0-0_
  6
CONTINUOUS
 62
    7
 10
33.160108603498429
 20
13.221762739455698
 11
33.160108603498429
 21
11.99102273945573
  0
LINE
  8
_0-0_
  6
CONTINUOUS
 62
    7
 10
33.160018603498429
 20
11.99102273945573
 11
33.153088603498418
 21
11.900412739455987
  0
LINE
  8
_0-0_
  6
CONTINUOUS
 62
    7
 10
33.153088603498418
 20
11.900412739455987
 11
33.132498603498334
 21
11.812562739456098
  0
LINE
  8
_0-0_
  6
CONTINUOUS
 62
    7
 10
33.132498603498334
 20
11.812562739456098
 11
33.098878603498179
 21
11.730132739455712
  0
LINE
  8
_0-0_
  6
CONTINUOUS
 62
    7
 10
33.098878603498179
 20
11.730132739455712
 11
33.053258603498307
 21
11.655632739455541
  0
LINE
  8
_0-0_
  6
CONTINUOUS
 62
    7
 10
33.053258603498307
 20
11.655632739455541
 11
32.997008603498671
 21
11.591322739455791
  0
LINE
  8
_0-0_
  6
CONTINUOUS
 62
    7
 10
32.997008603498671
 20
11.591322739455791
 11
32.931848603498565
 21
11.539152739455858
  0
LINE
  8
_0-0_
  6
CONTINUOUS
 62
    7
 10
32.931848603498565
 20
11.539152739455858
 11
32.859758603498904
 21
11.500712739455594
  0
LINE
  8
_0-0_
  6
CONTINUOUS
 62
    7
 10
32.859758603498904
 20
11.500712739455594
 11
32.782918603498274
 21
11.477182739455657
  0
LINE
  8
_0-0_
  6
CONTINUOUS
 62
    7
 10
32.782918603498274
 20
11.477182739455657
 11
32.703678603498247
 21
11.469252739455897
  0
LINE
  8
_0-0_
  6
CONTINUOUS
 62
    7
 10
32.703678603498247
 20
11.469252739455897
 11
32.62443860349822
 21
11.477182739455657
  0
LINE
  8
_0-0_
  6
CONTINUOUS
 62
    7
 10
32.62443860349822
 20
11.477182739455657
 11
32.547608603498247
 21
11.500712739455594
  0
LINE
  8
_0-0_
  6
CONTINUOUS
 62
    7
 10
32.547608603498247
 20
11.500712739455594
 11
32.475508603498838
 21
11.539152739455858
  0
LINE
  8
_0-0_
  6
CONTINUOUS
 62
    7
 10
32.475508603498838
 20
11.539152739455858
 11
32.410348603498733
 21
11.591322739455791
  0
LINE
  8
_0-0_
  6
CONTINUOUS
 62
    7
 10
32.410348603498733
 20
11.591322739455791
 11
32.354108603498844
 21
11.655632739455541
  0
LINE
  8
_0-0_
  6
CONTINUOUS
 62
    7
 10
32.354108603498844
 20
11.655632739455541
 11
32.308478603498315
 21
11.730132739455712
  0
LINE
  8
_0-0_
  6
CONTINUOUS
 62
    7
 10
32.308478603498315
 20
11.730132739455712
 11
32.27485860349816
 21
11.812562739456098
  0
LINE
  8
_0-0_
  6
CONTINUOUS
 62
    7
 10
32.27485860349816
 20
11.812562739456098
 11
32.254278603498733
 21
11.900412739455987
  0
LINE
  8
_0-0_
  6
CONTINUOUS
 62
    7
 10
32.254278603498733
 20
11.900412739455987
 11
32.24733860349852
 21
11.99102273945573
  0
LINE
  8
_0-0_
  6
CONTINUOUS
 62
    7
 10
32.24695860349857
 20
11.99102273945573
 11
32.24695860349857
 21
13.221762739455698
  0
LINE
  8
_0-0_
  6
CONTINUOUS
 62
    7
 10
32.24695860349857
 20
13.221762739455698
 11
31.641298603498853
 21
13.221762739455698
  0
LINE
  8
_0-0_
  6
CONTINUOUS
 62
    7
 10
31.641298603498853
 20
13.221762739455698
 11
31.641298603498853
 21
11.99102273945573
  0
LINE
  8
_0-0_
  6
CONTINUOUS
 62
    7
 10
31.642138603498552
 20
11.99102273945573
 11
31.65825860349878
 21
11.792492739455611
  0
LINE
  8
_0-0_
  6
CONTINUOUS
 62
    7
 10
31.65825860349878
 20
11.792492739455611
 11
31.706148603498605
 21
11.599992739455956
  0
LINE
  8
_0-0_
  6
CONTINUOUS
 62
    7
 10
31.706148603498605
 20
11.599992739455956
 11
31.784358603498276
 21
11.419372739455866
  0
LINE
  8
_0-0_
  6
CONTINUOUS
 62
    7
 10
31.784358603498276
 20
11.419372739455866
 11
31.890488603498397
 21
11.256122739455805
  0
LINE
  8
_0-0_
  6
CONTINUOUS
 62
    7
 10
31.890488603498397
 20
11.256122739455805
 11
32.021328603498205
 21
11.115202739455981
  0
LINE
  8
_0-0_
  6
CONTINUOUS
 62
    7
 10
32.021328603498205
 20
11.115202739455981
 11
32.172908603498854
 21
11.000902739455796
  0
LINE
  8
_0-0_
  6
CONTINUOUS
 62
    7
 10
32.172908603498854
 20
11.000902739455796
 11
32.340608603498822
 21
10.916672739455862
  0
LINE
  8
_0-0_
  6
CONTINUOUS
 62
    7
 10
32.340608603498822
 20
10.916672739455862
 11
32.519348603498202
 21
10.865092739456031
  0
LINE
  8
_0-0_
  6
CONTINUOUS
 62
    7
 10
32.519348603498202
 20
10.865092739456031
 11
32.703678603498247
 21
10.847732739455751
  0
LINE
  8
_0-0_
  6
CONTINUOUS
 62
    7
 10
32.703678603498247
 20
10.847732739455751
 11
32.888018603498494
 21
10.865092739456031
  0
LINE
  8
_0-0_
  6
CONTINUOUS
 62
    7
 10
32.888018603498494
 20
10.865092739456031
 11
33.066748603498581
 21
10.916672739455862
  0
LINE
  8
_0-0_
  6
CONTINUOUS
 62
    7
 10
33.066748603498581
 20
10.916672739455862
 11
33.234458603498297
 21
11.000902739455796
  0
LINE
  8
_0-0_
  6
CONTINUOUS
 62
    7
 10
33.234458603498297
 20
11.000902739455796
 11
33.386028603498289
 21
11.115202739455981
  0
LINE
  8
_0-0_
  6
CONTINUOUS
 62
    7
 10
18.731558603498797
 20
27.72666273945606
 11
19.924598603498907
 21
27.72666273945606
  0
LINE
  8
_0-0_
  6
CONTINUOUS
 62
    7
 10
19.924598603498907
 20
26.556362739455835
 11
18.731558603498797
 21
26.556362739455835
  0
LINE
  8
_0-0_
  6
CONTINUOUS
 62
    7
 10
20.791468603498743
 20
25.689492739456
 11
20.791468603498743
 21
24.496482739455587
  0
LINE
  8
_0-0_
  6
CONTINUOUS
 62
    7
 10
21.961818603498159
 20
24.496482739455587
 11
21.961818603498159
 21
25.689492739456
  0
LINE
  8
_0-0_
  6
CONTINUOUS
 62
    7
 10
22.828688603498904
 20
26.556362739455835
 11
24.021678603498458
 21
26.556362739455835
  0
LINE
  8
_0-0_
  6
CONTINUOUS
 62
    7
 10
24.021678603498458
 20
27.72666273945606
 11
22.828688603498904
 21
27.72666273945606
  0
LINE
  8
_0-0_
  6
CONTINUOUS
 62
    7
 10
21.961818603498159
 20
28.593532739455895
 11
21.961818603498159
 21
29.786602739455702
  0
LINE
  8
_0-0_
  6
CONTINUOUS
 62
    7
 10
20.791468603498743
 20
29.786602739455702
 11
20.791468603498743
 21
28.593532739455895
  0
CIRCLE
  8
_0-0_
  6
CONTINUOUS
 62
    7
 10
21.376668603498274
 20
27.141542739455872
 40
4.1989502999999999
  0
ARC
  8
_0-0_
  6
CONTINUOUS
 62
    7
 10
19.924598603498907
 20
28.593532739455895
 40
0.8668801000000001
 50
270
 51
0
  0
ARC
  8
_0-0_
  6
CONTINUOUS
 62
    7
 10
22.828688603498904
 20
28.593532739455895
 40
0.8668801000000001
 50
180
 51
270
  0
ARC
  8
_0-0_
  6
CONTINUOUS
 62
    7
 10
22.828688603498904
 20
25.689492739456
 40
0.8668801000000001
 50
90
 51
180
  0
ARC
  8
_0-0_
  6
CONTINUOUS
 62
    7
 10
19.924598603498907
 20
25.689492739456
 40
0.8668801000000001
 50
0
 51
90
  0
ARC
  8
_0-0_
  6
CONTINUOUS
 62
    7
 10
21.376668603498274
 20
27.141542739455872
 40
2.7090001000000004
 50
347.52571999999998
 51
12.474273000000045
  0
ARC
  8
_0-0_
  6
CONTINUOUS
 62
    7
 10
21.376668603498274
 20
27.141542739455872
 40
2.7090001000000004
 50
77.525817000000018
 51
102.47418000000003
  0
ARC
  8
_0-0_
  6
CONTINUOUS
 62
    7
 10
21.376668603498274
 20
27.141542739455872
 40
2.7090001000000004
 50
167.52571999999995
 51
192.47426999999996
  0
ARC
  8
_0-0_
  6
CONTINUOUS
 62
    7
 10
21.376668603498274
 20
27.141542739455872
 40
2.7090001000000004
 50
257.52580999999998
 51
282.47417999999999
  0
ARC
  8
_0-0_
  6
CONTINUOUS
 62
    7
 10
39.876668603498274
 20
35.641542739455872
 40
1.5
 50
0
 51
90
  0
ARC
  8
_0-0_
  6
CONTINUOUS
 62
    7
 10
2.876668603498274
 20
35.641542739455872
 40
1.5
 50
90
 51
180
  0
ARC
  8
_0-0_
  6
CONTINUOUS
 62
    7
 10
2.876668603498274
 20
8.6415427394558719
 40
1.5
 50
180
 51
270
  0
ARC
  8
_0-0_
  6
CONTINUOUS
 62
    7
 10
39.876668603498274
 20
8.6415427394558719
 40
1.5
 50
270
 51
0
  0
ARC
  8
_0-0_
  6
CONTINUOUS
 62
    7
 10
37.876618603498628
 20
13.641522739455922
 40
0.4999999
 50
0
 51
90
  0
ARC
  8
_0-0_
  6
CONTINUOUS
 62
    7
 10
37.876618603498628
 20
10.641562739455821
 40
0.4999999
 50
270
 51
0
  0
ARC
  8
_0-0_
  6
CONTINUOUS
 62
    7
 10
28.876678603498931
 20
10.641562739455821
 40
0.4999999
 50
180
 51
270
  0
ARC
  8
_0-0_
  6
CONTINUOUS
 62
    7
 10
28.876678603498931
 20
13.641522739455922
 40
0.4999999
 50
90
 51
180
  0
LINE
  8
_0-0_
  6
CONTINUOUS
 62
    7
 10
2.8766286034974655
 20
77.748209893251101
 11
39.876668603498274
 21
77.748209893251101
  0
LINE
  8
_0-0_
  6
CONTINUOUS
 62
    7
 10
41.376668603498274
 20
79.248209893251101
 11
41.376668603498274
 21
80.748209893251101
  0
LINE
  8
_0-0_
  6
CONTINUOUS
 62
    7
 10
41.376588603498931
 20
80.748209893251101
 11
1.376628603498375
 21
80.748209893251101
  0
ARC
  8
_0-0_
  6
CONTINUOUS
 62
    7
 10
39.876668603498274
 20
79.248209893251101
 40
1.5
 50
270
 51
0
  0
LINE
  8
_0-0_
  6
CONTINUOUS
 62
    7
 10
1.3766286034974655
 20
109.59296079498364
 11
1.3766286034974655
 21
108.09296079498364
  0
ARC
  8
_0-0_
  6
CONTINUOUS
 62
    7
 10
2.8766286034974655
 20
108.09296079498364
 40
1.5
 50
180
 51
270
  0
LINE
  8
_0-0_
  6
CONTINUOUS
 62
    7
 10
25.47669860349788
 20
109.59296079498364
 11
25.47669860349788
 21
111.19296079498366
  0
LINE
  8
_0-0_
  6
CONTINUOUS
 62
    7
 10
17.276698603497834
 20
111.19296079498366
 11
25.47669860349788
 21
111.19296079498366
  0
LINE
  8
_0-0_
  6
CONTINUOUS
 62
    7
 10
17.276698603497834
 20
109.59296079498364
 11
17.276698603497834
 21
111.19296079498366
  0
LINE
  8
_0-0_
  6
CONTINUOUS
 62
    7
 10
2.8766286034974655
 20
106.59296079498364
 11
39.876668603498274
 21
106.59296079498364
  0
LINE
  8
_0-0_
  6
CONTINUOUS
 62
    7
 10
41.376668603498274
 20
108.09296079498364
 11
41.376668603498274
 21
109.59296079498364
  0
LINE
  8
_0-0_
  6
CONTINUOUS
 62
    7
 10
41.376588603498931
 20
109.59296079498364
 11
1.376628603498375
 21
109.59296079498364
  0
ARC
  8
_0-0_
  6
CONTINUOUS
 62
    7
 10
39.876668603498274
 20
108.09296079498364
 40
1.5
 50
270
 51
0
  0
LINE
  8
_0-0_
  6
CONTINUOUS
 62
    7
 10
104.98916380286647
 20
8.6414727394553665
 11
104.98916380286647
 21
35.641572739455569
  0
LINE
  8
_0-0_
  6
CONTINUOUS
 62
    7
 10
106.48916380286647
 20
37.141572739455569
 11
107.98916380286647
 21
37.141572739455569
  0
LINE
  8
_0-0_
  6
CONTINUOUS
 62
    7
 10
107.98916380286647
 20
37.141492739456226
 11
107.98916380286647
 21
7.141472739456276
  0
LINE
  8
_0-0_
  6
CONTINUOUS
 62
    7
 10
107.98916380286647
 20
7.1414727394553665
 11
106.48916380286647
 21
7.1414727394553665
  0
ARC
  8
_0-0_
  6
CONTINUOUS
 62
    7
 10
106.48916380286647
 20
8.6414727394553665
 40
1.5
 50
180
 51
270
  0
ARC
  8
_0-0_
  6
CONTINUOUS
 62
    7
 10
106.48916380286647
 20
35.641572739455569
 40
1.5
 50
90
 51
180
  0
LINE
  8
_0-0_
  6
CONTINUOUS
 62
    7
 10
107.98916380286647
 20
31.241542739455895
 11
109.58916380286649
 21
31.241542739455895
  0
LINE
  8
_0-0_
  6
CONTINUOUS
 62
    7
 10
109.58916380286649
 20
23.041542739455849
 11
109.58916380286649
 21
31.241542739455895
  0
LINE
  8
_0-0_
  6
CONTINUOUS
 62
    7
 10
107.98916380286647
 20
23.041542739455849
 11
109.58916380286649
 21
23.041542739455849
  0
LINE
  8
_0-0_
  6
CONTINUOUS
 62
    7
 10
132.68792072226296
 20
19.241542739455781
 11
132.68792072226296
 21
35.041542739455736
  0
LINE
  8
_0-0_
  6
CONTINUOUS
 62
    7
 10
132.68792072226296
 20
35.041542739455736
 11
140.88792072226289
 21
35.041542739455736
  0
LINE
  8
_0-0_
  6
CONTINUOUS
 62
    7
 10
140.88792072226289
 20
35.041542739455736
 11
140.88792072226289
 21
19.241542739455781
  0
LINE
  8
_0-0_
  6
CONTINUOUS
 62
    7
 10
140.88792072226289
 20
19.241542739455781
 11
132.68792072226296
 21
19.241542739455781
  0
LINE
  8
_0-0_
  6
CONTINUOUS
 62
    7
 10
136.08792072226294
 20
19.241542739455781
 11
136.08792072226294
 21
35.041542739455736
  0
LINE
  8
_0-0_
  6
CONTINUOUS
 62
    7
 10
137.48792072226291
 20
19.241542739455781
 11
137.48792072226291
 21
35.041542739455736
  0
ARC
  8
_0-0_
  6
CONTINUOUS
 62
    7
 10
136.78792072226287
 20
27.141542739455872
 40
1.4689805517923702
 50
61.541575153774303
 51
118.4584248462274
  0
ARC
  8
_0-0_
  6
CONTINUOUS
 62
    7
 10
136.78792072226287
 20
27.141542739455872
 40
1.4689805517923702
 50
241.54157515377253
 51
298.45842484622574
  0
LINE
  8
_0-0_
  6
CONTINUOUS
 62
    7
 10
118.08916380286649
 20
23.282994623783225
 11
118.08916380286649
 21
31.000090855128519
  0
LINE
  8
_0-0_
  6
CONTINUOUS
 62
    7
 10
117.33916380286638
 20
32.299128960805092
 11
112.58916380286649
 21
35.041542739455963
  0
LINE
  8
_0-0_
  6
CONTINUOUS
 62
    7
 10
112.58916380286649
 20
35.041542739455963
 11
110.08916380286649
 21
35.041542739455963
  0
LINE
  8
_0-0_
  6
CONTINUOUS
 62
    7
 10
110.08916380286649
 20
35.041542739455963
 11
110.08916380286649
 21
19.241542739456008
  0
LINE
  8
_0-0_
  6
CONTINUOUS
 62
    7
 10
110.08916380286649
 20
19.241542739456008
 11
112.58916380286649
 21
19.241542739456008
  0
LINE
  8
_0-0_
  6
CONTINUOUS
 62
    7
 10
112.58916380286649
 20
19.241542739456008
 11
117.33916380286638
 21
21.983956518106652
  0
ARC
  8
_0-0_
  6
CONTINUOUS
 62
    7
 10
116.58916380286649
 20
31.000090855128519
 40
1.5
 50
0
 51
60.000000000000021
  0
ARC
  8
_0-0_
  6
CONTINUOUS
 62
    7
 10
116.58916380286649
 20
23.282994623783225
 40
1.5
 50
299.99999999999989
 51
0
  0
LINE
  8
_0-0_
  6
CONTINUOUS
 62
    7
 10
17.276698603498062
 20
111.69296079498366
 11
25.47669860349788
 21
111.69296079498366
  0
LINE
  8
_0-0_
  6
CONTINUOUS
 62
    7
 10
25.47669860349788
 20
111.69296079498366
 11
25.47669860349788
 21
114.19296079498366
  0
LINE
  8
_0-0_
  6
CONTINUOUS
 62
    7
 10
25.47669860349788
 20
114.19296079498366
 11
25.358176488921345
 21
118.71913774329147
  0
LINE
  8
_0-0_
  6
CONTINUOUS
 62
    7
 10
22.340108905534862
 20
119.21912877310507
 11
22.076698603497789
 21
114.19296079498366
  0
LINE
  8
_0-0_
  6
CONTINUOUS
 62
    7
 10
22.076698603497789
 20
114.19296079498366
 11
20.676698603497925
 21
114.19296079498366
  0
LINE
  8
_0-0_
  6
CONTINUOUS
 62
    7
 10
20.676698603497925
 20
114.19296079498366
 11
20.41328830146108
 21
119.21912877310507
  0
LINE
  8
_0-0_
  6
CONTINUOUS
 62
    7
 10
17.395220718074597
 20
118.71913774329147
 11
17.276698603498062
 21
114.19296079498366
  0
LINE
  8
_0-0_
  6
CONTINUOUS
 62
    7
 10
17.276698603498062
 20
114.19296079498366
 11
17.276698603498062
 21
111.69296079498366
  0
LINE
  8
_0-0_
  6
CONTINUOUS
 62
    7
 10
24.358519163945857
 20
119.69296079498366
 11
22.839423672912062
 21
119.69296079498366
  0
LINE
  8
_0-0_
  6
CONTINUOUS
 62
    7
 10
19.913973534083652
 20
119.69296079498366
 11
18.394878043050085
 21
119.69296079498366
  0
ARC
  8
_0-0_
  6
CONTINUOUS
 62
    7
 10
18.394878043050085
 20
118.69296079498366
 40
1
 50
90
 51
178.49999999999994
  0
ARC
  8
_0-0_
  6
CONTINUOUS
 62
    7
 10
24.358519163945857
 20
118.69296079498366
 40
1
 50
1.4999999999997029
 51
89.999999999999929
  0
ARC
  8
_0-0_
  6
CONTINUOUS
 62
    7
 10
19.913973534083652
 20
119.19296079498366
 40
0.5
 50
3.0000000000001186
 51
89.999999999999943
  0
ARC
  8
_0-0_
  6
CONTINUOUS
 62
    7
 10
22.839423672912062
 20
119.19296079498366
 40
0.5
 50
90
 51
177.00000000000014
  0
LINE
  8
_0-1_
  6
DASHED2
 62
  152
 10
77.083305757293829
 20
28.741542739455781
 11
79.583305757293829
 21
28.610523291248228
  0
LINE
  8
_0-1_
  6
DASHED2
 62
  152
 10
79.583305757293829
 20
28.610523291248228
 11
79.583305757293829
 21
25.672562187663516
  0
LINE
  8
_0-1_
  6
DASHED2
 62
  152
 10
79.583305757293829
 20
25.672562187663516
 11
77.083305757293829
 21
25.541542739455963
  0
LINE
  8
_0-1_
  6
CENTER1
 62
  152
 10
21.376698603497971
 20
90.748209893251214
 11
21.376698603497971
 21
77.748209893250987
  0
LINE
  8
_0-1_
  6
CENTER1
 62
  152
 10
87.094338653955845
 20
27.141542739455872
 11
71.178364353387906
 21
27.141542739455872
  0
LINE
  8
_0-1_
  6
DASHED2
 62
  152
 10
22.97669860349788
 20
82.848209893251124
 11
22.845679155290327
 21
85.348209893251124
  0
LINE
  8
_0-1_
  6
DASHED2
 62
  152
 10
19.907718051705388
 20
85.348209893251124
 11
19.776698603497834
 21
82.848209893251124
  0
LINE
  8
_0-1_
  6
DASHED2
 62
  152
 10
13.47669860349788
 20
85.348209893251124
 11
29.276698603497834
 21
85.348209893251124
  0
LINE
  8
_0-1_
  6
CENTER2
 62
  152
 10
26.376688603498678
 20
27.141542739455872
 11
16.376698603498426
 21
27.141542739455872
  0
LINE
  8
_0-1_
  6
CENTER2
 62
  152
 10
21.376668603498274
 20
32.14153273945567
 11
21.376668603498274
 21
22.141542739455872
  0
LINE
  8
_0-1_
  6
CENTER1
 62
  152
 10
21.376698603497971
 20
119.59296079498375
 11
21.376698603497971
 21
106.59296079498353
  0
LINE
  8
_0-1_
  6
CENTER1
 62
  152
 10
120.10019669952857
 20
27.141542739455872
 11
104.18422239896069
 21
27.141542739455872
  0
LINE
  8
_0-1_
  6
CENTER1
 62
  152
 10
136.78792072226287
 20
35.041542739455736
 11
136.78792072226287
 21
19.241542739455781
  0
LINE
  8
_0-1_
  6
CENTER1
 62
  152
 10
140.88792072226289
 20
27.141542739455872
 11
132.68792072226296
 21
27.141542739455872
  0
ARC
  8
_0-1_
  6
DASHED2
 62
  152
 10
136.78792072226287
 20
27.141542739455872
 40
1.4689805517923702
 50
298.45842484622574
 51
61.541575153774332
  0
ARC
  8
_0-1_
  6
DASHED2
 62
  152
 10
136.78792072226287
 20
27.141542739455872
 40
1.4689805517923702
 50
118.45842484622747
 51
241.54157515377261
  0
LINE
  8
_0-1_
  6
DASHED2
 62
  152
 10
110.08916380286649
 20
25.541542739455963
 11
112.58916380286649
 21
25.672562187663516
  0
LINE
  8
_0-1_
  6
DASHED2
 62
  152
 10
112.58916380286649
 20
28.610523291248455
 11
110.08916380286649
 21
28.741542739456008
  0
LINE
  8
_0-1_
  6
DASHED2
 62
  152
 10
112.58916380286649
 20
35.041542739455963
 11
112.58916380286649
 21
19.241542739456008
  0
LINE
  8
_0-1_
  6
DASHED2
 62
  152
 10
19.776698603498062
 20
111.69296079498366
 11
19.907718051705615
 21
114.19296079498366
  0
LINE
  8
_0-1_
  6
DASHED2
 62
  152
 10
19.907718051705615
 20
114.19296079498366
 11
22.845679155290327
 21
114.19296079498366
  0
LINE
  8
_0-1_
  6
DASHED2
 62
  152
 10
22.845679155290327
 20
114.19296079498366
 11
22.97669860349788
 21
111.69296079498366
  0
ENDSEC
  0
EOF
