  0
SECTION
  2
HEADER
  9
$ACADVER
  1
AC1009
  9
$INSBASE
 10
0
 20
0
 30
0
  9
$EXTMIN
 10
0
 20
0
  9
$EXTMAX
 10
1189
 20
841
  9
$LIMMIN
 10
0
 20
0
  9
$LIMMAX
 10
1189
 20
841
  9
$LTSCALE
 40
1
  0
ENDSEC
  0
SECTION
  2
TABLES
  0
TABLE
  2
LTYPE
 70
     9
  0
LTYPE
  2
CONTINUOUS
 70
    64
  3
実線
 72
    65
 73
     0
 40
0.0
  0
LTYPE
  2
DASHED1
 70
    64
  3
--  --  --  --  --  --  --  --  
 72
    65
 73
     2
 40
2.5
 49
1.25
 49
-1.25
  0
LTYPE
  2
DASHED2
 70
    64
  3
----    ----    ----    ----    
 72
    65
 73
     2
 40
5.0
 49
2.5
 49
-2.5
  0
LTYPE
  2
DASHED3
 70
    64
  3
------  ------  ------  ------  
 72
    65
 73
     2
 40
5.0
 49
3.75
 49
-1.25
  0
LTYPE
  2
CENTER1
 70
    64
  3
----- - ----- - ----- - ----- - 
 72
    65
 73
     4
 40
10.0
 49
6.25
 49
-1.25
 49
1.25
 49
-1.25
  0
LTYPE
  2
CENTER2
 70
    64
  3
----------  --  ----------  --  
 72
    65
 73
     4
 40
20.0
 49
12.5
 49
-2.5
 49
2.5
 49
-2.5
  0
LTYPE
  2
PHANTOM1
 70
    64
  3
--- - - --- - - --- - - --- - - 
 72
    65
 73
     6
 40
10.0
 49
3.25
 49
-1.25
 49
1.25
 49
-1.25
 49
1.25
 49
-1.25
  0
LTYPE
  2
PHANTOM2
 70
    64
  3
--------  -  -  --------  -  -  
 72
    65
 73
     6
 40
20.0
 49
10.0
 49
-2.5
 49
1.25
 49
-2.5
 49
1.25
 49
-2.5
  0
LTYPE
  2
DOT
 70
    64
  3
-   -   -   -   -   -   -   -   
 72
    65
 73
     2
 40
2.5
 49
0.625
 49
-1.875
  0
LTYPE
  2
DUMMY
 70
    64
  3
ダミー
 72
    65
 73
     0
 40
0.0
  0
LTYPE
  2
RAND1
 70
    64
  3
ランダム線1
 72
    65
 73
     4
 40
10.0
 49
1.0
 49
-2.0
 49
3.0
 49
-4.0
  0
LTYPE
  2
RAND2
 70
    64
  3
ランダム線2
 72
    65
 73
     4
 40
14.0
 49
2.0
 49
-3.0
 49
4.0
 49
-5.0
  0
LTYPE
  2
RAND3
 70
    64
  3
ランダム線3
 72
    65
 73
     4
 40
18.0
 49
3.0
 49
-4.0
 49
5.0
 49
-6.0
  0
LTYPE
  2
RAND4
 70
    64
  3
ランダム線4
 72
    65
 73
     4
 40
22.0
 49
4.0
 49
-5.0
 49
6.0
 49
-7.0
  0
LTYPE
  2
RAND5
 70
    64
  3
ランダム線5
 72
    65
 73
     4
 40
26.0
 49
5.0
 49
-6.0
 49
7.0
 49
-8.0
  0
LTYPE
  2
LONG1
 70
    64
  3
----------  --  ----------  --  
 72
    65
 73
     4
 40
40.0
 49
32.5
 49
-2.5
 49
2.5
 49
-2.5
  0
LTYPE
  2
LONG2
 70
    64
  3
--------  -  -  --------  -  -  
 72
    65
 73
     6
 40
40.0
 49
30.0
 49
-2.5
 49
1.25
 49
-2.5
 49
1.25
 49
-2.5
  0
LTYPE
  2
LONG3
 70
    64
  3
+++++++++++++++..+++++++++++++++
 72
    65
 73
     2
 40
40.0
 49
37.5
 49
-2.5
  0
LTYPE
  2
LONG4
 70
    64
  3
+++++++++++++++..+++++++++++++++
 72
    65
 73
     2
 40
80.0
 49
75.0
 49
-5.0
  0
LTYPE
  2
LONG5
 70
    64
  3
----------  --  ----------  --  
 72
    65
 73
     4
 40
60.0
 49
37.5
 49
-7.5
 49
7.5
 49
-7.5
  0
LTYPE
  2
dashed
 70
   64
  3
-------   -------------   ------
 72
   65
 73
    2
 40
7.5
 49
6
 49
-1.5
  0
LTYPE
  2
dashed_spaced
 70
   64
  3
----        --------        ----
 72
   65
 73
    2
 40
12
 49
6
 49
-6
  0
LTYPE
  2
long_dashed_dotted
 70
   64
  3
------------- --- --------------
 72
   65
 73
    4
 40
15.25
 49
12
 49
-1.5
 49
0.25
 49
-1.5
  0
LTYPE
  2
long_dashed_double-dotted
 70
   64
  3
----------- --- --- ------------
 72
   65
 73
    6
 40
17
 49
12
 49
-1.5
 49
0.25
 49
-1.5
 49
0.25
 49
-1.5
  0
LTYPE
  2
long_dashed_triplicate-dotted
 70
   64
  3
--------- --- --- --- ----------
 72
   65
 73
    8
 40
18.75
 49
12
 49
-1.5
 49
0.25
 49
-1.5
 49
0.25
 49
-1.5
 49
0.25
 49
-1.5
  0
LTYPE
  2
dotted
 70
   64
  3
   -       -       -       -    
 72
   65
 73
    2
 40
1.75
 49
0.25
 49
-1.5
  0
LTYPE
  2
chain
 70
   64
  3
-------------- -- --------------
 72
   65
 73
    4
 40
18.5
 49
12
 49
-1.5
 49
3.5
 49
-1.5
  0
LTYPE
  2
chain_double_dash
 70
   64
  3
------------ -- -- -------------
 72
   65
 73
    6
 40
23.5
 49
12
 49
-1.5
 49
3.5
 49
-1.5
 49
3.5
 49
-1.5
  0
LTYPE
  2
dashed_dotted
 70
   64
  3
-----------     -     ----------
 72
   65
 73
    4
 40
9.25
 49
6
 49
-1.5
 49
0.25
 49
-1.5
  0
LTYPE
  2
double-dashed_dotted
 70
   64
  3
------   -----------   -   -----
 72
   65
 73
    6
 40
16.75
 49
6
 49
-1.5
 49
6
 49
-1.5
 49
0.25
 49
-1.5
  0
LTYPE
  2
dashed_double-dotted
 70
   64
  3
---------    -    -    ---------
 72
   65
 73
    6
 40
11
 49
6
 49
-1.5
 49
0.25
 49
-1.5
 49
0.25
 49
-1.5
  0
LTYPE
  2
double-dashed_double-dotted
 70
   64
  3
-----   ---------   -   -   ----
 72
   65
 73
    8
 40
18.5
 49
6
 49
-1.5
 49
6
 49
-1.5
 49
0.25
 49
-1.5
 49
0.25
 49
-1.5
  0
LTYPE
  2
dashed_triplicate-dotted
 70
   64
  3
-------    -    -    -    ------
 72
   65
 73
    8
 40
12.75
 49
6
 49
-1.5
 49
0.25
 49
-1.5
 49
0.25
 49
-1.5
 49
0.25
 49
-1.5
  0
LTYPE
  2
double-dashed_triplicate-dotted
 70
   64
  3
-----  ---------  -  -  -  -----
 72
   65
 73
   10
 40
20.25
 49
6
 49
-1.5
 49
6
 49
-1.5
 49
0.25
 49
-1.5
 49
0.25
 49
-1.5
 49
0.25
 49
-1.5
  0
LTYPE
  2
undefined
 70
   64
  3
--------------------------------
 72
   65
 73
    0
 40
0
  0
ENDTAB
  0
TABLE
  2
STYLE
  5
3
100
AcDbSymbolTable
 70
     1
  0
STYLE
  5
10
100
AcDbSymbolTableRecord
100
AcDbTextStyleTableRecord
  2
STANDARD
 70
     0
 40
0.0
 41
1.0
 50
0.0
 71
     0
 42
0.2
  3
txt
  4
bigfont.shx
  0
STYLE
  5
26
100
AcDbSymbolTableRecord
100
AcDbTextStyleTableRecord
  2
TATEGAKI
 70
    68
 40
0.0
 41
1.0
 50
0.0
 71
     0
 42
1.0
  3
txt
  4
bigfont.shx
  0
ENDTAB
  0
TABLE
  2
LAYER
 70
    4
  0
LAYER
  2
_0-0_
 70
   64
 62
    7
  6
CONTINUOUS
  0
LAYER
  2
_0-1_
 70
   64
 62
    7
  6
CONTINUOUS
  0
LAYER
  2
_0-f_
 70
   64
 62
    7
  6
CONTINUOUS
  0
LAYER
  2
ADD_LINE
 70
   64
 62
    7
  6
CONTINUOUS
  0
ENDTAB
  0
ENDSEC
  0
SECTION
  2
BLOCKS
  0
ENDSEC
  0
SECTION
  2
ENTITIES
  0
TEXT
  8
_0-f_
 62
    7
 10
1.2879961791390997
 20
0.4358245619221179
 40
4.2999999999999998
 41
0.744186046511628
 50
0
  1
EP33
  0
LINE
  8
_0-0_
  6
CONTINUOUS
 62
    7
 10
7.0395630706104839
 20
38.795122173502818
 11
34.039563070610484
 21
38.795122173502818
  0
LINE
  8
_0-0_
  6
CONTINUOUS
 62
    7
 10
35.539563070610484
 20
37.295122173502818
 11
35.539563070610484
 21
10.295122173502818
  0
LINE
  8
_0-0_
  6
CONTINUOUS
 62
    7
 10
34.039563070610484
 20
8.7951221735028184
 11
7.0395630706104839
 21
8.7951221735028184
  0
LINE
  8
_0-0_
  6
CONTINUOUS
 62
    7
 10
5.5395630706104839
 20
10.295122173502818
 11
5.5395630706104839
 21
37.295122173502818
  0
LINE
  8
_0-0_
  6
CONTINUOUS
 62
    7
 10
28.184523070610112
 20
28.209972173502933
 11
26.991533070610558
 21
28.209972173502933
  0
LINE
  8
_0-0_
  6
CONTINUOUS
 62
    7
 10
26.991533070610558
 20
29.380272173503158
 11
28.184523070610112
 21
29.380272173503158
  0
LINE
  8
_0-0_
  6
CONTINUOUS
 62
    7
 10
26.124663070609813
 20
30.247142173502994
 11
26.124663070609813
 21
31.440132173502548
  0
LINE
  8
_0-0_
  6
CONTINUOUS
 62
    7
 10
24.954363070610043
 20
31.440132173502548
 11
24.954363070610043
 21
30.247142173502994
  0
LINE
  8
_0-0_
  6
CONTINUOUS
 62
    7
 10
24.087493070610208
 20
29.380272173503158
 11
22.894453070610098
 21
29.380272173503158
  0
LINE
  8
_0-0_
  6
CONTINUOUS
 62
    7
 10
22.894453070610098
 20
28.209972173502933
 11
24.087493070610208
 21
28.209972173502933
  0
LINE
  8
_0-0_
  6
CONTINUOUS
 62
    7
 10
24.954363070610043
 20
27.343102173503098
 11
24.954363070610043
 21
26.150012173502887
  0
LINE
  8
_0-0_
  6
CONTINUOUS
 62
    7
 10
26.124663070609813
 20
26.150012173502887
 11
26.124663070609813
 21
27.343102173503098
  0
LINE
  8
_0-0_
  6
CONTINUOUS
 62
    7
 10
25.274933070609904
 20
14.907402173503101
 11
24.532873070610322
 21
14.907402173503101
  0
LINE
  8
_0-0_
  6
CONTINUOUS
 62
    7
 10
24.532873070610322
 20
14.907402173503101
 11
24.08893307061021
 21
14.190362173503104
  0
LINE
  8
_0-0_
  6
CONTINUOUS
 62
    7
 10
24.08893307061021
 20
14.190362173503104
 11
23.644943070610452
 21
14.907402173503101
  0
LINE
  8
_0-0_
  6
CONTINUOUS
 62
    7
 10
23.644943070610452
 20
14.907402173503101
 11
22.902873070610212
 21
14.907402173503101
  0
LINE
  8
_0-0_
  6
CONTINUOUS
 62
    7
 10
22.902873070610212
 20
14.907402173503101
 11
23.763263070610037
 21
13.517612173502926
  0
LINE
  8
_0-0_
  6
CONTINUOUS
 62
    7
 10
23.763263070610037
 20
13.517612173502926
 11
23.763263070610037
 21
12.659192173502902
  0
LINE
  8
_0-0_
  6
CONTINUOUS
 62
    7
 10
23.763263070610037
 20
12.659192173502902
 11
24.369073070610057
 21
12.659192173502902
  0
LINE
  8
_0-0_
  6
CONTINUOUS
 62
    7
 10
24.369073070610057
 20
12.659192173502902
 11
24.369073070610057
 21
13.444182173503009
  0
LINE
  8
_0-0_
  6
CONTINUOUS
 62
    7
 10
24.369073070610057
 20
13.444182173503009
 11
25.274933070609904
 21
14.907402173503101
  0
LINE
  8
_0-0_
  6
CONTINUOUS
 62
    7
 10
25.804093070609952
 20
14.875302173502746
 11
26.409803070610678
 21
14.875302173502746
  0
LINE
  8
_0-0_
  6
CONTINUOUS
 62
    7
 10
26.409803070610678
 20
14.875302173502746
 11
26.409803070610678
 21
13.644582173503181
  0
LINE
  8
_0-0_
  6
CONTINUOUS
 62
    7
 10
26.410143070610275
 20
13.644582173503181
 11
26.417073070609831
 21
13.553972173502984
  0
LINE
  8
_0-0_
  6
CONTINUOUS
 62
    7
 10
26.417073070609831
 20
13.553972173502984
 11
26.437663070609915
 21
13.466122173503095
  0
LINE
  8
_0-0_
  6
CONTINUOUS
 62
    7
 10
26.437663070609915
 20
13.466122173503095
 11
26.47128307061007
 21
13.383692173503164
  0
LINE
  8
_0-0_
  6
CONTINUOUS
 62
    7
 10
26.47128307061007
 20
13.383692173503164
 11
26.516903070609942
 21
13.309192173502993
  0
LINE
  8
_0-0_
  6
CONTINUOUS
 62
    7
 10
26.516903070609942
 20
13.309192173502993
 11
26.573153070610488
 21
13.244882173503242
  0
LINE
  8
_0-0_
  6
CONTINUOUS
 62
    7
 10
26.573153070610488
 20
13.244882173503242
 11
26.638313070610593
 21
13.192712173502855
  0
LINE
  8
_0-0_
  6
CONTINUOUS
 62
    7
 10
26.638313070610593
 20
13.192712173502855
 11
26.710403070610255
 21
13.154272173503045
  0
LINE
  8
_0-0_
  6
CONTINUOUS
 62
    7
 10
26.710403070610255
 20
13.154272173503045
 11
26.787233070610228
 21
13.130732173502906
  0
LINE
  8
_0-0_
  6
CONTINUOUS
 62
    7
 10
26.787233070610228
 20
13.130732173502906
 11
26.866483070610002
 21
13.122812173502894
  0
LINE
  8
_0-0_
  6
CONTINUOUS
 62
    7
 10
26.866483070610002
 20
13.122812173502894
 11
26.945723070610029
 21
13.130732173502906
  0
LINE
  8
_0-0_
  6
CONTINUOUS
 62
    7
 10
26.945723070610029
 20
13.130732173502906
 11
27.022553070610002
 21
13.154272173503045
  0
LINE
  8
_0-0_
  6
CONTINUOUS
 62
    7
 10
27.022553070610002
 20
13.154272173503045
 11
27.09465307061032
 21
13.192712173502855
  0
LINE
  8
_0-0_
  6
CONTINUOUS
 62
    7
 10
27.09465307061032
 20
13.192712173502855
 11
27.159813070610426
 21
13.244882173503242
  0
LINE
  8
_0-0_
  6
CONTINUOUS
 62
    7
 10
27.159813070610426
 20
13.244882173503242
 11
27.216053070610315
 21
13.309192173502993
  0
LINE
  8
_0-0_
  6
CONTINUOUS
 62
    7
 10
27.216053070610315
 20
13.309192173502993
 11
27.261683070609934
 21
13.383692173503164
  0
LINE
  8
_0-0_
  6
CONTINUOUS
 62
    7
 10
27.261683070609934
 20
13.383692173503164
 11
27.295303070610089
 21
13.466122173503095
  0
LINE
  8
_0-0_
  6
CONTINUOUS
 62
    7
 10
27.295303070610089
 20
13.466122173503095
 11
27.315883070610425
 21
13.553972173502984
  0
LINE
  8
_0-0_
  6
CONTINUOUS
 62
    7
 10
27.315883070610425
 20
13.553972173502984
 11
27.322823070610184
 21
13.644582173503181
  0
LINE
  8
_0-0_
  6
CONTINUOUS
 62
    7
 10
27.322953070610083
 20
13.644582173503181
 11
27.322953070610083
 21
14.875302173502746
  0
LINE
  8
_0-0_
  6
CONTINUOUS
 62
    7
 10
27.322953070610083
 20
14.875302173502746
 11
27.928763070610103
 21
14.875302173502746
  0
LINE
  8
_0-0_
  6
CONTINUOUS
 62
    7
 10
27.928763070610103
 20
14.875302173502746
 11
27.928763070610103
 21
13.644582173503181
  0
LINE
  8
_0-0_
  6
CONTINUOUS
 62
    7
 10
27.928023070610152
 20
13.644582173503181
 11
27.911903070610379
 21
13.446052173503062
  0
LINE
  8
_0-0_
  6
CONTINUOUS
 62
    7
 10
27.911903070610379
 20
13.446052173503062
 11
27.864003070609897
 21
13.253552173502953
  0
LINE
  8
_0-0_
  6
CONTINUOUS
 62
    7
 10
27.864003070609897
 20
13.253552173502953
 11
27.785803070609973
 21
13.072932173502863
  0
LINE
  8
_0-0_
  6
CONTINUOUS
 62
    7
 10
27.785803070609973
 20
13.072932173502863
 11
27.679673070609851
 21
12.909682173503256
  0
LINE
  8
_0-0_
  6
CONTINUOUS
 62
    7
 10
27.679673070609851
 20
12.909682173503256
 11
27.548833070610044
 21
12.768762173502978
  0
LINE
  8
_0-0_
  6
CONTINUOUS
 62
    7
 10
27.548833070610044
 20
12.768762173502978
 11
27.397253070610304
 21
12.654462173502793
  0
LINE
  8
_0-0_
  6
CONTINUOUS
 62
    7
 10
27.397253070610304
 20
12.654462173502793
 11
27.229553070610336
 21
12.570232173502859
  0
LINE
  8
_0-0_
  6
CONTINUOUS
 62
    7
 10
27.229553070610336
 20
12.570232173502859
 11
27.050813070610047
 21
12.518652173503028
  0
LINE
  8
_0-0_
  6
CONTINUOUS
 62
    7
 10
27.050813070610047
 20
12.518652173503028
 11
26.866483070610002
 21
12.501282173503
  0
LINE
  8
_0-0_
  6
CONTINUOUS
 62
    7
 10
26.866483070610002
 20
12.501282173503
 11
26.682143070610209
 21
12.518652173503028
  0
LINE
  8
_0-0_
  6
CONTINUOUS
 62
    7
 10
26.682143070610209
 20
12.518652173503028
 11
26.503413070610577
 21
12.570232173502859
  0
LINE
  8
_0-0_
  6
CONTINUOUS
 62
    7
 10
26.503413070610577
 20
12.570232173502859
 11
26.335703070609952
 21
12.654462173502793
  0
LINE
  8
_0-0_
  6
CONTINUOUS
 62
    7
 10
26.335703070609952
 20
12.654462173502793
 11
26.18413307060996
 21
12.768762173502978
  0
LINE
  8
_0-0_
  6
CONTINUOUS
 62
    7
 10
26.18413307060996
 20
12.768762173502978
 11
26.053283070610405
 21
12.909682173503256
  0
LINE
  8
_0-0_
  6
CONTINUOUS
 62
    7
 10
26.053283070610405
 20
12.909682173503256
 11
25.947153070610284
 21
13.072932173502863
  0
LINE
  8
_0-0_
  6
CONTINUOUS
 62
    7
 10
25.947153070610284
 20
13.072932173502863
 11
25.86895307061036
 21
13.253552173502953
  0
LINE
  8
_0-0_
  6
CONTINUOUS
 62
    7
 10
25.86895307061036
 20
13.253552173502953
 11
25.821063070610535
 21
13.446052173503062
  0
LINE
  8
_0-0_
  6
CONTINUOUS
 62
    7
 10
25.821063070610535
 20
13.446052173503062
 11
25.804933070610105
 21
13.644582173503181
  0
LINE
  8
_0-0_
  6
CONTINUOUS
 62
    7
 10
25.804093070609952
 20
13.644582173503181
 11
25.804093070609952
 21
14.875302173502746
  0
LINE
  8
_0-0_
  6
CONTINUOUS
 62
    7
 10
28.711753070609802
 20
14.875302173502746
 11
28.711753070609802
 21
12.631222173502806
  0
LINE
  8
_0-0_
  6
CONTINUOUS
 62
    7
 10
28.711753070609802
 20
12.631222173502806
 11
29.317563070610277
 21
12.631222173502806
  0
LINE
  8
_0-0_
  6
CONTINUOUS
 62
    7
 10
29.317563070610277
 20
12.631222173502806
 11
29.317563070610277
 21
13.326092173503071
  0
LINE
  8
_0-0_
  6
CONTINUOUS
 62
    7
 10
29.317563070610277
 20
13.326092173503071
 11
29.41269307061043
 21
13.423102173503025
  0
LINE
  8
_0-0_
  6
CONTINUOUS
 62
    7
 10
29.41269307061043
 20
13.423102173503025
 11
30.02806307060996
 21
12.626982173503052
  0
LINE
  8
_0-0_
  6
CONTINUOUS
 62
    7
 10
30.02806307060996
 20
12.626982173503052
 11
30.836323070610661
 21
12.626982173503052
  0
LINE
  8
_0-0_
  6
CONTINUOUS
 62
    7
 10
30.836323070610661
 20
12.626982173503052
 11
29.864613070609948
 21
13.884112173503013
  0
LINE
  8
_0-0_
  6
CONTINUOUS
 62
    7
 10
29.864613070609948
 20
13.884112173503013
 11
30.836323070610661
 21
14.875302173502746
  0
LINE
  8
_0-0_
  6
CONTINUOUS
 62
    7
 10
30.836323070610661
 20
14.875302173502746
 11
29.9267430706102
 21
14.875302173502746
  0
LINE
  8
_0-0_
  6
CONTINUOUS
 62
    7
 10
29.9267430706102
 20
14.875302173502746
 11
29.317563070610277
 21
14.25398217350255
  0
LINE
  8
_0-0_
  6
CONTINUOUS
 62
    7
 10
29.317563070610277
 20
14.25398217350255
 11
29.317563070610277
 21
14.875302173502746
  0
LINE
  8
_0-0_
  6
CONTINUOUS
 62
    7
 10
29.317563070610277
 20
14.875302173502746
 11
28.711753070609802
 21
14.875302173502746
  0
LINE
  8
_0-0_
  6
CONTINUOUS
 62
    7
 10
31.417513070610539
 20
14.875302173502746
 11
32.023323070610559
 21
14.875302173502746
  0
LINE
  8
_0-0_
  6
CONTINUOUS
 62
    7
 10
32.023323070610559
 20
14.875302173502746
 11
32.023323070610559
 21
12.626982173503052
  0
LINE
  8
_0-0_
  6
CONTINUOUS
 62
    7
 10
32.023323070610559
 20
12.626982173503052
 11
31.417513070610539
 21
12.626982173503052
  0
LINE
  8
_0-0_
  6
CONTINUOUS
 62
    7
 10
31.417513070610539
 20
12.626982173503052
 11
31.417513070610539
 21
14.875302173502746
  0
LINE
  8
_0-0_
  6
CONTINUOUS
 62
    7
 10
32.539493070610433
 20
15.295062173502515
 11
32.539493070610433
 21
12.295142173502768
  0
LINE
  8
_0-0_
  6
CONTINUOUS
 62
    7
 10
32.039423070610383
 20
11.795092173503122
 11
23.039483070610231
 21
11.795092173503122
  0
LINE
  8
_0-0_
  6
CONTINUOUS
 62
    7
 10
22.53945307061008
 20
12.295142173502768
 11
22.53945307061008
 21
15.295062173502515
  0
LINE
  8
_0-0_
  6
CONTINUOUS
 62
    7
 10
23.039483070610231
 20
15.795132173503021
 11
32.039423070610383
 21
15.795132173503021
  0
CIRCLE
  8
_0-0_
  6
CONTINUOUS
 62
    7
 10
25.539563070610484
 20
28.795122173502818
 40
4.1989502999999999
  0
ARC
  8
_0-0_
  6
CONTINUOUS
 62
    7
 10
24.087493070610208
 20
30.247142173502994
 40
0.8668801000000001
 50
270
 51
0
  0
ARC
  8
_0-0_
  6
CONTINUOUS
 62
    7
 10
26.991533070610558
 20
30.247142173502994
 40
0.8668801000000001
 50
180
 51
270
  0
ARC
  8
_0-0_
  6
CONTINUOUS
 62
    7
 10
26.991533070610558
 20
27.343102173503098
 40
0.8668801000000001
 50
90
 51
180
  0
ARC
  8
_0-0_
  6
CONTINUOUS
 62
    7
 10
24.087493070610208
 20
27.343102173503098
 40
0.8668801000000001
 50
0
 51
90
  0
ARC
  8
_0-0_
  6
CONTINUOUS
 62
    7
 10
25.539563070610484
 20
28.795122173502818
 40
2.7090001000000004
 50
347.52571999999998
 51
12.474273000000045
  0
ARC
  8
_0-0_
  6
CONTINUOUS
 62
    7
 10
25.539563070610484
 20
28.795122173502818
 40
2.7090001000000004
 50
77.525817000000018
 51
102.47418000000005
  0
ARC
  8
_0-0_
  6
CONTINUOUS
 62
    7
 10
25.539563070610484
 20
28.795122173502818
 40
2.7090001000000004
 50
167.52571999999995
 51
192.47426999999996
  0
ARC
  8
_0-0_
  6
CONTINUOUS
 62
    7
 10
25.539563070610484
 20
28.795122173502818
 40
2.7090001000000004
 50
257.52580999999998
 51
282.47417999999999
  0
ARC
  8
_0-0_
  6
CONTINUOUS
 62
    7
 10
7.0395630706104839
 20
37.295122173502818
 40
1.5
 50
90
 51
180
  0
ARC
  8
_0-0_
  6
CONTINUOUS
 62
    7
 10
34.039563070610484
 20
37.295122173502818
 40
1.5
 50
0
 51
90.000000000000028
  0
ARC
  8
_0-0_
  6
CONTINUOUS
 62
    7
 10
34.039563070610484
 20
10.295122173502818
 40
1.5
 50
270
 51
0
  0
ARC
  8
_0-0_
  6
CONTINUOUS
 62
    7
 10
7.0395630706104839
 20
10.295122173502818
 40
1.5
 50
180
 51
270
  0
ARC
  8
_0-0_
  6
CONTINUOUS
 62
    7
 10
32.039423070610383
 20
15.295062173502515
 40
0.4999999
 50
0
 51
90
  0
ARC
  8
_0-0_
  6
CONTINUOUS
 62
    7
 10
32.039423070610383
 20
12.295142173502768
 40
0.4999999
 50
270
 51
0
  0
ARC
  8
_0-0_
  6
CONTINUOUS
 62
    7
 10
23.039483070610231
 20
12.295142173502768
 40
0.4999999
 50
180
 51
270
  0
ARC
  8
_0-0_
  6
CONTINUOUS
 62
    7
 10
23.039483070610231
 20
15.295062173502515
 40
0.4999999
 50
90
 51
180
  0
LINE
  8
_0-0_
  6
CONTINUOUS
 62
    7
 10
76.146200224406016
 20
10.295022173502616
 11
76.146200224406016
 21
37.295122173502818
  0
LINE
  8
_0-0_
  6
CONTINUOUS
 62
    7
 10
77.646200224406016
 20
38.795122173502818
 11
79.146200224406016
 21
38.795122173502818
  0
LINE
  8
_0-0_
  6
CONTINUOUS
 62
    7
 10
79.146200224406016
 20
38.795042173503475
 11
79.146200224406016
 21
8.7950221735035257
  0
LINE
  8
_0-0_
  6
CONTINUOUS
 62
    7
 10
79.146200224406016
 20
8.7950221735026162
 11
77.646200224406016
 21
8.7950221735026162
  0
ARC
  8
_0-0_
  6
CONTINUOUS
 62
    7
 10
77.646200224406016
 20
10.295022173502616
 40
1.5
 50
180
 51
270
  0
ARC
  8
_0-0_
  6
CONTINUOUS
 62
    7
 10
77.646200224406016
 20
37.295122173502818
 40
1.5
 50
90
 51
180
  0
LINE
  8
_0-0_
  6
CONTINUOUS
 62
    7
 10
79.146200224406016
 20
32.895092173503144
 11
80.746200224406039
 21
32.895092173503144
  0
LINE
  8
_0-0_
  6
CONTINUOUS
 62
    7
 10
80.746200224406039
 20
24.695092173503099
 11
80.746200224406039
 21
32.895092173503144
  0
LINE
  8
_0-0_
  6
CONTINUOUS
 62
    7
 10
79.146200224406016
 20
24.695092173503099
 11
80.746200224406039
 21
24.695092173503099
  0
LINE
  8
_0-0_
  6
CONTINUOUS
 62
    7
 10
7.0395230706096754
 20
79.40175932729835
 11
34.039623070609878
 21
79.40175932729835
  0
LINE
  8
_0-0_
  6
CONTINUOUS
 62
    7
 10
35.539623070609878
 20
80.90175932729835
 11
35.539623070609878
 21
82.40175932729835
  0
LINE
  8
_0-0_
  6
CONTINUOUS
 62
    7
 10
35.539543070610534
 20
82.40175932729835
 11
5.5395230706105849
 21
82.40175932729835
  0
LINE
  8
_0-0_
  6
CONTINUOUS
 62
    7
 10
5.5395230706096754
 20
82.40175932729835
 11
5.5395230706096754
 21
80.90175932729835
  0
ARC
  8
_0-0_
  6
CONTINUOUS
 62
    7
 10
7.0395230706096754
 20
80.90175932729835
 40
1.5
 50
180
 51
270
  0
ARC
  8
_0-0_
  6
CONTINUOUS
 62
    7
 10
34.039623070609878
 20
80.90175932729835
 40
1.5
 50
270
 51
0
  0
LINE
  8
_0-0_
  6
CONTINUOUS
 62
    7
 10
29.639593070610204
 20
82.40175932729835
 11
29.639593070610204
 21
84.001759327298373
  0
LINE
  8
_0-0_
  6
CONTINUOUS
 62
    7
 10
21.439593070610158
 20
84.001759327298373
 11
29.639593070610204
 21
84.001759327298373
  0
LINE
  8
_0-0_
  6
CONTINUOUS
 62
    7
 10
21.439593070610158
 20
82.40175932729835
 11
21.439593070610158
 21
84.001759327298373
  0
LINE
  8
_0-0_
  6
CONTINUOUS
 62
    7
 10
29.398141186282828
 20
92.501759327298373
 11
21.681044954937533
 21
92.501759327298373
  0
LINE
  8
_0-0_
  6
CONTINUOUS
 62
    7
 10
20.382006849260961
 20
91.751759327298259
 11
17.63959307061009
 21
87.001759327298373
  0
LINE
  8
_0-0_
  6
CONTINUOUS
 62
    7
 10
17.63959307061009
 20
87.001759327298373
 11
17.63959307061009
 21
84.501759327298373
  0
LINE
  8
_0-0_
  6
CONTINUOUS
 62
    7
 10
17.63959307061009
 20
84.501759327298373
 11
33.439593070610044
 21
84.501759327298373
  0
LINE
  8
_0-0_
  6
CONTINUOUS
 62
    7
 10
33.439593070610044
 20
84.501759327298373
 11
33.439593070610044
 21
87.001759327298373
  0
LINE
  8
_0-0_
  6
CONTINUOUS
 62
    7
 10
33.439593070610044
 20
87.001759327298373
 11
30.697179291959401
 21
91.751759327298259
  0
ARC
  8
_0-0_
  6
CONTINUOUS
 62
    7
 10
21.681044954937533
 20
91.001759327298373
 40
1.5
 50
90
 51
150.00000000000003
  0
ARC
  8
_0-0_
  6
CONTINUOUS
 62
    7
 10
29.398141186282828
 20
91.001759327298373
 40
1.5
 50
29.999999999999964
 51
90
  0
LINE
  8
_0-0_
  6
CONTINUOUS
 62
    7
 10
81.246200224406039
 20
32.895092173503031
 11
81.246200224406039
 21
24.695092173503213
  0
LINE
  8
_0-0_
  6
CONTINUOUS
 62
    7
 10
81.246200224406039
 20
24.695092173503213
 11
83.746200224406039
 21
24.695092173503213
  0
LINE
  8
_0-0_
  6
CONTINUOUS
 62
    7
 10
83.746200224406039
 20
24.695092173503213
 11
88.272377172713846
 21
24.813614288079748
  0
LINE
  8
_0-0_
  6
CONTINUOUS
 62
    7
 10
88.772368202527446
 20
27.83168187146623
 11
83.746200224406039
 21
28.095092173503303
  0
LINE
  8
_0-0_
  6
CONTINUOUS
 62
    7
 10
83.746200224406039
 20
28.095092173503303
 11
83.746200224406039
 21
29.495092173503167
  0
LINE
  8
_0-0_
  6
CONTINUOUS
 62
    7
 10
83.746200224406039
 20
29.495092173503167
 11
88.772368202527446
 21
29.758502475540013
  0
LINE
  8
_0-0_
  6
CONTINUOUS
 62
    7
 10
88.272377172713846
 20
32.776570058926495
 11
83.746200224406039
 21
32.895092173503031
  0
LINE
  8
_0-0_
  6
CONTINUOUS
 62
    7
 10
83.746200224406039
 20
32.895092173503031
 11
81.246200224406039
 21
32.895092173503031
  0
LINE
  8
_0-0_
  6
CONTINUOUS
 62
    7
 10
89.246200224406039
 20
25.813271613055235
 11
89.246200224406039
 21
27.33236710408903
  0
LINE
  8
_0-0_
  6
CONTINUOUS
 62
    7
 10
89.246200224406039
 20
30.25781724291744
 11
89.246200224406039
 21
31.776912733951008
  0
ARC
  8
_0-0_
  6
CONTINUOUS
 62
    7
 10
88.246200224406039
 20
31.776912733951008
 40
1
 50
0
 51
88.499999999999943
  0
ARC
  8
_0-0_
  6
CONTINUOUS
 62
    7
 10
88.246200224406039
 20
25.813271613055235
 40
1
 50
271.49999999999972
 51
359.99999999999994
  0
ARC
  8
_0-0_
  6
CONTINUOUS
 62
    7
 10
88.746200224406039
 20
30.25781724291744
 40
0.5
 50
273.00000000000011
 51
359.99999999999994
  0
ARC
  8
_0-0_
  6
CONTINUOUS
 62
    7
 10
88.746200224406039
 20
27.33236710408903
 40
0.5
 50
0
 51
87.000000000000142
  0
LINE
  8
_0-0_
  6
CONTINUOUS
 62
    7
 10
5.5395230706096754
 20
111.24654022903059
 11
5.5395230706096754
 21
109.74654022903059
  0
ARC
  8
_0-0_
  6
CONTINUOUS
 62
    7
 10
7.0395230706096754
 20
109.74654022903059
 40
1.5
 50
180
 51
270
  0
LINE
  8
_0-0_
  6
CONTINUOUS
 62
    7
 10
29.639593070610204
 20
111.24654022903059
 11
29.639593070610204
 21
112.84654022903061
  0
LINE
  8
_0-0_
  6
CONTINUOUS
 62
    7
 10
21.439593070610158
 20
112.84654022903061
 11
29.639593070610204
 21
112.84654022903061
  0
LINE
  8
_0-0_
  6
CONTINUOUS
 62
    7
 10
21.439593070610158
 20
111.24654022903059
 11
21.439593070610158
 21
112.84654022903061
  0
LINE
  8
_0-0_
  6
CONTINUOUS
 62
    7
 10
109.15205826997874
 20
10.295052173502313
 11
109.15205826997874
 21
37.295152173502515
  0
LINE
  8
_0-0_
  6
CONTINUOUS
 62
    7
 10
110.65205826997874
 20
38.795152173502515
 11
112.15205826997874
 21
38.795152173502515
  0
LINE
  8
_0-0_
  6
CONTINUOUS
 62
    7
 10
112.15205826997874
 20
38.795072173503172
 11
112.15205826997874
 21
8.7950521735032225
  0
LINE
  8
_0-0_
  6
CONTINUOUS
 62
    7
 10
112.15205826997874
 20
8.7950521735023131
 11
110.65205826997874
 21
8.7950521735023131
  0
ARC
  8
_0-0_
  6
CONTINUOUS
 62
    7
 10
110.65205826997874
 20
10.295052173502313
 40
1.5
 50
180
 51
270
  0
ARC
  8
_0-0_
  6
CONTINUOUS
 62
    7
 10
110.65205826997874
 20
37.295152173502515
 40
1.5
 50
90
 51
180
  0
LINE
  8
_0-0_
  6
CONTINUOUS
 62
    7
 10
112.15205826997874
 20
32.895122173502841
 11
113.75205826997876
 21
32.895122173502841
  0
LINE
  8
_0-0_
  6
CONTINUOUS
 62
    7
 10
113.75205826997876
 20
24.695122173502796
 11
113.75205826997876
 21
32.895122173502841
  0
LINE
  8
_0-0_
  6
CONTINUOUS
 62
    7
 10
112.15205826997874
 20
24.695122173502796
 11
113.75205826997876
 21
24.695122173502796
  0
LINE
  8
_0-0_
  6
CONTINUOUS
 62
    7
 10
136.85081518937523
 20
20.895122173502727
 11
136.85081518937523
 21
36.695122173502682
  0
LINE
  8
_0-0_
  6
CONTINUOUS
 62
    7
 10
136.85081518937523
 20
36.695122173502682
 11
145.05081518937516
 21
36.695122173502682
  0
LINE
  8
_0-0_
  6
CONTINUOUS
 62
    7
 10
145.05081518937516
 20
36.695122173502682
 11
145.05081518937516
 21
20.895122173502727
  0
LINE
  8
_0-0_
  6
CONTINUOUS
 62
    7
 10
145.05081518937516
 20
20.895122173502727
 11
136.85081518937523
 21
20.895122173502727
  0
LINE
  8
_0-0_
  6
CONTINUOUS
 62
    7
 10
140.2508151893752
 20
20.895122173502727
 11
140.2508151893752
 21
36.695122173502682
  0
LINE
  8
_0-0_
  6
CONTINUOUS
 62
    7
 10
141.65081518937518
 20
20.895122173502727
 11
141.65081518937518
 21
36.695122173502682
  0
ARC
  8
_0-0_
  6
CONTINUOUS
 62
    7
 10
140.95081518937513
 20
28.795122173502818
 40
1.4689805517923702
 50
61.541575153774303
 51
118.4584248462274
  0
ARC
  8
_0-0_
  6
CONTINUOUS
 62
    7
 10
140.95081518937513
 20
28.795122173502818
 40
1.4689805517923702
 50
241.54157515377253
 51
298.45842484622574
  0
LINE
  8
_0-0_
  6
CONTINUOUS
 62
    7
 10
122.25205826997876
 20
24.936574057830171
 11
122.25205826997876
 21
32.653670289175466
  0
LINE
  8
_0-0_
  6
CONTINUOUS
 62
    7
 10
121.50205826997865
 20
33.952708394852039
 11
116.75205826997876
 21
36.695122173502909
  0
LINE
  8
_0-0_
  6
CONTINUOUS
 62
    7
 10
116.75205826997876
 20
36.695122173502909
 11
114.25205826997876
 21
36.695122173502909
  0
LINE
  8
_0-0_
  6
CONTINUOUS
 62
    7
 10
114.25205826997876
 20
36.695122173502909
 11
114.25205826997876
 21
20.895122173502955
  0
LINE
  8
_0-0_
  6
CONTINUOUS
 62
    7
 10
114.25205826997876
 20
20.895122173502955
 11
116.75205826997876
 21
20.895122173502955
  0
LINE
  8
_0-0_
  6
CONTINUOUS
 62
    7
 10
116.75205826997876
 20
20.895122173502955
 11
121.50205826997865
 21
23.637535952153598
  0
ARC
  8
_0-0_
  6
CONTINUOUS
 62
    7
 10
120.75205826997876
 20
32.653670289175466
 40
1.5
 50
0
 51
60.000000000000021
  0
ARC
  8
_0-0_
  6
CONTINUOUS
 62
    7
 10
120.75205826997876
 20
24.936574057830171
 40
1.5
 50
299.99999999999989
 51
0
  0
LINE
  8
_0-0_
  6
CONTINUOUS
 62
    7
 10
21.439593070610272
 20
113.34654022903061
 11
29.63959307061009
 21
113.34654022903061
  0
LINE
  8
_0-0_
  6
CONTINUOUS
 62
    7
 10
29.63959307061009
 20
113.34654022903061
 11
29.63959307061009
 21
115.84654022903061
  0
LINE
  8
_0-0_
  6
CONTINUOUS
 62
    7
 10
29.63959307061009
 20
115.84654022903061
 11
29.521070956033554
 21
120.37271717733842
  0
LINE
  8
_0-0_
  6
CONTINUOUS
 62
    7
 10
26.503003372647072
 20
120.87270820715202
 11
26.239593070609999
 21
115.84654022903061
  0
LINE
  8
_0-0_
  6
CONTINUOUS
 62
    7
 10
26.239593070609999
 20
115.84654022903061
 11
24.839593070610135
 21
115.84654022903061
  0
LINE
  8
_0-0_
  6
CONTINUOUS
 62
    7
 10
24.839593070610135
 20
115.84654022903061
 11
24.57618276857329
 21
120.87270820715202
  0
LINE
  8
_0-0_
  6
CONTINUOUS
 62
    7
 10
21.558115185186807
 20
120.37271717733842
 11
21.439593070610272
 21
115.84654022903061
  0
LINE
  8
_0-0_
  6
CONTINUOUS
 62
    7
 10
21.439593070610272
 20
115.84654022903061
 11
21.439593070610272
 21
113.34654022903061
  0
LINE
  8
_0-0_
  6
CONTINUOUS
 62
    7
 10
28.521413631058067
 20
121.34654022903061
 11
27.002318140024272
 21
121.34654022903061
  0
LINE
  8
_0-0_
  6
CONTINUOUS
 62
    7
 10
24.076868001195862
 20
121.34654022903061
 11
22.557772510162295
 21
121.34654022903061
  0
ARC
  8
_0-0_
  6
CONTINUOUS
 62
    7
 10
22.557772510162295
 20
120.34654022903061
 40
1
 50
90
 51
178.49999999999994
  0
ARC
  8
_0-0_
  6
CONTINUOUS
 62
    7
 10
28.521413631058067
 20
120.34654022903061
 40
1
 50
1.4999999999997029
 51
89.999999999999929
  0
ARC
  8
_0-0_
  6
CONTINUOUS
 62
    7
 10
24.076868001195862
 20
120.84654022903061
 40
0.5
 50
3.0000000000001186
 51
89.999999999999943
  0
ARC
  8
_0-0_
  6
CONTINUOUS
 62
    7
 10
27.002318140024272
 20
120.84654022903061
 40
0.5
 50
90
 51
177.00000000000014
  0
LINE
  8
_0-0_
  6
CONTINUOUS
 62
    7
 10
7.0395230706096754
 20
108.24654022903059
 11
34.039543070610534
 21
108.24654022903059
  0
LINE
  8
_0-0_
  6
CONTINUOUS
 62
    7
 10
35.539543070610534
 20
109.74654022903059
 11
35.539543070610534
 21
111.24654022903059
  0
LINE
  8
_0-0_
  6
CONTINUOUS
 62
    7
 10
35.539463070611191
 20
111.24654022903059
 11
5.5395230706105849
 21
111.24654022903059
  0
ARC
  8
_0-0_
  6
CONTINUOUS
 62
    7
 10
34.039543070610534
 20
109.74654022903059
 40
1.5
 50
270
 51
0
  0
LINE
  8
_0-1_
  6
CENTER2
 62
  152
 10
20.53954307061008
 20
28.795122173502818
 11
30.539583070609979
 21
28.795122173502818
  0
LINE
  8
_0-1_
  6
CENTER2
 62
  152
 10
25.539563070610484
 20
23.795122173502818
 11
25.539563070610484
 21
33.795092173502667
  0
LINE
  8
_0-1_
  6
CENTER1
 62
  152
 10
25.539593070610181
 20
92.401759327298464
 11
25.539593070610181
 21
79.401759327298237
  0
LINE
  8
_0-1_
  6
CENTER1
 62
  152
 10
91.257233121068111
 20
28.795092173503122
 11
75.341258820500229
 21
28.795092173503122
  0
LINE
  8
_0-1_
  6
DASHED2
 62
  152
 10
27.13959307061009
 20
84.501759327298373
 11
27.008573622402537
 21
87.001759327298373
  0
LINE
  8
_0-1_
  6
DASHED2
 62
  152
 10
24.070612518817597
 20
87.001759327298373
 11
23.939593070610044
 21
84.501759327298373
  0
LINE
  8
_0-1_
  6
DASHED2
 62
  152
 10
17.63959307061009
 20
87.001759327298373
 11
33.439593070610044
 21
87.001759327298373
  0
LINE
  8
_0-1_
  6
DASHED2
 62
  152
 10
81.246200224406039
 20
30.395092173503031
 11
83.746200224406039
 21
30.264072725295478
  0
LINE
  8
_0-1_
  6
DASHED2
 62
  152
 10
83.746200224406039
 20
30.264072725295478
 11
83.746200224406039
 21
27.326111621710766
  0
LINE
  8
_0-1_
  6
DASHED2
 62
  152
 10
83.746200224406039
 20
27.326111621710766
 11
81.246200224406039
 21
27.195092173503213
  0
LINE
  8
_0-1_
  6
CENTER1
 62
  152
 10
25.539593070610181
 20
121.2465402290307
 11
25.539593070610181
 21
108.24654022903047
  0
LINE
  8
_0-1_
  6
CENTER1
 62
  152
 10
124.26309116664083
 20
28.795122173502818
 11
108.34711686607295
 21
28.795122173502818
  0
LINE
  8
_0-1_
  6
CENTER1
 62
  152
 10
140.95081518937513
 20
36.695122173502682
 11
140.95081518937513
 21
20.895122173502727
  0
LINE
  8
_0-1_
  6
CENTER1
 62
  152
 10
145.05081518937516
 20
28.795122173502818
 11
136.85081518937523
 21
28.795122173502818
  0
ARC
  8
_0-1_
  6
DASHED2
 62
  152
 10
140.95081518937513
 20
28.795122173502818
 40
1.4689805517923702
 50
298.45842484622574
 51
61.541575153774332
  0
ARC
  8
_0-1_
  6
DASHED2
 62
  152
 10
140.95081518937513
 20
28.795122173502818
 40
1.4689805517923702
 50
118.45842484622747
 51
241.54157515377261
  0
LINE
  8
_0-1_
  6
DASHED2
 62
  152
 10
114.25205826997876
 20
27.195122173502909
 11
116.75205826997876
 21
27.326141621710462
  0
LINE
  8
_0-1_
  6
DASHED2
 62
  152
 10
116.75205826997876
 20
30.264102725295402
 11
114.25205826997876
 21
30.395122173502955
  0
LINE
  8
_0-1_
  6
DASHED2
 62
  152
 10
116.75205826997876
 20
36.695122173502909
 11
116.75205826997876
 21
20.895122173502955
  0
LINE
  8
_0-1_
  6
DASHED2
 62
  152
 10
23.939593070610272
 20
113.34654022903061
 11
24.070612518817825
 21
115.84654022903061
  0
LINE
  8
_0-1_
  6
DASHED2
 62
  152
 10
24.070612518817825
 20
115.84654022903061
 11
27.008573622402537
 21
115.84654022903061
  0
LINE
  8
_0-1_
  6
DASHED2
 62
  152
 10
27.008573622402537
 20
115.84654022903061
 11
27.13959307061009
 21
113.34654022903061
  0
ENDSEC
  0
EOF
