  0
SECTION
  2
HEADER
  9
$ACADVER
  1
AC1009
  9
$INSBASE
 10
0
 20
0
 30
0
  9
$EXTMIN
 10
0
 20
0
  9
$EXTMAX
 10
1189
 20
841
  9
$LIMMIN
 10
0
 20
0
  9
$LIMMAX
 10
1189
 20
841
  9
$LTSCALE
 40
1
  0
ENDSEC
  0
SECTION
  2
TABLES
  0
TABLE
  2
LTYPE
 70
     9
  0
LTYPE
  2
CONTINUOUS
 70
    64
  3
実線
 72
    65
 73
     0
 40
0.0
  0
LTYPE
  2
DASHED1
 70
    64
  3
--  --  --  --  --  --  --  --  
 72
    65
 73
     2
 40
2.5
 49
1.25
 49
-1.25
  0
LTYPE
  2
DASHED2
 70
    64
  3
----    ----    ----    ----    
 72
    65
 73
     2
 40
5.0
 49
2.5
 49
-2.5
  0
LTYPE
  2
DASHED3
 70
    64
  3
------  ------  ------  ------  
 72
    65
 73
     2
 40
5.0
 49
3.75
 49
-1.25
  0
LTYPE
  2
CENTER1
 70
    64
  3
----- - ----- - ----- - ----- - 
 72
    65
 73
     4
 40
10.0
 49
6.25
 49
-1.25
 49
1.25
 49
-1.25
  0
LTYPE
  2
CENTER2
 70
    64
  3
----------  --  ----------  --  
 72
    65
 73
     4
 40
20.0
 49
12.5
 49
-2.5
 49
2.5
 49
-2.5
  0
LTYPE
  2
PHANTOM1
 70
    64
  3
--- - - --- - - --- - - --- - - 
 72
    65
 73
     6
 40
10.0
 49
3.25
 49
-1.25
 49
1.25
 49
-1.25
 49
1.25
 49
-1.25
  0
LTYPE
  2
PHANTOM2
 70
    64
  3
--------  -  -  --------  -  -  
 72
    65
 73
     6
 40
20.0
 49
10.0
 49
-2.5
 49
1.25
 49
-2.5
 49
1.25
 49
-2.5
  0
LTYPE
  2
DOT
 70
    64
  3
-   -   -   -   -   -   -   -   
 72
    65
 73
     2
 40
2.5
 49
0.625
 49
-1.875
  0
LTYPE
  2
DUMMY
 70
    64
  3
ダミー
 72
    65
 73
     0
 40
0.0
  0
LTYPE
  2
RAND1
 70
    64
  3
ランダム線1
 72
    65
 73
     4
 40
10.0
 49
1.0
 49
-2.0
 49
3.0
 49
-4.0
  0
LTYPE
  2
RAND2
 70
    64
  3
ランダム線2
 72
    65
 73
     4
 40
14.0
 49
2.0
 49
-3.0
 49
4.0
 49
-5.0
  0
LTYPE
  2
RAND3
 70
    64
  3
ランダム線3
 72
    65
 73
     4
 40
18.0
 49
3.0
 49
-4.0
 49
5.0
 49
-6.0
  0
LTYPE
  2
RAND4
 70
    64
  3
ランダム線4
 72
    65
 73
     4
 40
22.0
 49
4.0
 49
-5.0
 49
6.0
 49
-7.0
  0
LTYPE
  2
RAND5
 70
    64
  3
ランダム線5
 72
    65
 73
     4
 40
26.0
 49
5.0
 49
-6.0
 49
7.0
 49
-8.0
  0
LTYPE
  2
LONG1
 70
    64
  3
----------  --  ----------  --  
 72
    65
 73
     4
 40
40.0
 49
32.5
 49
-2.5
 49
2.5
 49
-2.5
  0
LTYPE
  2
LONG2
 70
    64
  3
--------  -  -  --------  -  -  
 72
    65
 73
     6
 40
40.0
 49
30.0
 49
-2.5
 49
1.25
 49
-2.5
 49
1.25
 49
-2.5
  0
LTYPE
  2
LONG3
 70
    64
  3
+++++++++++++++..+++++++++++++++
 72
    65
 73
     2
 40
40.0
 49
37.5
 49
-2.5
  0
LTYPE
  2
LONG4
 70
    64
  3
+++++++++++++++..+++++++++++++++
 72
    65
 73
     2
 40
80.0
 49
75.0
 49
-5.0
  0
LTYPE
  2
LONG5
 70
    64
  3
----------  --  ----------  --  
 72
    65
 73
     4
 40
60.0
 49
37.5
 49
-7.5
 49
7.5
 49
-7.5
  0
LTYPE
  2
dashed
 70
   64
  3
-------   -------------   ------
 72
   65
 73
    2
 40
7.5
 49
6
 49
-1.5
  0
LTYPE
  2
dashed_spaced
 70
   64
  3
----        --------        ----
 72
   65
 73
    2
 40
12
 49
6
 49
-6
  0
LTYPE
  2
long_dashed_dotted
 70
   64
  3
------------- --- --------------
 72
   65
 73
    4
 40
15.25
 49
12
 49
-1.5
 49
0.25
 49
-1.5
  0
LTYPE
  2
long_dashed_double-dotted
 70
   64
  3
----------- --- --- ------------
 72
   65
 73
    6
 40
17
 49
12
 49
-1.5
 49
0.25
 49
-1.5
 49
0.25
 49
-1.5
  0
LTYPE
  2
long_dashed_triplicate-dotted
 70
   64
  3
--------- --- --- --- ----------
 72
   65
 73
    8
 40
18.75
 49
12
 49
-1.5
 49
0.25
 49
-1.5
 49
0.25
 49
-1.5
 49
0.25
 49
-1.5
  0
LTYPE
  2
dotted
 70
   64
  3
   -       -       -       -    
 72
   65
 73
    2
 40
1.75
 49
0.25
 49
-1.5
  0
LTYPE
  2
chain
 70
   64
  3
-------------- -- --------------
 72
   65
 73
    4
 40
18.5
 49
12
 49
-1.5
 49
3.5
 49
-1.5
  0
LTYPE
  2
chain_double_dash
 70
   64
  3
------------ -- -- -------------
 72
   65
 73
    6
 40
23.5
 49
12
 49
-1.5
 49
3.5
 49
-1.5
 49
3.5
 49
-1.5
  0
LTYPE
  2
dashed_dotted
 70
   64
  3
-----------     -     ----------
 72
   65
 73
    4
 40
9.25
 49
6
 49
-1.5
 49
0.25
 49
-1.5
  0
LTYPE
  2
double-dashed_dotted
 70
   64
  3
------   -----------   -   -----
 72
   65
 73
    6
 40
16.75
 49
6
 49
-1.5
 49
6
 49
-1.5
 49
0.25
 49
-1.5
  0
LTYPE
  2
dashed_double-dotted
 70
   64
  3
---------    -    -    ---------
 72
   65
 73
    6
 40
11
 49
6
 49
-1.5
 49
0.25
 49
-1.5
 49
0.25
 49
-1.5
  0
LTYPE
  2
double-dashed_double-dotted
 70
   64
  3
-----   ---------   -   -   ----
 72
   65
 73
    8
 40
18.5
 49
6
 49
-1.5
 49
6
 49
-1.5
 49
0.25
 49
-1.5
 49
0.25
 49
-1.5
  0
LTYPE
  2
dashed_triplicate-dotted
 70
   64
  3
-------    -    -    -    ------
 72
   65
 73
    8
 40
12.75
 49
6
 49
-1.5
 49
0.25
 49
-1.5
 49
0.25
 49
-1.5
 49
0.25
 49
-1.5
  0
LTYPE
  2
double-dashed_triplicate-dotted
 70
   64
  3
-----  ---------  -  -  -  -----
 72
   65
 73
   10
 40
20.25
 49
6
 49
-1.5
 49
6
 49
-1.5
 49
0.25
 49
-1.5
 49
0.25
 49
-1.5
 49
0.25
 49
-1.5
  0
LTYPE
  2
undefined
 70
   64
  3
--------------------------------
 72
   65
 73
    0
 40
0
  0
ENDTAB
  0
TABLE
  2
STYLE
  5
3
100
AcDbSymbolTable
 70
     1
  0
STYLE
  5
10
100
AcDbSymbolTableRecord
100
AcDbTextStyleTableRecord
  2
STANDARD
 70
     0
 40
0.0
 41
1.0
 50
0.0
 71
     0
 42
0.2
  3
txt
  4
bigfont.shx
  0
STYLE
  5
26
100
AcDbSymbolTableRecord
100
AcDbTextStyleTableRecord
  2
TATEGAKI
 70
    68
 40
0.0
 41
1.0
 50
0.0
 71
     0
 42
1.0
  3
txt
  4
bigfont.shx
  0
ENDTAB
  0
TABLE
  2
LAYER
 70
    4
  0
LAYER
  2
_0-0_
 70
   64
 62
    7
  6
CONTINUOUS
  0
LAYER
  2
_0-1_
 70
   64
 62
    7
  6
CONTINUOUS
  0
LAYER
  2
_0-f_
 70
   64
 62
    7
  6
CONTINUOUS
  0
LAYER
  2
ADD_LINE
 70
   64
 62
    7
  6
CONTINUOUS
  0
ENDTAB
  0
ENDSEC
  0
SECTION
  2
BLOCKS
  0
ENDSEC
  0
SECTION
  2
ENTITIES
  0
TEXT
  8
_0-f_
 62
    7
 10
1.1447227396367907
 20
1.5424631157235922
 40
4.2999999999999998
 41
0.744186046511628
 50
0
  1
EP26_EP26S
  0
LINE
  8
_0-0_
  6
CONTINUOUS
 62
    7
 10
108.42879404607294
 20
80.093468040388643
 11
51.428794046072881
 21
80.093468040388643
  0
LINE
  8
_0-0_
  6
CONTINUOUS
 62
    7
 10
49.928794046072881
 20
78.593468040388643
 11
49.928794046072881
 21
61.593468040388643
  0
LINE
  8
_0-0_
  6
CONTINUOUS
 62
    7
 10
51.428794046072881
 20
60.093468040388643
 11
108.42879404607294
 21
60.093468040388643
  0
LINE
  8
_0-0_
  6
CONTINUOUS
 62
    7
 10
109.92879404607294
 20
61.593468040388643
 11
109.92879404607294
 21
78.593468040388643
  0
LINE
  8
_0-0_
  6
CONTINUOUS
 62
    7
 10
67.728793998389165
 20
70.533468038004457
 11
68.608793993620793
 21
70.533468038004457
  0
LINE
  8
_0-0_
  6
CONTINUOUS
 62
    7
 10
67.728793998389165
 20
70.533468038004457
 11
67.728793998389165
 21
69.653468042772829
  0
LINE
  8
_0-0_
  6
CONTINUOUS
 62
    7
 10
67.728793998389165
 20
69.653468042772829
 11
68.608793993620793
 21
69.653468042772829
  0
LINE
  8
_0-0_
  6
CONTINUOUS
 62
    7
 10
69.488794048457066
 20
68.773467987936556
 11
69.488794048457066
 21
67.893467992704927
  0
LINE
  8
_0-0_
  6
CONTINUOUS
 62
    7
 10
69.488794048457066
 20
67.893467992704927
 11
70.368794043688695
 21
67.893467992704927
  0
LINE
  8
_0-0_
  6
CONTINUOUS
 62
    7
 10
70.368794043688695
 20
67.893467992704927
 11
70.368794043688695
 21
68.773467987936556
  0
LINE
  8
_0-0_
  6
CONTINUOUS
 62
    7
 10
71.248794098524968
 20
69.653468042772829
 11
72.128794093756596
 21
69.653468042772829
  0
LINE
  8
_0-0_
  6
CONTINUOUS
 62
    7
 10
72.128794093756596
 20
69.653468042772829
 11
72.128794093756596
 21
70.533468038004457
  0
LINE
  8
_0-0_
  6
CONTINUOUS
 62
    7
 10
72.128794093756596
 20
70.533468038004457
 11
71.248794098524968
 21
70.533468038004457
  0
LINE
  8
_0-0_
  6
CONTINUOUS
 62
    7
 10
70.368794043688695
 20
71.413468092840731
 11
70.368794043688695
 21
72.293468088072359
  0
LINE
  8
_0-0_
  6
CONTINUOUS
 62
    7
 10
70.368794043688695
 20
72.293468088072359
 11
69.488794048457066
 21
72.293468088072359
  0
LINE
  8
_0-0_
  6
CONTINUOUS
 62
    7
 10
69.488794048457066
 20
72.293468088072359
 11
69.488794048457066
 21
71.413468092840731
  0
LINE
  8
_0-0_
  6
CONTINUOUS
 62
    7
 10
103.23978404607288
 20
64.740418040388477
 11
103.8769740460728
 21
64.740418040388477
  0
LINE
  8
_0-0_
  6
CONTINUOUS
 62
    7
 10
103.86087404607252
 20
65.623218040388792
 11
103.23675404607258
 21
65.623218040388792
  0
LINE
  8
_0-0_
  6
CONTINUOUS
 62
    7
 10
101.67262404607283
 20
65.918128040388865
 11
100.5657240460726
 21
65.918128040388865
  0
LINE
  8
_0-0_
  6
CONTINUOUS
 62
    7
 10
100.5657240460726
 20
65.918128040388865
 11
100.5657240460726
 21
65.349988040388553
  0
LINE
  8
_0-0_
  6
CONTINUOUS
 62
    7
 10
100.5657240460726
 20
65.349988040388553
 11
101.56706404607286
 21
65.349988040388553
  0
LINE
  8
_0-0_
  6
CONTINUOUS
 62
    7
 10
101.56706404607286
 20
65.349988040388553
 11
101.56706404607286
 21
64.940008040388648
  0
LINE
  8
_0-0_
  6
CONTINUOUS
 62
    7
 10
101.56706404607286
 20
64.940008040388648
 11
100.5657240460726
 21
64.940008040388648
  0
LINE
  8
_0-0_
  6
CONTINUOUS
 62
    7
 10
100.5657240460726
 20
64.940008040388648
 11
100.5657240460726
 21
64.341748040388438
  0
LINE
  8
_0-0_
  6
CONTINUOUS
 62
    7
 10
100.5657240460726
 20
64.341748040388438
 11
101.67262404607283
 21
64.341748040388438
  0
LINE
  8
_0-0_
  6
CONTINUOUS
 62
    7
 10
101.67262404607283
 20
64.341748040388438
 11
101.67262404607283
 21
63.904998040388591
  0
LINE
  8
_0-0_
  6
CONTINUOUS
 62
    7
 10
101.67262404607283
 20
63.904998040388591
 11
99.956964046072983
 21
63.904998040388591
  0
LINE
  8
_0-0_
  6
CONTINUOUS
 62
    7
 10
99.956964046072983
 20
63.904998040388591
 11
99.956964046072983
 21
66.35486804038851
  0
LINE
  8
_0-0_
  6
CONTINUOUS
 62
    7
 10
99.956964046072983
 20
66.35486804038851
 11
101.67262404607283
 21
66.35486804038851
  0
LINE
  8
_0-0_
  6
CONTINUOUS
 62
    7
 10
101.67262404607283
 20
66.35486804038851
 11
101.67262404607283
 21
65.918128040388865
  0
LINE
  8
_0-0_
  6
CONTINUOUS
 62
    7
 10
98.381324046072507
 20
66.35486804038851
 11
98.381324046072507
 21
64.341748040388438
  0
LINE
  8
_0-0_
  6
CONTINUOUS
 62
    7
 10
98.381324046072507
 20
64.341748040388438
 11
99.485604046072524
 21
64.341748040388438
  0
LINE
  8
_0-0_
  6
CONTINUOUS
 62
    7
 10
99.485604046072524
 20
64.341748040388438
 11
99.485604046072524
 21
63.904998040388591
  0
LINE
  8
_0-0_
  6
CONTINUOUS
 62
    7
 10
99.485604046072524
 20
63.904998040388591
 11
97.770394046072681
 21
63.904998040388591
  0
LINE
  8
_0-0_
  6
CONTINUOUS
 62
    7
 10
97.770394046072681
 20
63.904998040388591
 11
97.770394046072681
 21
66.35486804038851
  0
LINE
  8
_0-0_
  6
CONTINUOUS
 62
    7
 10
97.770394046072681
 20
66.35486804038851
 11
98.381324046072507
 21
66.35486804038851
  0
LINE
  8
_0-0_
  6
CONTINUOUS
 62
    7
 10
96.928794046072937
 20
66.693468040388552
 11
96.928794046072937
 21
63.493468040388279
  0
LINE
  8
_0-0_
  6
CONTINUOUS
 62
    7
 10
97.328794046072574
 20
63.093468040388643
 11
106.52879404607285
 21
63.093468040388643
  0
LINE
  8
_0-0_
  6
CONTINUOUS
 62
    7
 10
106.92879404607294
 20
63.493468040388279
 11
106.92879404607294
 21
66.693468040388552
  0
LINE
  8
_0-0_
  6
CONTINUOUS
 62
    7
 10
106.52879404607285
 20
67.093468040388643
 11
97.328794046072574
 21
67.093468040388643
  0
ARC
  8
_0-0_
  6
CONTINUOUS
 62
    7
 10
51.428794046072881
 20
61.593468040388643
 40
1.5000000000000002
 50
180
 51
270
  0
ARC
  8
_0-0_
  6
CONTINUOUS
 62
    7
 10
51.428794046072881
 20
78.593468040388643
 40
1.5000000000000002
 50
90
 51
180
  0
ARC
  8
_0-0_
  6
CONTINUOUS
 62
    7
 10
108.42879404607294
 20
61.593468040388643
 40
1.5000000000000002
 50
270
 51
0
  0
ARC
  8
_0-0_
  6
CONTINUOUS
 62
    7
 10
108.42879404607294
 20
78.593468040388643
 40
1.5000000000000002
 50
0
 51
90
  0
ARC
  8
_0-0_
  6
CONTINUOUS
 62
    7
 10
104.99901404607255
 20
65.129938040388652
 40
2.8787836000000007
 50
164.21600000000004
 51
195.78399000000002
  0
ARC
  8
_0-0_
  6
CONTINUOUS
 62
    7
 10
110.08361404607268
 20
65.129938040388652
 40
7.3112867000000001
 50
176.78918999999999
 51
183.21080000000001
  0
ARC
  8
_0-0_
  6
CONTINUOUS
 62
    7
 10
102.87752404607255
 20
64.571748040388457
 40
0.6866147
 50
199.11812000000006
 51
253.77089000000001
  0
ARC
  8
_0-0_
  6
CONTINUOUS
 62
    7
 10
103.01183404607292
 20
65.195148040388403
 40
1.3234835
 50
255.73070000000004
 51
284.26929000000007
  0
ARC
  8
_0-0_
  6
CONTINUOUS
 62
    7
 10
103.14615404607258
 20
64.571748040388457
 40
0.6866147
 50
286.22910000000002
 51
340.88186999999999
  0
ARC
  8
_0-0_
  6
CONTINUOUS
 62
    7
 10
101.02466404607259
 20
65.129938040388652
 40
2.8787836000000007
 50
344.21599999999995
 51
352.22374999999994
  0
ARC
  8
_0-0_
  6
CONTINUOUS
 62
    7
 10
103.01183404607292
 20
64.490758040388528
 40
0.1990355
 50
198.78093000000001
 51
341.21906000000001
  0
ARC
  8
_0-0_
  6
CONTINUOUS
 62
    7
 10
102.12838404607265
 20
64.721018040388344
 40
1.1115687000000003
 50
344.64474000000007
 51
1.0000756000000433
  0
ARC
  8
_0-0_
  6
CONTINUOUS
 62
    7
 10
103.89528404607273
 20
64.721018040388344
 40
1.1115687000000003
 50
179.28076999999999
 51
195.35525000000001
  0
ARC
  8
_0-0_
  6
CONTINUOUS
 62
    7
 10
103.01183404607292
 20
65.769118040388776
 40
0.1990355
 50
18.780933999999998
 51
161.21906000000001
  0
ARC
  8
_0-0_
  6
CONTINUOUS
 62
    7
 10
103.89528404607273
 20
65.538848040388757
 40
1.1115687000000003
 50
164.64474000000004
 51
180.71922000000004
  0
ARC
  8
_0-0_
  6
CONTINUOUS
 62
    7
 10
102.12838404607265
 20
65.538848040388757
 40
1.1115687000000003
 50
4.3528099999999998
 51
15.355258000000001
  0
ARC
  8
_0-0_
  6
CONTINUOUS
 62
    7
 10
103.14615404607258
 20
65.688118040388645
 40
0.6866147
 50
19.118120000000001
 51
73.770895999999979
  0
ARC
  8
_0-0_
  6
CONTINUOUS
 62
    7
 10
101.02466404607259
 20
65.129938040388652
 40
2.8787836000000007
 50
9.8663227000000013
 51
15.783997000000001
  0
ARC
  8
_0-0_
  6
CONTINUOUS
 62
    7
 10
103.01183404607292
 20
65.0647280403889
 40
1.3234835
 50
75.730706999999995
 51
104.26929
  0
ARC
  8
_0-0_
  6
CONTINUOUS
 62
    7
 10
102.87752404607255
 20
65.688118040388645
 40
0.6866147
 50
106.2291
 51
160.88186999999999
  0
ARC
  8
_0-0_
  6
CONTINUOUS
 62
    7
 10
107.14616404607278
 20
65.129938040388652
 40
2.8787836000000007
 50
164.21600000000004
 51
195.78399000000002
  0
ARC
  8
_0-0_
  6
CONTINUOUS
 62
    7
 10
112.23076404607292
 20
65.129938040388652
 40
7.3112867000000001
 50
176.78918999999999
 51
183.21080000000001
  0
ARC
  8
_0-0_
  6
CONTINUOUS
 62
    7
 10
98.087214046072688
 20
65.129938040388652
 40
7.3112867000000001
 50
356.78919000000002
 51
3.2108098999999948
  0
ARC
  8
_0-0_
  6
CONTINUOUS
 62
    7
 10
105.15899404607291
 20
64.490758040388528
 40
0.1990355
 50
198.78093000000001
 51
341.21906000000001
  0
ARC
  8
_0-0_
  6
CONTINUOUS
 62
    7
 10
105.15899404607291
 20
65.195148040388403
 40
1.3234835
 50
255.73070000000004
 51
284.26929000000007
  0
ARC
  8
_0-0_
  6
CONTINUOUS
 62
    7
 10
105.29330404607282
 20
64.571748040388457
 40
0.6866147
 50
286.22910000000002
 51
340.88186999999999
  0
ARC
  8
_0-0_
  6
CONTINUOUS
 62
    7
 10
105.02467404607279
 20
64.571748040388457
 40
0.6866147
 50
199.11812000000006
 51
253.77089000000001
  0
ARC
  8
_0-0_
  6
CONTINUOUS
 62
    7
 10
103.17181404607283
 20
65.129938040388652
 40
2.8787836000000007
 50
344.21599999999995
 51
15.783997000000026
  0
ARC
  8
_0-0_
  6
CONTINUOUS
 62
    7
 10
104.27553404607289
 20
64.721018040388344
 40
1.1115687000000003
 50
344.64474000000007
 51
0.719224299999991
  0
ARC
  8
_0-0_
  6
CONTINUOUS
 62
    7
 10
106.04244404607272
 20
64.721018040388344
 40
1.1115687000000003
 50
179.28076999999999
 51
195.35525000000001
  0
ARC
  8
_0-0_
  6
CONTINUOUS
 62
    7
 10
106.04244404607272
 20
65.538848040388757
 40
1.1115687000000003
 50
164.64474000000004
 51
180.71922000000004
  0
ARC
  8
_0-0_
  6
CONTINUOUS
 62
    7
 10
105.15899404607291
 20
65.769118040388776
 40
0.1990355
 50
18.780933999999998
 51
161.21906000000001
  0
ARC
  8
_0-0_
  6
CONTINUOUS
 62
    7
 10
104.27553404607289
 20
65.538848040388757
 40
1.1115687000000003
 50
359.28076999999996
 51
15.355257999999957
  0
ARC
  8
_0-0_
  6
CONTINUOUS
 62
    7
 10
105.15899404607291
 20
65.0647280403889
 40
1.3234835
 50
75.730706999999995
 51
104.26929
  0
ARC
  8
_0-0_
  6
CONTINUOUS
 62
    7
 10
105.02467404607279
 20
65.688118040388645
 40
0.6866147
 50
106.2291
 51
160.88186999999999
  0
ARC
  8
_0-0_
  6
CONTINUOUS
 62
    7
 10
105.29330404607282
 20
65.688118040388645
 40
0.6866147
 50
19.118120000000001
 51
73.770895999999979
  0
ARC
  8
_0-0_
  6
CONTINUOUS
 62
    7
 10
106.52879404607285
 20
63.493468040388279
 40
0.4
 50
270
 51
0
  0
ARC
  8
_0-0_
  6
CONTINUOUS
 62
    7
 10
106.52879404607285
 20
66.693468040388552
 40
0.4
 50
0
 51
90
  0
ARC
  8
_0-0_
  6
CONTINUOUS
 62
    7
 10
97.328794046072574
 20
66.693468040388552
 40
0.4
 50
90
 51
180
  0
ARC
  8
_0-0_
  6
CONTINUOUS
 62
    7
 10
97.328794046072574
 20
63.493468040388279
 40
0.4
 50
180
 51
270
  0
CIRCLE
  8
_0-0_
  6
CONTINUOUS
 62
    7
 10
69.928794046072881
 20
70.093468040388643
 40
4
  0
ARC
  8
_0-0_
  6
CONTINUOUS
 62
    7
 10
71.248794098524968
 20
71.413468092840731
 40
0.8799999952316284
 50
180
 51
270
  0
ARC
  8
_0-0_
  6
CONTINUOUS
 62
    7
 10
71.248794098524968
 20
68.773467987936556
 40
0.8799999952316284
 50
90
 51
180
  0
ARC
  8
_0-0_
  6
CONTINUOUS
 62
    7
 10
68.608793993620793
 20
68.773467987936556
 40
0.8799999952316284
 50
0
 51
90
  0
ARC
  8
_0-0_
  6
CONTINUOUS
 62
    7
 10
68.608793993620793
 20
71.413468092840731
 40
0.8799999952316284
 50
270
 51
0
  0
LINE
  8
_0-0_
  6
CONTINUOUS
 62
    7
 10
73.928794046072881
 20
9.4431915195243619
 11
73.636437043150863
 21
3.8646875851597997
  0
LINE
  8
_0-0_
  6
CONTINUOUS
 62
    7
 10
72.138492741019263
 20
2.4431915195243619
 11
67.719095351126498
 21
2.4431915195243619
  0
LINE
  8
_0-0_
  6
CONTINUOUS
 62
    7
 10
66.221151048994443
 20
3.8646875851600271
 11
65.928794046072881
 21
9.4431915195243619
  0
LINE
  8
_0-0_
  6
CONTINUOUS
 62
    7
 10
62.52879404607279
 20
9.4431915195243619
 11
78.828794046072971
 21
9.4431915195243619
  0
LINE
  8
_0-0_
  6
CONTINUOUS
 62
    7
 10
79.328794046072971
 20
9.9431915195239071
 11
79.328794046072971
 21
12.443191519523907
  0
LINE
  8
_0-0_
  6
CONTINUOUS
 62
    7
 10
62.02879404607279
 20
12.443191519523907
 11
62.02879404607279
 21
9.9431915195239071
  0
LINE
  8
_0-0_
  6
CONTINUOUS
 62
    7
 10
49.928794046072881
 20
12.443191519523907
 11
49.928794046072881
 21
13.943191519523907
  0
LINE
  8
_0-0_
  6
CONTINUOUS
 62
    7
 10
49.928794046072881
 20
12.443191519523907
 11
109.92879404607294
 21
12.443191519523907
  0
LINE
  8
_0-0_
  6
CONTINUOUS
 62
    7
 10
109.92879404607294
 20
12.443191519523907
 11
109.92879404607294
 21
13.943191519523907
  0
LINE
  8
_0-0_
  6
CONTINUOUS
 62
    7
 10
108.42879404607294
 20
15.443191519523907
 11
51.428794046072881
 21
15.443191519523907
  0
LINE
  8
_0-0_
  6
CONTINUOUS
 62
    7
 10
102.71840823775102
 20
6.9170235414023864
 11
102.42879404607294
 21
12.443191519523907
  0
LINE
  8
_0-0_
  6
CONTINUOUS
 62
    7
 10
105.42879404607294
 20
12.443191519523907
 11
105.1391798543944
 21
6.9170235414023864
  0
LINE
  8
_0-0_
  6
CONTINUOUS
 62
    7
 10
104.6398650870172
 20
6.4431915195239071
 11
103.21772300512868
 21
6.4431915195239071
  0
ARC
  8
_0-0_
  6
CONTINUOUS
 62
    7
 10
108.42879404607294
 20
13.943191519523907
 40
1.5000000000000002
 50
0
 51
90
  0
ARC
  8
_0-0_
  6
CONTINUOUS
 62
    7
 10
51.428794046072881
 20
13.943191519523907
 40
1.5000000000000002
 50
90
 51
180
  0
ARC
  8
_0-0_
  6
CONTINUOUS
 62
    7
 10
62.52879404607279
 20
9.9431915195239071
 40
0.5
 50
180
 51
270
  0
ARC
  8
_0-0_
  6
CONTINUOUS
 62
    7
 10
78.828794046072971
 20
9.9431915195239071
 40
0.5
 50
270
 51
0
  0
ARC
  8
_0-0_
  6
CONTINUOUS
 62
    7
 10
67.719095351126498
 20
3.9431915195243619
 40
1.5
 50
182.99999999999932
 51
270
  0
ARC
  8
_0-0_
  6
CONTINUOUS
 62
    7
 10
72.138492741019263
 20
3.9431915195243619
 40
1.5
 50
270
 51
356.99999999999864
  0
ARC
  8
_0-0_
  6
CONTINUOUS
 62
    7
 10
103.21772300512868
 20
6.9431915195239071
 40
0.5
 50
183.00000000000003
 51
270
  0
ARC
  8
_0-0_
  6
CONTINUOUS
 62
    7
 10
104.6398650870172
 20
6.9431915195239071
 40
0.5
 50
270
 51
357
  0
LINE
  8
_0-0_
  6
CONTINUOUS
 62
    7
 10
6.5601139336271217
 20
78.078686332730058
 11
11.112449889870163
 21
78.317264150747064
  0
LINE
  8
_0-0_
  6
CONTINUOUS
 62
    7
 10
11.612449889870163
 20
80.093467563551485
 11
11.612449889870163
 21
60.093467563551485
  0
LINE
  8
_0-0_
  6
CONTINUOUS
 62
    7
 10
11.612449889870163
 20
60.093467563551485
 11
13.112449889870163
 21
60.093467563551485
  0
LINE
  8
_0-0_
  6
CONTINUOUS
 62
    7
 10
14.612449889870163
 20
61.593467563551485
 11
14.612449889870163
 21
78.593467563551485
  0
LINE
  8
_0-0_
  6
CONTINUOUS
 62
    7
 10
13.112449889870163
 20
80.093467563551485
 11
11.612449889870163
 21
80.093467563551485
  0
LINE
  8
_0-0_
  6
CONTINUOUS
 62
    7
 10
11.612449889870163
 20
74.193468040388552
 11
8.6124498898701631
 21
74.193468040388552
  0
LINE
  8
_0-0_
  6
CONTINUOUS
 62
    7
 10
8.6124498898701631
 20
74.193468040388552
 11
2.5601139336271217
 21
73.876278553446923
  0
LINE
  8
_0-0_
  6
CONTINUOUS
 62
    7
 10
1.6124498898701631
 20
72.877649018692409
 11
1.6124498898701631
 21
71.634804778727244
  0
LINE
  8
_0-0_
  6
CONTINUOUS
 62
    7
 10
1.6124498898701631
 20
68.552131302049816
 11
1.6124498898701631
 21
67.309287062084877
  0
LINE
  8
_0-0_
  6
CONTINUOUS
 62
    7
 10
2.5601139336271217
 20
66.31065752733025
 11
8.6124498898701631
 21
65.99346804038862
  0
LINE
  8
_0-0_
  6
CONTINUOUS
 62
    7
 10
8.6124498898701631
 20
65.99346804038862
 11
8.6124498898701631
 21
74.193468040388552
  0
LINE
  8
_0-0_
  6
CONTINUOUS
 62
    7
 10
8.6124498898701631
 20
65.99346804038862
 11
11.612449889870163
 21
65.99346804038862
  0
LINE
  8
_0-0_
  6
CONTINUOUS
 62
    7
 10
11.112449889870163
 20
61.869671930029995
 11
6.5601139336271217
 21
62.108249748047228
  0
LINE
  8
_0-0_
  6
CONTINUOUS
 62
    7
 10
5.6124498898701631
 20
63.106879282801742
 11
5.6124498898701631
 21
65.49346804038862
  0
LINE
  8
_0-0_
  6
CONTINUOUS
 62
    7
 10
5.6124498898701631
 20
69.593468040388643
 11
5.6124498898701631
 21
70.593468040388643
  0
LINE
  8
_0-0_
  6
CONTINUOUS
 62
    7
 10
2.0862819117486424
 20
71.13549001134993
 11
7.9490850592402467
 21
70.828233518016305
  0
LINE
  8
_0-0_
  6
CONTINUOUS
 62
    7
 10
7.9490850592402467
 20
69.358702562760755
 11
2.0862819117486424
 21
69.051446069427129
  0
LINE
  8
_0-0_
  6
CONTINUOUS
 62
    7
 10
5.6124498898701631
 20
74.693468040388552
 11
5.6124498898701631
 21
77.080056797975544
  0
ARC
  8
_0-0_
  6
CONTINUOUS
 62
    7
 10
13.112449889870163
 20
78.593467563551485
 40
1.5
 50
0
 51
90.000000000000028
  0
ARC
  8
_0-0_
  6
CONTINUOUS
 62
    7
 10
13.112449889870163
 20
61.593467563551485
 40
1.5
 50
270
 51
0
  0
ARC
  8
_0-0_
  6
CONTINUOUS
 62
    7
 10
2.6124498898701631
 20
72.877649018692409
 40
1
 50
93.000000000000369
 51
180
  0
ARC
  8
_0-0_
  6
CONTINUOUS
 62
    7
 10
2.6124498898701631
 20
67.309287062084877
 40
1
 50
180
 51
266.9999999999996
  0
ARC
  8
_0-0_
  6
CONTINUOUS
 62
    7
 10
2.1124498898701631
 20
71.634804778727244
 40
0.5
 50
180
 51
266.99999999999983
  0
ARC
  8
_0-0_
  6
CONTINUOUS
 62
    7
 10
2.1124498898701631
 20
68.552131302049816
 40
0.5
 50
93.000000000000171
 51
180
  0
ARC
  8
_0-0_
  6
CONTINUOUS
 62
    7
 10
7.9124498898701177
 20
70.129192843688088
 40
0.7
 50
0
 51
86.999999999999702
  0
ARC
  8
_0-0_
  6
CONTINUOUS
 62
    7
 10
7.9124498898701177
 20
70.057743237088971
 40
0.7
 50
273.00000000000023
 51
0
  0
ARC
  8
_0-0_
  6
CONTINUOUS
 62
    7
 10
6.6124498898701631
 20
77.080056797975544
 40
1
 50
92.999999999999048
 51
180
  0
ARC
  8
_0-0_
  6
CONTINUOUS
 62
    7
 10
6.6124498898701631
 20
63.106879282801742
 40
1
 50
180
 51
266.99999999999977
  0
LINE
  8
_0-0_
  6
CONTINUOUS
 62
    7
 10
150.90696288350944
 20
61.843468040388643
 11
155.95929883975248
 21
62.108249748047228
  0
LINE
  8
_0-0_
  6
CONTINUOUS
 62
    7
 10
150.90696288350944
 20
78.343468040388643
 11
155.95929883975248
 21
78.078686332730285
  0
LINE
  8
_0-0_
  6
CONTINUOUS
 62
    7
 10
150.90696288350944
 20
80.093467563551485
 11
150.90696288350944
 21
60.093467563551485
  0
LINE
  8
_0-0_
  6
CONTINUOUS
 62
    7
 10
150.90696288350944
 20
60.093467563551485
 11
149.40696288350944
 21
60.093467563551485
  0
LINE
  8
_0-0_
  6
CONTINUOUS
 62
    7
 10
157.40696288350944
 20
66.176895267879331
 11
159.95929883975248
 21
66.31065752733025
  0
LINE
  8
_0-0_
  6
CONTINUOUS
 62
    7
 10
160.90696288350944
 20
67.309287062084877
 11
160.90696288350944
 21
68.552131302049929
  0
LINE
  8
_0-0_
  6
CONTINUOUS
 62
    7
 10
160.43313086163096
 20
69.051446069427129
 11
157.40696288350944
 21
69.210040812898001
  0
LINE
  8
_0-0_
  6
CONTINUOUS
 62
    7
 10
157.40696288350944
 20
70.976895267879172
 11
160.43313086163096
 21
71.135490011350157
  0
LINE
  8
_0-0_
  6
CONTINUOUS
 62
    7
 10
160.90696288350944
 20
71.634804778727357
 11
160.90696288350944
 21
72.877649018692409
  0
LINE
  8
_0-0_
  6
CONTINUOUS
 62
    7
 10
159.95929883975248
 20
73.876278553447037
 11
157.40696288350944
 21
74.010040812897955
  0
LINE
  8
_0-0_
  6
CONTINUOUS
 62
    7
 10
156.90696288350944
 20
77.080056797975658
 11
156.90696288350944
 21
63.106879282801856
  0
LINE
  8
_0-0_
  6
CONTINUOUS
 62
    7
 10
147.90696288350944
 20
61.593467563551485
 11
147.90696288350944
 21
78.593467563551485
  0
LINE
  8
_0-0_
  6
CONTINUOUS
 62
    7
 10
150.90696288350944
 20
80.093467563551485
 11
149.40696288350944
 21
80.093467563551485
  0
ARC
  8
_0-0_
  6
CONTINUOUS
 62
    7
 10
149.40696288350944
 20
78.593467563551485
 40
1.5
 50
89.999999999999986
 51
180
  0
ARC
  8
_0-0_
  6
CONTINUOUS
 62
    7
 10
149.40696288350944
 20
61.593467563551485
 40
1.5
 50
180
 51
270
  0
ARC
  8
_0-0_
  6
CONTINUOUS
 62
    7
 10
159.90696288350944
 20
72.877649018692409
 40
1
 50
0
 51
86.999999999999631
  0
ARC
  8
_0-0_
  6
CONTINUOUS
 62
    7
 10
159.90696288350944
 20
67.309287062084877
 40
1
 50
273.00000000000034
 51
0.0000000000000381
  0
ARC
  8
_0-0_
  6
CONTINUOUS
 62
    7
 10
160.40696288350944
 20
71.634804778727357
 40
0.5
 50
273.00000000000017
 51
0
  0
ARC
  8
_0-0_
  6
CONTINUOUS
 62
    7
 10
160.40696288350944
 20
68.552131302049929
 40
0.5
 50
0
 51
86.999999999999829
  0
ARC
  8
_0-0_
  6
CONTINUOUS
 62
    7
 10
155.90696288350944
 20
77.080056797975658
 40
1
 50
0
 51
87.000000000000952
  0
ARC
  8
_0-0_
  6
CONTINUOUS
 62
    7
 10
155.90696288350944
 20
63.106879282801856
 40
1
 50
273.00000000000023
 51
0
  0
LINE
  8
_0-1_
  6
CENTER1
 62
  152
 10
108.42879404607294
 20
70.093468040388643
 11
51.428794046072881
 21
70.093468040388643
  0
LINE
  8
_0-1_
  6
CENTER1
 62
  152
 10
69.928794046072881
 20
78.593468040388643
 11
69.928794046072881
 21
61.593468040388643
  0
LINE
  8
_0-1_
  6
CENTER1
 62
  152
 10
14.612449889870163
 20
70.093468040388643
 11
1.6124498898701631
 21
70.093468040388643
  0
LINE
  8
_0-1_
  6
CENTER1
 62
  152
 10
147.90696288350944
 20
70.093468040388643
 11
160.90696288350944
 21
70.093468040388643
  0
LINE
  8
_0-1_
  6
DASHED3
 62
  152
 10
149.90696288350944
 20
61.843467563551485
 11
150.90696288350944
 21
61.843467563551485
  0
LINE
  8
_0-1_
  6
DASHED3
 62
  152
 10
149.90696288350944
 20
79.343467563551485
 11
150.90696288350944
 21
79.343467563551485
  0
LINE
  8
_0-1_
  6
DASHED3
 62
  152
 10
150.90696288350944
 20
60.843467563551485
 11
149.90696288350944
 21
60.843467563551485
  0
LINE
  8
_0-1_
  6
DASHED3
 62
  152
 10
149.90696288350944
 20
60.843467563551485
 11
149.90696288350944
 21
61.843467563551485
  0
LINE
  8
_0-1_
  6
DASHED3
 62
  152
 10
149.90696288350944
 20
79.343467563551485
 11
149.90696288350944
 21
78.343467563551485
  0
LINE
  8
_0-1_
  6
DASHED3
 62
  152
 10
149.90696288350944
 20
78.343467563551485
 11
150.90696288350944
 21
78.343467563551485
  0
ENDSEC
  0
EOF
