  0
SECTION
  2
HEADER
  9
$ACADVER
  1
AC1009
  9
$INSBASE
 10
0
 20
0
 30
0
  9
$EXTMIN
 10
0
 20
0
  9
$EXTMAX
 10
1189
 20
841
  9
$LIMMIN
 10
0
 20
0
  9
$LIMMAX
 10
1189
 20
841
  9
$LTSCALE
 40
1
  0
ENDSEC
  0
SECTION
  2
TABLES
  0
TABLE
  2
LTYPE
 70
     9
  0
LTYPE
  2
CONTINUOUS
 70
    64
  3
実線
 72
    65
 73
     0
 40
0.0
  0
LTYPE
  2
DASHED1
 70
    64
  3
--  --  --  --  --  --  --  --  
 72
    65
 73
     2
 40
2.5
 49
1.25
 49
-1.25
  0
LTYPE
  2
DASHED2
 70
    64
  3
----    ----    ----    ----    
 72
    65
 73
     2
 40
5.0
 49
2.5
 49
-2.5
  0
LTYPE
  2
DASHED3
 70
    64
  3
------  ------  ------  ------  
 72
    65
 73
     2
 40
5.0
 49
3.75
 49
-1.25
  0
LTYPE
  2
CENTER1
 70
    64
  3
----- - ----- - ----- - ----- - 
 72
    65
 73
     4
 40
10.0
 49
6.25
 49
-1.25
 49
1.25
 49
-1.25
  0
LTYPE
  2
CENTER2
 70
    64
  3
----------  --  ----------  --  
 72
    65
 73
     4
 40
20.0
 49
12.5
 49
-2.5
 49
2.5
 49
-2.5
  0
LTYPE
  2
PHANTOM1
 70
    64
  3
--- - - --- - - --- - - --- - - 
 72
    65
 73
     6
 40
10.0
 49
3.25
 49
-1.25
 49
1.25
 49
-1.25
 49
1.25
 49
-1.25
  0
LTYPE
  2
PHANTOM2
 70
    64
  3
--------  -  -  --------  -  -  
 72
    65
 73
     6
 40
20.0
 49
10.0
 49
-2.5
 49
1.25
 49
-2.5
 49
1.25
 49
-2.5
  0
LTYPE
  2
DOT
 70
    64
  3
-   -   -   -   -   -   -   -   
 72
    65
 73
     2
 40
2.5
 49
0.625
 49
-1.875
  0
LTYPE
  2
DUMMY
 70
    64
  3
ダミー
 72
    65
 73
     0
 40
0.0
  0
LTYPE
  2
RAND1
 70
    64
  3
ランダム線1
 72
    65
 73
     4
 40
10.0
 49
1.0
 49
-2.0
 49
3.0
 49
-4.0
  0
LTYPE
  2
RAND2
 70
    64
  3
ランダム線2
 72
    65
 73
     4
 40
14.0
 49
2.0
 49
-3.0
 49
4.0
 49
-5.0
  0
LTYPE
  2
RAND3
 70
    64
  3
ランダム線3
 72
    65
 73
     4
 40
18.0
 49
3.0
 49
-4.0
 49
5.0
 49
-6.0
  0
LTYPE
  2
RAND4
 70
    64
  3
ランダム線4
 72
    65
 73
     4
 40
22.0
 49
4.0
 49
-5.0
 49
6.0
 49
-7.0
  0
LTYPE
  2
RAND5
 70
    64
  3
ランダム線5
 72
    65
 73
     4
 40
26.0
 49
5.0
 49
-6.0
 49
7.0
 49
-8.0
  0
LTYPE
  2
LONG1
 70
    64
  3
----------  --  ----------  --  
 72
    65
 73
     4
 40
40.0
 49
32.5
 49
-2.5
 49
2.5
 49
-2.5
  0
LTYPE
  2
LONG2
 70
    64
  3
--------  -  -  --------  -  -  
 72
    65
 73
     6
 40
40.0
 49
30.0
 49
-2.5
 49
1.25
 49
-2.5
 49
1.25
 49
-2.5
  0
LTYPE
  2
LONG3
 70
    64
  3
+++++++++++++++..+++++++++++++++
 72
    65
 73
     2
 40
40.0
 49
37.5
 49
-2.5
  0
LTYPE
  2
LONG4
 70
    64
  3
+++++++++++++++..+++++++++++++++
 72
    65
 73
     2
 40
80.0
 49
75.0
 49
-5.0
  0
LTYPE
  2
LONG5
 70
    64
  3
----------  --  ----------  --  
 72
    65
 73
     4
 40
60.0
 49
37.5
 49
-7.5
 49
7.5
 49
-7.5
  0
LTYPE
  2
dashed
 70
   64
  3
-------   -------------   ------
 72
   65
 73
    2
 40
7.5
 49
6
 49
-1.5
  0
LTYPE
  2
dashed_spaced
 70
   64
  3
----        --------        ----
 72
   65
 73
    2
 40
12
 49
6
 49
-6
  0
LTYPE
  2
long_dashed_dotted
 70
   64
  3
------------- --- --------------
 72
   65
 73
    4
 40
15.25
 49
12
 49
-1.5
 49
0.25
 49
-1.5
  0
LTYPE
  2
long_dashed_double-dotted
 70
   64
  3
----------- --- --- ------------
 72
   65
 73
    6
 40
17
 49
12
 49
-1.5
 49
0.25
 49
-1.5
 49
0.25
 49
-1.5
  0
LTYPE
  2
long_dashed_triplicate-dotted
 70
   64
  3
--------- --- --- --- ----------
 72
   65
 73
    8
 40
18.75
 49
12
 49
-1.5
 49
0.25
 49
-1.5
 49
0.25
 49
-1.5
 49
0.25
 49
-1.5
  0
LTYPE
  2
dotted
 70
   64
  3
   -       -       -       -    
 72
   65
 73
    2
 40
1.75
 49
0.25
 49
-1.5
  0
LTYPE
  2
chain
 70
   64
  3
-------------- -- --------------
 72
   65
 73
    4
 40
18.5
 49
12
 49
-1.5
 49
3.5
 49
-1.5
  0
LTYPE
  2
chain_double_dash
 70
   64
  3
------------ -- -- -------------
 72
   65
 73
    6
 40
23.5
 49
12
 49
-1.5
 49
3.5
 49
-1.5
 49
3.5
 49
-1.5
  0
LTYPE
  2
dashed_dotted
 70
   64
  3
-----------     -     ----------
 72
   65
 73
    4
 40
9.25
 49
6
 49
-1.5
 49
0.25
 49
-1.5
  0
LTYPE
  2
double-dashed_dotted
 70
   64
  3
------   -----------   -   -----
 72
   65
 73
    6
 40
16.75
 49
6
 49
-1.5
 49
6
 49
-1.5
 49
0.25
 49
-1.5
  0
LTYPE
  2
dashed_double-dotted
 70
   64
  3
---------    -    -    ---------
 72
   65
 73
    6
 40
11
 49
6
 49
-1.5
 49
0.25
 49
-1.5
 49
0.25
 49
-1.5
  0
LTYPE
  2
double-dashed_double-dotted
 70
   64
  3
-----   ---------   -   -   ----
 72
   65
 73
    8
 40
18.5
 49
6
 49
-1.5
 49
6
 49
-1.5
 49
0.25
 49
-1.5
 49
0.25
 49
-1.5
  0
LTYPE
  2
dashed_triplicate-dotted
 70
   64
  3
-------    -    -    -    ------
 72
   65
 73
    8
 40
12.75
 49
6
 49
-1.5
 49
0.25
 49
-1.5
 49
0.25
 49
-1.5
 49
0.25
 49
-1.5
  0
LTYPE
  2
double-dashed_triplicate-dotted
 70
   64
  3
-----  ---------  -  -  -  -----
 72
   65
 73
   10
 40
20.25
 49
6
 49
-1.5
 49
6
 49
-1.5
 49
0.25
 49
-1.5
 49
0.25
 49
-1.5
 49
0.25
 49
-1.5
  0
LTYPE
  2
undefined
 70
   64
  3
--------------------------------
 72
   65
 73
    0
 40
0
  0
ENDTAB
  0
TABLE
  2
STYLE
  5
3
100
AcDbSymbolTable
 70
     1
  0
STYLE
  5
10
100
AcDbSymbolTableRecord
100
AcDbTextStyleTableRecord
  2
STANDARD
 70
     0
 40
0.0
 41
1.0
 50
0.0
 71
     0
 42
0.2
  3
txt
  4
bigfont.shx
  0
STYLE
  5
26
100
AcDbSymbolTableRecord
100
AcDbTextStyleTableRecord
  2
TATEGAKI
 70
    68
 40
0.0
 41
1.0
 50
0.0
 71
     0
 42
1.0
  3
txt
  4
bigfont.shx
  0
ENDTAB
  0
TABLE
  2
LAYER
 70
    4
  0
LAYER
  2
_0-0_
 70
   64
 62
    7
  6
CONTINUOUS
  0
LAYER
  2
_0-1_
 70
   64
 62
    7
  6
CONTINUOUS
  0
LAYER
  2
_0-f_
 70
   64
 62
    7
  6
CONTINUOUS
  0
LAYER
  2
ADD_LINE
 70
   64
 62
    7
  6
CONTINUOUS
  0
ENDTAB
  0
ENDSEC
  0
SECTION
  2
BLOCKS
  0
ENDSEC
  0
SECTION
  2
ENTITIES
  0
TEXT
  8
_0-f_
 62
    7
 10
1.0963851191534104
 20
0.8723279226538807
 40
4.2999999999999998
 41
0.744186046511628
 50
0
  1
EP25  EP25S
  0
ARC
  8
_0-0_
  6
CONTINUOUS
 62
    7
 10
64.565329170368386
 20
59.527604745273663
 40
0.5999999999999996
 50
180
 51
267
  0
ARC
  8
_0-0_
  6
CONTINUOUS
 62
    7
 10
64.565329170368386
 20
59.588854745273864
 40
0.5999999999999996
 50
92.999999999999986
 51
180
  0
ARC
  8
_0-0_
  6
CONTINUOUS
 62
    7
 10
68.66532917036875
 20
58.411504745273476
 40
0.2999999999999998
 50
0
 51
87
  0
ARC
  8
_0-0_
  6
CONTINUOUS
 62
    7
 10
68.66532917036875
 20
60.704954745273596
 40
0.2999999999999998
 50
273
 51
359.99999999999994
  0
ARC
  8
_0-0_
  6
CONTINUOUS
 62
    7
 10
67.965329170368477
 20
57.469234745273468
 40
1
 50
273
 51
359.99999999999994
  0
ARC
  8
_0-0_
  6
CONTINUOUS
 62
    7
 10
67.965329170368477
 20
61.647224745273604
 40
1
 50
0
 51
87
  0
ARC
  8
_0-0_
  6
CONTINUOUS
 62
    7
 10
59.965329170368477
 20
48.058234745273865
 40
1
 50
180
 51
270
  0
ARC
  8
_0-0_
  6
CONTINUOUS
 62
    7
 10
59.965329170368477
 20
71.058234745273865
 40
1
 50
90
 51
180
  0
LINE
  8
_0-0_
  6
CONTINUOUS
 62
    7
 10
59.965329170368477
 20
47.058234745273865
 11
61.965329170368477
 21
47.058234745273865
  0
LINE
  8
_0-0_
  6
CONTINUOUS
 62
    7
 10
58.965329170368477
 20
71.058234745273865
 11
58.965329170368477
 21
48.058234745273865
  0
LINE
  8
_0-0_
  6
CONTINUOUS
 62
    7
 10
61.965329170368477
 20
72.058234745273865
 11
59.965329170368477
 21
72.058234745273865
  0
LINE
  8
_0-0_
  6
CONTINUOUS
 62
    7
 10
61.965329170368477
 20
47.058234745273865
 11
61.965329170368477
 21
72.058234745273865
  0
LINE
  8
_0-0_
  6
CONTINUOUS
 62
    7
 10
68.017659170368461
 20
56.470604745273874
 11
63.965329170368477
 21
56.258234745273683
  0
LINE
  8
_0-0_
  6
CONTINUOUS
 62
    7
 10
68.965329170368477
 20
58.411504745273476
 11
68.965329170368477
 21
57.469234745273468
  0
LINE
  8
_0-0_
  6
CONTINUOUS
 62
    7
 10
64.53391917036879
 20
58.928434745273705
 11
68.68102917036822
 21
58.711094745273556
  0
LINE
  8
_0-0_
  6
CONTINUOUS
 62
    7
 10
68.68102917036822
 20
60.405374745273718
 11
64.53391917036879
 21
60.188024745273822
  0
LINE
  8
_0-0_
  6
CONTINUOUS
 62
    7
 10
68.965329170368477
 20
61.647224745273604
 11
68.965329170368477
 21
60.704954745273596
  0
LINE
  8
_0-0_
  6
CONTINUOUS
 62
    7
 10
63.965329170368477
 20
62.858234745273592
 11
68.017659170368461
 21
62.645854745273652
  0
LINE
  8
_0-0_
  6
CONTINUOUS
 62
    7
 10
63.965329170368477
 20
62.858234745273592
 11
61.965329170368477
 21
62.858234745273592
  0
LINE
  8
_0-0_
  6
CONTINUOUS
 62
    7
 10
63.965329170368477
 20
56.258234745273683
 11
63.965329170368477
 21
62.858234745273592
  0
LINE
  8
_0-0_
  6
CONTINUOUS
 62
    7
 10
61.965329170368477
 20
56.258234745273683
 11
63.965329170368477
 21
56.258234745273683
  0
ARC
  8
_0-0_
  6
CONTINUOUS
 62
    7
 10
16.114340341069237
 20
59.558244745273612
 40
2.3026499999999999
 50
257.52580999999998
 51
282.47417999999999
  0
ARC
  8
_0-0_
  6
CONTINUOUS
 62
    7
 10
16.114340341069237
 20
59.558244745273612
 40
2.3026499999999999
 50
167.52571999999995
 51
192.47426999999996
  0
ARC
  8
_0-0_
  6
CONTINUOUS
 62
    7
 10
16.114340341069237
 20
59.558244745273612
 40
2.3026499999999999
 50
77.525817000000018
 51
102.47418000000003
  0
ARC
  8
_0-0_
  6
CONTINUOUS
 62
    7
 10
16.114340341069237
 20
59.558244745273612
 40
2.3026499999999999
 50
347.52571999999998
 51
12.474273000000045
  0
ARC
  8
_0-0_
  6
CONTINUOUS
 62
    7
 10
14.880080341069515
 20
58.324004745273839
 40
0.7368479999999999
 50
0
 51
90
  0
ARC
  8
_0-0_
  6
CONTINUOUS
 62
    7
 10
17.348560341069515
 20
58.324004745273839
 40
0.7368479999999999
 50
90
 51
180
  0
ARC
  8
_0-0_
  6
CONTINUOUS
 62
    7
 10
17.348560341069515
 20
60.792434745273738
 40
0.7368479999999999
 50
180
 51
270
  0
ARC
  8
_0-0_
  6
CONTINUOUS
 62
    7
 10
14.880080341069515
 20
60.792434745273738
 40
0.7368479999999999
 50
270
 51
0
  0
CIRCLE
  8
_0-0_
  6
CONTINUOUS
 62
    7
 10
16.114320341069288
 20
59.558234745273865
 40
3.5499999999999998
  0
ARC
  8
_0-0_
  6
CONTINUOUS
 62
    7
 10
4.6143203410692877
 20
48.058234745273865
 40
1
 50
180
 51
270
  0
ARC
  8
_0-0_
  6
CONTINUOUS
 62
    7
 10
27.614320341069288
 20
48.058234745273865
 40
1
 50
270
 51
0
  0
ARC
  8
_0-0_
  6
CONTINUOUS
 62
    7
 10
27.614320341069288
 20
71.058234745273865
 40
1
 50
0
 51
90
  0
ARC
  8
_0-0_
  6
CONTINUOUS
 62
    7
 10
4.6143203410692877
 20
71.058234745273865
 40
1
 50
90
 51
180
  0
LINE
  8
_0-0_
  6
CONTINUOUS
 62
    7
 10
15.61692034106909
 20
57.309944745273867
 11
15.61692034106909
 21
58.324004745273839
  0
LINE
  8
_0-0_
  6
CONTINUOUS
 62
    7
 10
16.611720341069031
 20
58.324004745273839
 11
16.611720341069031
 21
57.309944745273867
  0
LINE
  8
_0-0_
  6
CONTINUOUS
 62
    7
 10
18.362600341069538
 20
59.060844745273869
 11
17.348560341069515
 21
59.060844745273869
  0
LINE
  8
_0-0_
  6
CONTINUOUS
 62
    7
 10
17.348560341069515
 20
60.055594745273709
 11
18.362600341069538
 21
60.055594745273709
  0
LINE
  8
_0-0_
  6
CONTINUOUS
 62
    7
 10
16.611720341069031
 20
61.806544745273811
 11
16.611720341069031
 21
60.792434745273738
  0
LINE
  8
_0-0_
  6
CONTINUOUS
 62
    7
 10
15.61692034106909
 20
60.792434745273738
 11
15.61692034106909
 21
61.806544745273811
  0
LINE
  8
_0-0_
  6
CONTINUOUS
 62
    7
 10
14.880080341069515
 20
60.055594745273709
 11
13.866000341069594
 21
60.055594745273709
  0
LINE
  8
_0-0_
  6
CONTINUOUS
 62
    7
 10
13.866000341069594
 20
59.060844745273869
 11
14.880080341069515
 21
59.060844745273869
  0
LINE
  8
_0-0_
  6
CONTINUOUS
 62
    7
 10
27.614320341069288
 20
47.058234745273865
 11
4.6143203410692877
 21
47.058234745273865
  0
LINE
  8
_0-0_
  6
CONTINUOUS
 62
    7
 10
28.614320341069288
 20
71.058234745273865
 11
28.614320341069288
 21
48.058234745273865
  0
LINE
  8
_0-0_
  6
CONTINUOUS
 62
    7
 10
4.6143203410692877
 20
72.058234745273865
 11
27.614320341069288
 21
72.058234745273865
  0
LINE
  8
_0-0_
  6
CONTINUOUS
 62
    7
 10
3.6143203410692877
 20
48.058234745273865
 11
3.6143203410692877
 21
71.058234745273865
  0
ARC
  8
_0-0_
  6
CONTINUOUS
 62
    7
 10
26.314320341069561
 20
49.358234745273592
 40
0.2999999999999998
 50
270
 51
0
  0
ARC
  8
_0-0_
  6
CONTINUOUS
 62
    7
 10
26.314320341069561
 20
51.758234745273683
 40
0.2999999999999998
 50
0
 51
90
  0
ARC
  8
_0-0_
  6
CONTINUOUS
 62
    7
 10
18.91432034106947
 20
49.358234745273592
 40
0.2999999999999998
 50
180
 51
270
  0
ARC
  8
_0-0_
  6
CONTINUOUS
 62
    7
 10
25.418090341069274
 20
51.053774745273756
 40
0.5721789
 50
19.118120000000001
 51
73.770895999999979
  0
ARC
  8
_0-0_
  6
CONTINUOUS
 62
    7
 10
25.194230341069215
 20
51.053774745273756
 40
0.5721789
 50
106.2291
 51
160.88186999999999
  0
ARC
  8
_0-0_
  6
CONTINUOUS
 62
    7
 10
25.306160341069244
 20
50.534274745273876
 40
1.1029028999999999
 50
75.730706999999995
 51
104.26929
  0
ARC
  8
_0-0_
  6
CONTINUOUS
 62
    7
 10
24.569950341069216
 20
50.929384745273808
 40
0.9263072999999999
 50
359.28076999999996
 51
15.355257999999957
  0
ARC
  8
_0-0_
  6
CONTINUOUS
 62
    7
 10
25.306160341069244
 20
51.121274745273865
 40
0.1658629
 50
18.780933999999998
 51
161.21906000000001
  0
ARC
  8
_0-0_
  6
CONTINUOUS
 62
    7
 10
26.042370341069272
 20
50.929384745273808
 40
0.9263072999999999
 50
164.64474000000004
 51
180.71922000000004
  0
ARC
  8
_0-0_
  6
CONTINUOUS
 62
    7
 10
26.042370341069272
 20
50.247864745273716
 40
0.9263072999999999
 50
179.28076999999999
 51
195.35525000000001
  0
ARC
  8
_0-0_
  6
CONTINUOUS
 62
    7
 10
24.569950341069216
 20
50.247864745273716
 40
0.9263072999999999
 50
344.64474000000007
 51
0.719224299999991
  0
ARC
  8
_0-0_
  6
CONTINUOUS
 62
    7
 10
23.650180341069245
 20
50.588624745273762
 40
2.3989862999999998
 50
344.21599999999995
 51
15.783997000000026
  0
ARC
  8
_0-0_
  6
CONTINUOUS
 62
    7
 10
25.194230341069215
 20
50.123464745273566
 40
0.5721789
 50
199.11812000000006
 51
253.77089000000001
  0
ARC
  8
_0-0_
  6
CONTINUOUS
 62
    7
 10
25.418090341069274
 20
50.123464745273566
 40
0.5721789
 50
286.22910000000002
 51
340.88186999999999
  0
ARC
  8
_0-0_
  6
CONTINUOUS
 62
    7
 10
25.306160341069244
 20
50.6429647452739
 40
1.1029028999999999
 50
255.73070000000004
 51
284.26929000000007
  0
ARC
  8
_0-0_
  6
CONTINUOUS
 62
    7
 10
25.306160341069244
 20
50.055974745273659
 40
0.1658629
 50
198.78093000000001
 51
341.21906000000001
  0
ARC
  8
_0-0_
  6
CONTINUOUS
 62
    7
 10
19.413010341069366
 20
50.588624745273762
 40
6.0927388999999996
 50
356.78919000000002
 51
3.2108098999999948
  0
ARC
  8
_0-0_
  6
CONTINUOUS
 62
    7
 10
31.199310341069122
 20
50.588624745273762
 40
6.0927388999999996
 50
176.78918999999999
 51
183.21080000000001
  0
ARC
  8
_0-0_
  6
CONTINUOUS
 62
    7
 10
26.962140341069244
 20
50.588624745273762
 40
2.3989862999999998
 50
164.21600000000004
 51
195.78399000000002
  0
ARC
  8
_0-0_
  6
CONTINUOUS
 62
    7
 10
23.404930341069303
 20
51.053774745273756
 40
0.5721789
 50
106.2291
 51
160.88186999999999
  0
ARC
  8
_0-0_
  6
CONTINUOUS
 62
    7
 10
23.51687034106908
 20
50.534274745273876
 40
1.1029028999999999
 50
75.730706999999995
 51
104.26929
  0
ARC
  8
_0-0_
  6
CONTINUOUS
 62
    7
 10
21.860890341069535
 20
50.588624745273762
 40
2.3989862999999998
 50
9.8663227000000013
 51
15.783997000000001
  0
ARC
  8
_0-0_
  6
CONTINUOUS
 62
    7
 10
23.628800341069564
 20
51.053774745273756
 40
0.5721789
 50
19.118120000000001
 51
73.770895999999979
  0
ARC
  8
_0-0_
  6
CONTINUOUS
 62
    7
 10
22.780660341069051
 20
50.929384745273808
 40
0.9263072999999999
 50
4.3528099999999998
 51
15.355258000000001
  0
ARC
  8
_0-0_
  6
CONTINUOUS
 62
    7
 10
24.25307034106936
 20
50.929384745273808
 40
0.9263072999999999
 50
164.64474000000004
 51
180.71922000000004
  0
ARC
  8
_0-0_
  6
CONTINUOUS
 62
    7
 10
23.51687034106908
 20
51.121274745273865
 40
0.1658629
 50
18.780933999999998
 51
161.21906000000001
  0
ARC
  8
_0-0_
  6
CONTINUOUS
 62
    7
 10
24.25307034106936
 20
50.247864745273716
 40
0.9263072999999999
 50
179.28076999999999
 51
195.35525000000001
  0
ARC
  8
_0-0_
  6
CONTINUOUS
 62
    7
 10
22.780660341069051
 20
50.247864745273716
 40
0.9263072999999999
 50
344.64474000000007
 51
1.0000756000000433
  0
ARC
  8
_0-0_
  6
CONTINUOUS
 62
    7
 10
23.51687034106908
 20
50.055974745273659
 40
0.1658629
 50
198.78093000000001
 51
341.21906000000001
  0
ARC
  8
_0-0_
  6
CONTINUOUS
 62
    7
 10
21.860890341069535
 20
50.588624745273762
 40
2.3989862999999998
 50
344.21599999999995
 51
352.22374999999994
  0
ARC
  8
_0-0_
  6
CONTINUOUS
 62
    7
 10
23.628800341069564
 20
50.123464745273566
 40
0.5721789
 50
286.22910000000002
 51
340.88186999999999
  0
ARC
  8
_0-0_
  6
CONTINUOUS
 62
    7
 10
23.51687034106908
 20
50.6429647452739
 40
1.1029028999999999
 50
255.73070000000004
 51
284.26929000000007
  0
ARC
  8
_0-0_
  6
CONTINUOUS
 62
    7
 10
23.404930341069303
 20
50.123464745273566
 40
0.5721789
 50
199.11812000000006
 51
253.77089000000001
  0
ARC
  8
_0-0_
  6
CONTINUOUS
 62
    7
 10
29.41001034106921
 20
50.588624745273762
 40
6.0927388999999996
 50
176.78918999999999
 51
183.21080000000001
  0
ARC
  8
_0-0_
  6
CONTINUOUS
 62
    7
 10
25.172840341069332
 20
50.588624745273762
 40
2.3989862999999998
 50
164.21600000000004
 51
195.78399000000002
  0
ARC
  8
_0-0_
  6
CONTINUOUS
 62
    7
 10
18.91432034106947
 20
51.758234745273683
 40
0.2999999999999998
 50
90
 51
180
  0
LINE
  8
_0-0_
  6
CONTINUOUS
 62
    7
 10
24.237810341069235
 20
50.264024745273844
 11
23.706820341069033
 21
50.264024745273844
  0
LINE
  8
_0-0_
  6
CONTINUOUS
 62
    7
 10
23.704290341069282
 20
50.999684745273669
 11
24.224390341069011
 21
50.999684745273669
  0
LINE
  8
_0-0_
  6
CONTINUOUS
 62
    7
 10
22.400850341069599
 20
51.609404745273594
 11
20.971140341069258
 21
51.609404745273594
  0
LINE
  8
_0-0_
  6
CONTINUOUS
 62
    7
 10
22.400850341069599
 20
51.245444745273915
 11
22.400850341069599
 21
51.609404745273594
  0
LINE
  8
_0-0_
  6
CONTINUOUS
 62
    7
 10
21.478440341069017
 20
51.245444745273915
 11
22.400850341069599
 21
51.245444745273915
  0
LINE
  8
_0-0_
  6
CONTINUOUS
 62
    7
 10
21.478440341069017
 20
50.772004745273705
 11
21.478440341069017
 21
51.245444745273915
  0
LINE
  8
_0-0_
  6
CONTINUOUS
 62
    7
 10
22.312890341069306
 20
50.772004745273705
 11
21.478440341069017
 21
50.772004745273705
  0
LINE
  8
_0-0_
  6
CONTINUOUS
 62
    7
 10
22.312890341069306
 20
50.430344745273658
 11
22.312890341069306
 21
50.772004745273705
  0
LINE
  8
_0-0_
  6
CONTINUOUS
 62
    7
 10
21.478440341069017
 20
50.430344745273658
 11
22.312890341069306
 21
50.430344745273658
  0
LINE
  8
_0-0_
  6
CONTINUOUS
 62
    7
 10
21.478440341069017
 20
49.931794745273862
 11
21.478440341069017
 21
50.430344745273658
  0
LINE
  8
_0-0_
  6
CONTINUOUS
 62
    7
 10
22.400850341069599
 20
49.931794745273862
 11
21.478440341069017
 21
49.931794745273862
  0
LINE
  8
_0-0_
  6
CONTINUOUS
 62
    7
 10
22.400850341069599
 20
49.567844745273476
 11
22.400850341069599
 21
49.931794745273862
  0
LINE
  8
_0-0_
  6
CONTINUOUS
 62
    7
 10
20.971140341069258
 20
49.567844745273476
 11
22.400850341069599
 21
49.567844745273476
  0
LINE
  8
_0-0_
  6
CONTINUOUS
 62
    7
 10
20.971140341069258
 20
51.609404745273594
 11
20.971140341069258
 21
49.567844745273476
  0
LINE
  8
_0-0_
  6
CONTINUOUS
 62
    7
 10
19.658100341069257
 20
51.609404745273594
 11
19.149000341069041
 21
51.609404745273594
  0
LINE
  8
_0-0_
  6
CONTINUOUS
 62
    7
 10
19.658100341069257
 20
49.931794745273862
 11
19.658100341069257
 21
51.609404745273594
  0
LINE
  8
_0-0_
  6
CONTINUOUS
 62
    7
 10
20.578340341069179
 20
49.931794745273862
 11
19.658100341069257
 21
49.931794745273862
  0
LINE
  8
_0-0_
  6
CONTINUOUS
 62
    7
 10
20.578340341069179
 20
49.567844745273476
 11
20.578340341069179
 21
49.931794745273862
  0
LINE
  8
_0-0_
  6
CONTINUOUS
 62
    7
 10
19.149000341069041
 20
49.567844745273476
 11
20.578340341069179
 21
49.567844745273476
  0
LINE
  8
_0-0_
  6
CONTINUOUS
 62
    7
 10
19.149000341069041
 20
51.609404745273594
 11
19.149000341069041
 21
49.567844745273476
  0
LINE
  8
_0-0_
  6
CONTINUOUS
 62
    7
 10
26.314320341069561
 20
52.058234745273865
 11
18.91432034106947
 21
52.058234745273865
  0
LINE
  8
_0-0_
  6
CONTINUOUS
 62
    7
 10
26.614320341069288
 20
49.358234745273592
 11
26.614320341069288
 21
51.758234745273683
  0
LINE
  8
_0-0_
  6
CONTINUOUS
 62
    7
 10
18.91432034106947
 20
49.058234745273865
 11
26.314320341069561
 21
49.058234745273865
  0
LINE
  8
_0-0_
  6
CONTINUOUS
 62
    7
 10
18.614320341069288
 20
51.758234745273683
 11
18.614320341069288
 21
49.358234745273592
  0
LINE
  8
_0-0_
  6
CONTINUOUS
 62
    7
 10
11.214350341069121
 20
14.619266730270226
 11
11.214350341069121
 21
12.919266730269953
  0
LINE
  8
_0-0_
  6
CONTINUOUS
 62
    7
 10
21.014350341069303
 20
14.619266730270226
 11
21.014350341069303
 21
12.919266730269953
  0
LINE
  8
_0-0_
  6
CONTINUOUS
 62
    7
 10
28.614350341069212
 20
14.619266730270226
 11
3.6143503410692119
 21
14.619266730270226
  0
ARC
  8
_0-0_
  6
CONTINUOUS
 62
    7
 10
4.6143503410692119
 20
16.619266730270226
 40
1
 50
90
 51
180
  0
ARC
  8
_0-0_
  6
CONTINUOUS
 62
    7
 10
27.614350341069212
 20
16.619266730270226
 40
1
 50
0
 51
90
  0
ARC
  8
_0-0_
  6
CONTINUOUS
 62
    7
 10
14.299836087556969
 20
9.1192667302702262
 40
1.5
 50
183.0000000000002
 51
270
  0
ARC
  8
_0-0_
  6
CONTINUOUS
 62
    7
 10
17.928864594581455
 20
9.1192667302702262
 40
1.5
 50
270
 51
356.99999999999983
  0
ARC
  8
_0-0_
  6
CONTINUOUS
 62
    7
 10
11.514350341068848
 20
12.919266730269953
 40
0.2999999999999998
 50
180
 51
270
  0
ARC
  8
_0-0_
  6
CONTINUOUS
 62
    7
 10
20.714350341069121
 20
12.919266730269953
 40
0.2999999999999998
 50
270
 51
0
  0
LINE
  8
_0-0_
  6
CONTINUOUS
 62
    7
 10
4.6143503410692119
 20
17.619266730270226
 11
27.614350341069212
 21
17.619266730270226
  0
LINE
  8
_0-0_
  6
CONTINUOUS
 62
    7
 10
3.6143503410692119
 20
14.619266730270226
 11
3.6143503410692119
 21
16.619266730270226
  0
LINE
  8
_0-0_
  6
CONTINUOUS
 62
    7
 10
19.614350341069212
 20
12.619266730270226
 11
19.42680889671351
 21
9.040762795905664
  0
LINE
  8
_0-0_
  6
CONTINUOUS
 62
    7
 10
28.614350341069212
 20
16.619266730270226
 11
28.614350341069212
 21
14.619266730270226
  0
LINE
  8
_0-0_
  6
CONTINUOUS
 62
    7
 10
11.514350341068848
 20
12.619266730270226
 11
20.714350341069121
 21
12.619266730270226
  0
LINE
  8
_0-0_
  6
CONTINUOUS
 62
    7
 10
12.801891785424914
 20
9.040762795905664
 11
12.614350341069212
 21
12.619266730270226
  0
LINE
  8
_0-0_
  6
CONTINUOUS
 62
    7
 10
17.928864594581455
 20
7.6192667302702262
 11
14.299836087556969
 21
7.6192667302702262
  0
LINE
  8
_0-1_
  6
CENTER1
 62
  152
 10
58.965329170368477
 20
59.558234745273865
 11
68.965329170368477
 21
59.558234745273865
  0
LINE
  8
_0-1_
  6
CENTER2
 62
  152
 10
16.114340341069237
 20
63.808234745273865
 11
16.114340341069237
 21
55.308244745273612
  0
LINE
  8
_0-1_
  6
CENTER2
 62
  152
 10
11.864360341069187
 20
59.558244745273612
 11
20.364360341069187
 21
59.558244745273612
  0
LINE
  8
_0-1_
  6
CENTER2
 62
  152
 10
16.114340341069237
 20
18.42373677129666
 11
16.114340341069237
 21
6.2885496103512537
  0
ENDSEC
  0
EOF
