  0
SECTION
  2
HEADER
  9
$ACADVER
  1
AC1009
  9
$INSBASE
 10
0
 20
0
 30
0
  9
$EXTMIN
 10
0
 20
0
  9
$EXTMAX
 10
1189
 20
841
  9
$LIMMIN
 10
0
 20
0
  9
$LIMMAX
 10
1189
 20
841
  9
$LTSCALE
 40
1
  0
ENDSEC
  0
SECTION
  2
TABLES
  0
TABLE
  2
LTYPE
 70
     9
  0
LTYPE
  2
CONTINUOUS
 70
    64
  3
実線
 72
    65
 73
     0
 40
0.0
  0
LTYPE
  2
DASHED1
 70
    64
  3
--  --  --  --  --  --  --  --  
 72
    65
 73
     2
 40
2.5
 49
1.25
 49
-1.25
  0
LTYPE
  2
DASHED2
 70
    64
  3
----    ----    ----    ----    
 72
    65
 73
     2
 40
5.0
 49
2.5
 49
-2.5
  0
LTYPE
  2
DASHED3
 70
    64
  3
------  ------  ------  ------  
 72
    65
 73
     2
 40
5.0
 49
3.75
 49
-1.25
  0
LTYPE
  2
CENTER1
 70
    64
  3
----- - ----- - ----- - ----- - 
 72
    65
 73
     4
 40
10.0
 49
6.25
 49
-1.25
 49
1.25
 49
-1.25
  0
LTYPE
  2
CENTER2
 70
    64
  3
----------  --  ----------  --  
 72
    65
 73
     4
 40
20.0
 49
12.5
 49
-2.5
 49
2.5
 49
-2.5
  0
LTYPE
  2
PHANTOM1
 70
    64
  3
--- - - --- - - --- - - --- - - 
 72
    65
 73
     6
 40
10.0
 49
3.25
 49
-1.25
 49
1.25
 49
-1.25
 49
1.25
 49
-1.25
  0
LTYPE
  2
PHANTOM2
 70
    64
  3
--------  -  -  --------  -  -  
 72
    65
 73
     6
 40
20.0
 49
10.0
 49
-2.5
 49
1.25
 49
-2.5
 49
1.25
 49
-2.5
  0
LTYPE
  2
DOT
 70
    64
  3
-   -   -   -   -   -   -   -   
 72
    65
 73
     2
 40
2.5
 49
0.625
 49
-1.875
  0
LTYPE
  2
DUMMY
 70
    64
  3
ダミー
 72
    65
 73
     0
 40
0.0
  0
LTYPE
  2
RAND1
 70
    64
  3
ランダム線1
 72
    65
 73
     4
 40
10.0
 49
1.0
 49
-2.0
 49
3.0
 49
-4.0
  0
LTYPE
  2
RAND2
 70
    64
  3
ランダム線2
 72
    65
 73
     4
 40
14.0
 49
2.0
 49
-3.0
 49
4.0
 49
-5.0
  0
LTYPE
  2
RAND3
 70
    64
  3
ランダム線3
 72
    65
 73
     4
 40
18.0
 49
3.0
 49
-4.0
 49
5.0
 49
-6.0
  0
LTYPE
  2
RAND4
 70
    64
  3
ランダム線4
 72
    65
 73
     4
 40
22.0
 49
4.0
 49
-5.0
 49
6.0
 49
-7.0
  0
LTYPE
  2
RAND5
 70
    64
  3
ランダム線5
 72
    65
 73
     4
 40
26.0
 49
5.0
 49
-6.0
 49
7.0
 49
-8.0
  0
LTYPE
  2
LONG1
 70
    64
  3
----------  --  ----------  --  
 72
    65
 73
     4
 40
40.0
 49
32.5
 49
-2.5
 49
2.5
 49
-2.5
  0
LTYPE
  2
LONG2
 70
    64
  3
--------  -  -  --------  -  -  
 72
    65
 73
     6
 40
40.0
 49
30.0
 49
-2.5
 49
1.25
 49
-2.5
 49
1.25
 49
-2.5
  0
LTYPE
  2
LONG3
 70
    64
  3
+++++++++++++++..+++++++++++++++
 72
    65
 73
     2
 40
40.0
 49
37.5
 49
-2.5
  0
LTYPE
  2
LONG4
 70
    64
  3
+++++++++++++++..+++++++++++++++
 72
    65
 73
     2
 40
80.0
 49
75.0
 49
-5.0
  0
LTYPE
  2
LONG5
 70
    64
  3
----------  --  ----------  --  
 72
    65
 73
     4
 40
60.0
 49
37.5
 49
-7.5
 49
7.5
 49
-7.5
  0
LTYPE
  2
dashed
 70
   64
  3
-------   -------------   ------
 72
   65
 73
    2
 40
7.5
 49
6
 49
-1.5
  0
LTYPE
  2
dashed_spaced
 70
   64
  3
----        --------        ----
 72
   65
 73
    2
 40
12
 49
6
 49
-6
  0
LTYPE
  2
long_dashed_dotted
 70
   64
  3
------------- --- --------------
 72
   65
 73
    4
 40
15.25
 49
12
 49
-1.5
 49
0.25
 49
-1.5
  0
LTYPE
  2
long_dashed_double-dotted
 70
   64
  3
----------- --- --- ------------
 72
   65
 73
    6
 40
17
 49
12
 49
-1.5
 49
0.25
 49
-1.5
 49
0.25
 49
-1.5
  0
LTYPE
  2
long_dashed_triplicate-dotted
 70
   64
  3
--------- --- --- --- ----------
 72
   65
 73
    8
 40
18.75
 49
12
 49
-1.5
 49
0.25
 49
-1.5
 49
0.25
 49
-1.5
 49
0.25
 49
-1.5
  0
LTYPE
  2
dotted
 70
   64
  3
   -       -       -       -    
 72
   65
 73
    2
 40
1.75
 49
0.25
 49
-1.5
  0
LTYPE
  2
chain
 70
   64
  3
-------------- -- --------------
 72
   65
 73
    4
 40
18.5
 49
12
 49
-1.5
 49
3.5
 49
-1.5
  0
LTYPE
  2
chain_double_dash
 70
   64
  3
------------ -- -- -------------
 72
   65
 73
    6
 40
23.5
 49
12
 49
-1.5
 49
3.5
 49
-1.5
 49
3.5
 49
-1.5
  0
LTYPE
  2
dashed_dotted
 70
   64
  3
-----------     -     ----------
 72
   65
 73
    4
 40
9.25
 49
6
 49
-1.5
 49
0.25
 49
-1.5
  0
LTYPE
  2
double-dashed_dotted
 70
   64
  3
------   -----------   -   -----
 72
   65
 73
    6
 40
16.75
 49
6
 49
-1.5
 49
6
 49
-1.5
 49
0.25
 49
-1.5
  0
LTYPE
  2
dashed_double-dotted
 70
   64
  3
---------    -    -    ---------
 72
   65
 73
    6
 40
11
 49
6
 49
-1.5
 49
0.25
 49
-1.5
 49
0.25
 49
-1.5
  0
LTYPE
  2
double-dashed_double-dotted
 70
   64
  3
-----   ---------   -   -   ----
 72
   65
 73
    8
 40
18.5
 49
6
 49
-1.5
 49
6
 49
-1.5
 49
0.25
 49
-1.5
 49
0.25
 49
-1.5
  0
LTYPE
  2
dashed_triplicate-dotted
 70
   64
  3
-------    -    -    -    ------
 72
   65
 73
    8
 40
12.75
 49
6
 49
-1.5
 49
0.25
 49
-1.5
 49
0.25
 49
-1.5
 49
0.25
 49
-1.5
  0
LTYPE
  2
double-dashed_triplicate-dotted
 70
   64
  3
-----  ---------  -  -  -  -----
 72
   65
 73
   10
 40
20.25
 49
6
 49
-1.5
 49
6
 49
-1.5
 49
0.25
 49
-1.5
 49
0.25
 49
-1.5
 49
0.25
 49
-1.5
  0
LTYPE
  2
undefined
 70
   64
  3
--------------------------------
 72
   65
 73
    0
 40
0
  0
ENDTAB
  0
TABLE
  2
STYLE
  5
3
100
AcDbSymbolTable
 70
     1
  0
STYLE
  5
10
100
AcDbSymbolTableRecord
100
AcDbTextStyleTableRecord
  2
STANDARD
 70
     0
 40
0.0
 41
1.0
 50
0.0
 71
     0
 42
0.2
  3
txt
  4
bigfont.shx
  0
STYLE
  5
26
100
AcDbSymbolTableRecord
100
AcDbTextStyleTableRecord
  2
TATEGAKI
 70
    68
 40
0.0
 41
1.0
 50
0.0
 71
     0
 42
1.0
  3
txt
  4
bigfont.shx
  0
ENDTAB
  0
TABLE
  2
LAYER
 70
    3
  0
LAYER
  2
_0-0_
 70
   64
 62
    7
  6
CONTINUOUS
  0
LAYER
  2
_0-f_
 70
   64
 62
    7
  6
CONTINUOUS
  0
LAYER
  2
ADD_LINE
 70
   64
 62
    7
  6
CONTINUOUS
  0
ENDTAB
  0
ENDSEC
  0
SECTION
  2
BLOCKS
  0
ENDSEC
  0
SECTION
  2
ENTITIES
  0
TEXT
  8
_0-f_
 62
    7
 10
1.6830280586600566
 20
1.1601564809886895
 40
4.2999999999999998
 41
0.744186046511628
 50
0
  1
EP24_EP24S
  0
LINE
  8
_0-0_
  6
CONTINUOUS
 62
    7
 10
36.338946485642282
 20
51.921299032920729
 11
36.944686485642251
 21
51.921299032920729
  0
LINE
  8
_0-0_
  6
CONTINUOUS
 62
    7
 10
36.944686485642251
 20
51.921299032920729
 11
36.944686485642251
 21
52.616239032920589
  0
LINE
  8
_0-0_
  6
CONTINUOUS
 62
    7
 10
36.944686485642251
 20
52.616239032920589
 11
37.03981648564195
 21
52.713199032920897
  0
LINE
  8
_0-0_
  6
CONTINUOUS
 62
    7
 10
37.03981648564195
 20
52.713199032920897
 11
37.655186485641934
 21
51.917089032920671
  0
LINE
  8
_0-0_
  6
CONTINUOUS
 62
    7
 10
37.655186485641934
 20
51.917089032920671
 11
38.463516485642231
 21
51.917089032920671
  0
LINE
  8
_0-0_
  6
CONTINUOUS
 62
    7
 10
38.463516485642231
 20
51.917089032920671
 11
37.491826485641923
 21
53.174189032920935
  0
LINE
  8
_0-0_
  6
CONTINUOUS
 62
    7
 10
37.491826485641923
 20
53.174189032920935
 11
38.463516485642231
 21
54.165419032921022
  0
LINE
  8
_0-0_
  6
CONTINUOUS
 62
    7
 10
38.463516485642231
 20
54.165419032921022
 11
37.553906485642074
 21
54.165419032921022
  0
LINE
  8
_0-0_
  6
CONTINUOUS
 62
    7
 10
37.553906485642074
 20
54.165419032921022
 11
36.944686485642251
 21
53.544109032921028
  0
LINE
  8
_0-0_
  6
CONTINUOUS
 62
    7
 10
36.944686485642251
 20
53.544109032921028
 11
36.944686485642251
 21
54.165419032921022
  0
LINE
  8
_0-0_
  6
CONTINUOUS
 62
    7
 10
36.944686485642251
 20
54.165419032921022
 11
36.338946485642282
 21
54.165419032921022
  0
LINE
  8
_0-0_
  6
CONTINUOUS
 62
    7
 10
36.338946485642282
 20
54.165419032921022
 11
36.338946485642282
 21
51.921299032920729
  0
LINE
  8
_0-0_
  6
CONTINUOUS
 62
    7
 10
35.176016485641867
 20
52.058869032921052
 11
35.306866485642331
 21
52.199779032921128
  0
LINE
  8
_0-0_
  6
CONTINUOUS
 62
    7
 10
35.306866485642331
 20
52.199779032921128
 11
35.412996485641997
 21
52.363029032920736
  0
LINE
  8
_0-0_
  6
CONTINUOUS
 62
    7
 10
35.412996485641997
 20
52.363029032920736
 11
35.491196485641922
 21
52.543649032920825
  0
LINE
  8
_0-0_
  6
CONTINUOUS
 62
    7
 10
35.491196485641922
 20
52.543649032920825
 11
35.539096485641949
 21
52.736149032920935
  0
LINE
  8
_0-0_
  6
CONTINUOUS
 62
    7
 10
35.539096485641949
 20
52.736149032920935
 11
35.555216485642177
 21
52.934679032921053
  0
LINE
  8
_0-0_
  6
CONTINUOUS
 62
    7
 10
35.555956485642128
 20
52.934679032921053
 11
35.555956485642128
 21
54.165419032921022
  0
LINE
  8
_0-0_
  6
CONTINUOUS
 62
    7
 10
35.555956485642128
 20
54.165419032921022
 11
34.950146485642108
 21
54.165419032921022
  0
LINE
  8
_0-0_
  6
CONTINUOUS
 62
    7
 10
34.950146485642108
 20
54.165419032921022
 11
34.950146485642108
 21
52.934679032921053
  0
LINE
  8
_0-0_
  6
CONTINUOUS
 62
    7
 10
34.950006485641552
 20
52.934679032921053
 11
34.943076485641996
 21
52.844069032920856
  0
LINE
  8
_0-0_
  6
CONTINUOUS
 62
    7
 10
34.943076485641996
 20
52.844069032920856
 11
34.922486485641912
 21
52.756219032920967
  0
LINE
  8
_0-0_
  6
CONTINUOUS
 62
    7
 10
34.922486485641912
 20
52.756219032920967
 11
34.888876485641958
 21
52.673789032921036
  0
LINE
  8
_0-0_
  6
CONTINUOUS
 62
    7
 10
34.888876485641958
 20
52.673789032921036
 11
34.843246485641885
 21
52.599289032920865
  0
LINE
  8
_0-0_
  6
CONTINUOUS
 62
    7
 10
34.843246485641885
 20
52.599289032920865
 11
34.786996485641794
 21
52.534979032921115
  0
LINE
  8
_0-0_
  6
CONTINUOUS
 62
    7
 10
34.786996485641794
 20
52.534979032921115
 11
34.72184648564189
 21
52.482809032920727
  0
LINE
  8
_0-0_
  6
CONTINUOUS
 62
    7
 10
34.72184648564189
 20
52.482809032920727
 11
34.649746485642027
 21
52.444379032920665
  0
LINE
  8
_0-0_
  6
CONTINUOUS
 62
    7
 10
34.649746485642027
 20
52.444379032920665
 11
34.572916485642054
 21
52.420839032920981
  0
LINE
  8
_0-0_
  6
CONTINUOUS
 62
    7
 10
34.572916485642054
 20
52.420839032920981
 11
34.493676485642027
 21
52.412909032920766
  0
LINE
  8
_0-0_
  6
CONTINUOUS
 62
    7
 10
34.493676485642027
 20
52.412909032920766
 11
34.414426485641798
 21
52.420839032920981
  0
LINE
  8
_0-0_
  6
CONTINUOUS
 62
    7
 10
34.414426485641798
 20
52.420839032920981
 11
34.337596485641825
 21
52.444379032920665
  0
LINE
  8
_0-0_
  6
CONTINUOUS
 62
    7
 10
34.337596485641825
 20
52.444379032920665
 11
34.265506485642163
 21
52.482809032920727
  0
LINE
  8
_0-0_
  6
CONTINUOUS
 62
    7
 10
34.265506485642163
 20
52.482809032920727
 11
34.200346485642058
 21
52.534979032921115
  0
LINE
  8
_0-0_
  6
CONTINUOUS
 62
    7
 10
34.200346485642058
 20
52.534979032921115
 11
34.144096485641967
 21
52.599289032920865
  0
LINE
  8
_0-0_
  6
CONTINUOUS
 62
    7
 10
34.144096485641967
 20
52.599289032920865
 11
34.098466485641893
 21
52.673789032921036
  0
LINE
  8
_0-0_
  6
CONTINUOUS
 62
    7
 10
34.098466485641893
 20
52.673789032921036
 11
34.06485648564194
 21
52.756219032920967
  0
LINE
  8
_0-0_
  6
CONTINUOUS
 62
    7
 10
34.06485648564194
 20
52.756219032920967
 11
34.044266485642311
 21
52.844069032920856
  0
LINE
  8
_0-0_
  6
CONTINUOUS
 62
    7
 10
34.044266485642311
 20
52.844069032920856
 11
34.037336485641845
 21
52.934679032921053
  0
LINE
  8
_0-0_
  6
CONTINUOUS
 62
    7
 10
34.036996485642248
 20
52.934679032921053
 11
34.036996485642248
 21
54.165419032921022
  0
LINE
  8
_0-0_
  6
CONTINUOUS
 62
    7
 10
34.036996485642248
 20
54.165419032921022
 11
33.431236485641875
 21
54.165419032921022
  0
LINE
  8
_0-0_
  6
CONTINUOUS
 62
    7
 10
33.431236485641875
 20
54.165419032921022
 11
33.431236485641875
 21
52.934679032921053
  0
LINE
  8
_0-0_
  6
CONTINUOUS
 62
    7
 10
33.432126485642129
 20
52.934679032921053
 11
33.448256485642105
 21
52.736149032920935
  0
LINE
  8
_0-0_
  6
CONTINUOUS
 62
    7
 10
33.448256485642105
 20
52.736149032920935
 11
33.49614648564193
 21
52.543649032920825
  0
LINE
  8
_0-0_
  6
CONTINUOUS
 62
    7
 10
33.49614648564193
 20
52.543649032920825
 11
33.574346485641854
 21
52.363029032920736
  0
LINE
  8
_0-0_
  6
CONTINUOUS
 62
    7
 10
33.574346485641854
 20
52.363029032920736
 11
33.680476485641975
 21
52.199779032921128
  0
LINE
  8
_0-0_
  6
CONTINUOUS
 62
    7
 10
33.680476485641975
 20
52.199779032921128
 11
33.811326485641985
 21
52.058869032921052
  0
LINE
  8
_0-0_
  6
CONTINUOUS
 62
    7
 10
33.811326485641985
 20
52.058869032921052
 11
33.962896485641977
 21
51.944559032920665
  0
LINE
  8
_0-0_
  6
CONTINUOUS
 62
    7
 10
33.962896485641977
 20
51.944559032920665
 11
34.130596485641945
 21
51.860339032920933
  0
LINE
  8
_0-0_
  6
CONTINUOUS
 62
    7
 10
34.130596485641945
 20
51.860339032920933
 11
34.309336485642234
 21
51.808759032920648
  0
LINE
  8
_0-0_
  6
CONTINUOUS
 62
    7
 10
34.309336485642234
 20
51.808759032920648
 11
34.493676485642027
 21
51.791389032921074
  0
LINE
  8
_0-0_
  6
CONTINUOUS
 62
    7
 10
34.493676485642027
 20
51.791389032921074
 11
34.678006485641617
 21
51.808759032920648
  0
LINE
  8
_0-0_
  6
CONTINUOUS
 62
    7
 10
34.678006485641617
 20
51.808759032920648
 11
34.856746485641906
 21
51.860339032920933
  0
LINE
  8
_0-0_
  6
CONTINUOUS
 62
    7
 10
34.856746485641906
 20
51.860339032920933
 11
35.024446485641874
 21
51.944559032920665
  0
LINE
  8
_0-0_
  6
CONTINUOUS
 62
    7
 10
35.024446485641874
 20
51.944559032920665
 11
35.176016485641867
 21
52.058869032921052
  0
LINE
  8
_0-0_
  6
CONTINUOUS
 62
    7
 10
31.99623648564193
 20
51.949339032920875
 11
31.390406485641961
 21
51.949339032920875
  0
LINE
  8
_0-0_
  6
CONTINUOUS
 62
    7
 10
31.390406485641961
 20
51.949339032920875
 11
31.390406485641961
 21
52.807789032920596
  0
LINE
  8
_0-0_
  6
CONTINUOUS
 62
    7
 10
31.390406485641961
 20
52.807789032920596
 11
30.530066485642237
 21
54.197479032921024
  0
LINE
  8
_0-0_
  6
CONTINUOUS
 62
    7
 10
30.530066485642237
 20
54.197479032921024
 11
31.272136485642022
 21
54.197479032921024
  0
LINE
  8
_0-0_
  6
CONTINUOUS
 62
    7
 10
31.272136485642022
 20
54.197479032921024
 11
31.716076485642134
 21
53.480489032920673
  0
LINE
  8
_0-0_
  6
CONTINUOUS
 62
    7
 10
31.716076485642134
 20
53.480489032920673
 11
32.16001648564179
 21
54.197479032921024
  0
LINE
  8
_0-0_
  6
CONTINUOUS
 62
    7
 10
32.16001648564179
 20
54.197479032921024
 11
32.902076485641828
 21
54.197479032921024
  0
LINE
  8
_0-0_
  6
CONTINUOUS
 62
    7
 10
32.902076485641828
 20
54.197479032921024
 11
31.99623648564193
 21
52.734309032921033
  0
LINE
  8
_0-0_
  6
CONTINUOUS
 62
    7
 10
31.99623648564193
 20
52.734309032921033
 11
31.99623648564193
 21
51.949339032920875
  0
LINE
  8
_0-0_
  6
CONTINUOUS
 62
    7
 10
30.666666485642054
 20
51.08523903292064
 11
39.666666485642054
 21
51.08523903292064
  0
LINE
  8
_0-0_
  6
CONTINUOUS
 62
    7
 10
39.650506485641927
 20
51.917089032920671
 11
39.650506485641927
 21
54.165419032921022
  0
LINE
  8
_0-0_
  6
CONTINUOUS
 62
    7
 10
39.650506485641927
 20
54.165419032921022
 11
39.044696485641907
 21
54.165419032921022
  0
LINE
  8
_0-0_
  6
CONTINUOUS
 62
    7
 10
39.044696485641907
 20
54.165419032921022
 11
39.044696485641907
 21
51.917089032920671
  0
LINE
  8
_0-0_
  6
CONTINUOUS
 62
    7
 10
39.044696485641907
 20
51.917089032920671
 11
39.650506485641927
 21
51.917089032920671
  0
LINE
  8
_0-0_
  6
CONTINUOUS
 62
    7
 10
40.166636485641902
 20
51.585219032920691
 11
40.166636485641902
 21
54.585229032920893
  0
LINE
  8
_0-0_
  6
CONTINUOUS
 62
    7
 10
39.666666485642054
 20
55.085209032920943
 11
30.666666485642054
 21
55.085209032920943
  0
LINE
  8
_0-0_
  6
CONTINUOUS
 62
    7
 10
30.166666485642054
 20
54.585229032920893
 11
30.166666485642054
 21
51.585219032920691
  0
LINE
  8
_0-0_
  6
CONTINUOUS
 62
    7
 10
43.166636485641902
 20
49.58523903292064
 11
43.166636485641902
 21
66.58523903292064
  0
LINE
  8
_0-0_
  6
CONTINUOUS
 62
    7
 10
41.666636485641902
 20
68.08523903292064
 11
4.6666364856419023
 21
68.08523903292064
  0
LINE
  8
_0-0_
  6
CONTINUOUS
 62
    7
 10
3.1666364856419023
 20
66.58523903292064
 11
3.1666364856419023
 21
49.58523903292064
  0
LINE
  8
_0-0_
  6
CONTINUOUS
 62
    7
 10
4.6666364856419023
 20
48.08523903292064
 11
41.666636485641902
 21
48.08523903292064
  0
ARC
  8
_0-0_
  6
CONTINUOUS
 62
    7
 10
41.666636485641902
 20
49.58523903292064
 40
1.5
 50
270
 51
0
  0
ARC
  8
_0-0_
  6
CONTINUOUS
 62
    7
 10
41.666636485641902
 20
66.58523903292064
 40
1.5
 50
0
 51
90
  0
ARC
  8
_0-0_
  6
CONTINUOUS
 62
    7
 10
4.6666364856419023
 20
66.58523903292064
 40
1.5
 50
90
 51
180
  0
ARC
  8
_0-0_
  6
CONTINUOUS
 62
    7
 10
4.6666364856419023
 20
49.58523903292064
 40
1.5
 50
180
 51
270
  0
ARC
  8
_0-0_
  6
CONTINUOUS
 62
    7
 10
39.666666485642054
 20
54.585229032920893
 40
0.4999999
 50
0
 51
90
  0
ARC
  8
_0-0_
  6
CONTINUOUS
 62
    7
 10
39.666666485642054
 20
51.585219032920691
 40
0.4999999
 50
270
 51
0
  0
ARC
  8
_0-0_
  6
CONTINUOUS
 62
    7
 10
30.666666485642054
 20
51.585219032920691
 40
0.4999999
 50
180
 51
270
  0
ARC
  8
_0-0_
  6
CONTINUOUS
 62
    7
 10
30.666666485642054
 20
54.585229032920893
 40
0.4999999
 50
90
 51
180
  0
LINE
  8
_0-0_
  6
CONTINUOUS
 62
    7
 10
43.166636485641902
 20
14.535912510876358
 11
43.166636485641902
 21
16.035912510876358
  0
LINE
  8
_0-0_
  6
CONTINUOUS
 62
    7
 10
43.166636485641902
 20
14.535912510876358
 11
3.1666364856419023
 21
14.535912510876358
  0
LINE
  8
_0-0_
  6
CONTINUOUS
 62
    7
 10
3.1666364856419023
 20
14.535912510876358
 11
3.1666364856419023
 21
16.035912510876358
  0
LINE
  8
_0-0_
  6
CONTINUOUS
 62
    7
 10
4.6666364856419023
 20
17.535912510876358
 11
41.666636485641902
 21
17.535912510876358
  0
LINE
  8
_0-0_
  6
CONTINUOUS
 62
    7
 10
39.223686485641792
 20
14.535912510876358
 11
38.909214913284359
 21
8.5359125108763578
  0
LINE
  8
_0-0_
  6
CONTINUOUS
 62
    7
 10
38.909214913284359
 20
8.5359125108763578
 11
36.338128057900121
 21
8.5359125108763578
  0
LINE
  8
_0-0_
  6
CONTINUOUS
 62
    7
 10
36.338128057900121
 20
8.5359125108763578
 11
36.023676485642227
 21
14.535912510876358
  0
LINE
  8
_0-0_
  6
CONTINUOUS
 62
    7
 10
10.023706485641924
 20
14.535912510876358
 11
9.7092349132844902
 21
8.5359125108763578
  0
LINE
  8
_0-0_
  6
CONTINUOUS
 62
    7
 10
9.7092349132844902
 20
8.5359125108763578
 11
7.138098057750085
 21
8.5359125108763578
  0
LINE
  8
_0-0_
  6
CONTINUOUS
 62
    7
 10
7.138098057750085
 20
8.5359125108763578
 11
6.8236764856414993
 21
14.535912510876358
  0
ARC
  8
_0-0_
  6
CONTINUOUS
 62
    7
 10
4.6666364856419023
 20
16.035912510876358
 40
1.5
 50
90
 51
180
  0
ARC
  8
_0-0_
  6
CONTINUOUS
 62
    7
 10
41.666636485641902
 20
16.035912510876358
 40
1.5
 50
0
 51
90.000000000000028
  0
LINE
  8
_0-0_
  6
CONTINUOUS
 62
    7
 10
81.726182757687411
 20
66.585238556083539
 11
81.726182757687411
 21
49.585238556083482
  0
LINE
  8
_0-0_
  6
CONTINUOUS
 62
    7
 10
84.726182757687354
 20
66.335239032920697
 11
89.778518713930396
 21
66.070457325262339
  0
LINE
  8
_0-0_
  6
CONTINUOUS
 62
    7
 10
90.726182757687354
 20
65.071827790507712
 11
90.726182757687354
 21
51.098650275333853
  0
LINE
  8
_0-0_
  6
CONTINUOUS
 62
    7
 10
89.778518713930396
 20
50.100020740579225
 11
84.726182757687354
 21
49.83523903292064
  0
LINE
  8
_0-0_
  6
CONTINUOUS
 62
    7
 10
83.226182757687468
 20
48.085238556083482
 11
84.726182757687354
 21
48.085238556083482
  0
LINE
  8
_0-0_
  6
CONTINUOUS
 62
    7
 10
84.726182757687354
 20
48.085238556083482
 11
84.726182757687354
 21
68.085238556083539
  0
LINE
  8
_0-0_
  6
CONTINUOUS
 62
    7
 10
84.726182757687354
 20
68.085238556083539
 11
83.226182757687468
 21
68.085238556083539
  0
ARC
  8
_0-0_
  6
CONTINUOUS
 62
    7
 10
83.226182757687468
 20
66.585238556083539
 40
1.5
 50
89.999999999999986
 51
180
  0
ARC
  8
_0-0_
  6
CONTINUOUS
 62
    7
 10
83.226182757687468
 20
49.585238556083482
 40
1.5
 50
180
 51
270
  0
ARC
  8
_0-0_
  6
CONTINUOUS
 62
    7
 10
89.726182757687354
 20
65.071827790507712
 40
1
 50
0
 51
87.000000000000952
  0
ARC
  8
_0-0_
  6
CONTINUOUS
 62
    7
 10
89.726182757687354
 20
51.098650275333853
 40
1
 50
273.00000000000023
 51
0
  0
ENDSEC
  0
EOF
