  0
SECTION
  2
HEADER
  9
$ACADVER
  1
AC1009
  9
$INSBASE
 10
0
 20
0
 30
0
  9
$EXTMIN
 10
0
 20
0
  9
$EXTMAX
 10
1189
 20
841
  9
$LIMMIN
 10
0
 20
0
  9
$LIMMAX
 10
1189
 20
841
  9
$LTSCALE
 40
1
  0
ENDSEC
  0
SECTION
  2
TABLES
  0
TABLE
  2
LTYPE
 70
     9
  0
LTYPE
  2
CONTINUOUS
 70
    64
  3
実線
 72
    65
 73
     0
 40
0.0
  0
LTYPE
  2
DASHED1
 70
    64
  3
--  --  --  --  --  --  --  --  
 72
    65
 73
     2
 40
2.5
 49
1.25
 49
-1.25
  0
LTYPE
  2
DASHED2
 70
    64
  3
----    ----    ----    ----    
 72
    65
 73
     2
 40
5.0
 49
2.5
 49
-2.5
  0
LTYPE
  2
DASHED3
 70
    64
  3
------  ------  ------  ------  
 72
    65
 73
     2
 40
5.0
 49
3.75
 49
-1.25
  0
LTYPE
  2
CENTER1
 70
    64
  3
----- - ----- - ----- - ----- - 
 72
    65
 73
     4
 40
10.0
 49
6.25
 49
-1.25
 49
1.25
 49
-1.25
  0
LTYPE
  2
CENTER2
 70
    64
  3
----------  --  ----------  --  
 72
    65
 73
     4
 40
20.0
 49
12.5
 49
-2.5
 49
2.5
 49
-2.5
  0
LTYPE
  2
PHANTOM1
 70
    64
  3
--- - - --- - - --- - - --- - - 
 72
    65
 73
     6
 40
10.0
 49
3.25
 49
-1.25
 49
1.25
 49
-1.25
 49
1.25
 49
-1.25
  0
LTYPE
  2
PHANTOM2
 70
    64
  3
--------  -  -  --------  -  -  
 72
    65
 73
     6
 40
20.0
 49
10.0
 49
-2.5
 49
1.25
 49
-2.5
 49
1.25
 49
-2.5
  0
LTYPE
  2
DOT
 70
    64
  3
-   -   -   -   -   -   -   -   
 72
    65
 73
     2
 40
2.5
 49
0.625
 49
-1.875
  0
LTYPE
  2
DUMMY
 70
    64
  3
ダミー
 72
    65
 73
     0
 40
0.0
  0
LTYPE
  2
RAND1
 70
    64
  3
ランダム線1
 72
    65
 73
     4
 40
10.0
 49
1.0
 49
-2.0
 49
3.0
 49
-4.0
  0
LTYPE
  2
RAND2
 70
    64
  3
ランダム線2
 72
    65
 73
     4
 40
14.0
 49
2.0
 49
-3.0
 49
4.0
 49
-5.0
  0
LTYPE
  2
RAND3
 70
    64
  3
ランダム線3
 72
    65
 73
     4
 40
18.0
 49
3.0
 49
-4.0
 49
5.0
 49
-6.0
  0
LTYPE
  2
RAND4
 70
    64
  3
ランダム線4
 72
    65
 73
     4
 40
22.0
 49
4.0
 49
-5.0
 49
6.0
 49
-7.0
  0
LTYPE
  2
RAND5
 70
    64
  3
ランダム線5
 72
    65
 73
     4
 40
26.0
 49
5.0
 49
-6.0
 49
7.0
 49
-8.0
  0
LTYPE
  2
LONG1
 70
    64
  3
----------  --  ----------  --  
 72
    65
 73
     4
 40
40.0
 49
32.5
 49
-2.5
 49
2.5
 49
-2.5
  0
LTYPE
  2
LONG2
 70
    64
  3
--------  -  -  --------  -  -  
 72
    65
 73
     6
 40
40.0
 49
30.0
 49
-2.5
 49
1.25
 49
-2.5
 49
1.25
 49
-2.5
  0
LTYPE
  2
LONG3
 70
    64
  3
+++++++++++++++..+++++++++++++++
 72
    65
 73
     2
 40
40.0
 49
37.5
 49
-2.5
  0
LTYPE
  2
LONG4
 70
    64
  3
+++++++++++++++..+++++++++++++++
 72
    65
 73
     2
 40
80.0
 49
75.0
 49
-5.0
  0
LTYPE
  2
LONG5
 70
    64
  3
----------  --  ----------  --  
 72
    65
 73
     4
 40
60.0
 49
37.5
 49
-7.5
 49
7.5
 49
-7.5
  0
LTYPE
  2
dashed
 70
   64
  3
-------   -------------   ------
 72
   65
 73
    2
 40
7.5
 49
6
 49
-1.5
  0
LTYPE
  2
dashed_spaced
 70
   64
  3
----        --------        ----
 72
   65
 73
    2
 40
12
 49
6
 49
-6
  0
LTYPE
  2
long_dashed_dotted
 70
   64
  3
------------- --- --------------
 72
   65
 73
    4
 40
15.25
 49
12
 49
-1.5
 49
0.25
 49
-1.5
  0
LTYPE
  2
long_dashed_double-dotted
 70
   64
  3
----------- --- --- ------------
 72
   65
 73
    6
 40
17
 49
12
 49
-1.5
 49
0.25
 49
-1.5
 49
0.25
 49
-1.5
  0
LTYPE
  2
long_dashed_triplicate-dotted
 70
   64
  3
--------- --- --- --- ----------
 72
   65
 73
    8
 40
18.75
 49
12
 49
-1.5
 49
0.25
 49
-1.5
 49
0.25
 49
-1.5
 49
0.25
 49
-1.5
  0
LTYPE
  2
dotted
 70
   64
  3
   -       -       -       -    
 72
   65
 73
    2
 40
1.75
 49
0.25
 49
-1.5
  0
LTYPE
  2
chain
 70
   64
  3
-------------- -- --------------
 72
   65
 73
    4
 40
18.5
 49
12
 49
-1.5
 49
3.5
 49
-1.5
  0
LTYPE
  2
chain_double_dash
 70
   64
  3
------------ -- -- -------------
 72
   65
 73
    6
 40
23.5
 49
12
 49
-1.5
 49
3.5
 49
-1.5
 49
3.5
 49
-1.5
  0
LTYPE
  2
dashed_dotted
 70
   64
  3
-----------     -     ----------
 72
   65
 73
    4
 40
9.25
 49
6
 49
-1.5
 49
0.25
 49
-1.5
  0
LTYPE
  2
double-dashed_dotted
 70
   64
  3
------   -----------   -   -----
 72
   65
 73
    6
 40
16.75
 49
6
 49
-1.5
 49
6
 49
-1.5
 49
0.25
 49
-1.5
  0
LTYPE
  2
dashed_double-dotted
 70
   64
  3
---------    -    -    ---------
 72
   65
 73
    6
 40
11
 49
6
 49
-1.5
 49
0.25
 49
-1.5
 49
0.25
 49
-1.5
  0
LTYPE
  2
double-dashed_double-dotted
 70
   64
  3
-----   ---------   -   -   ----
 72
   65
 73
    8
 40
18.5
 49
6
 49
-1.5
 49
6
 49
-1.5
 49
0.25
 49
-1.5
 49
0.25
 49
-1.5
  0
LTYPE
  2
dashed_triplicate-dotted
 70
   64
  3
-------    -    -    -    ------
 72
   65
 73
    8
 40
12.75
 49
6
 49
-1.5
 49
0.25
 49
-1.5
 49
0.25
 49
-1.5
 49
0.25
 49
-1.5
  0
LTYPE
  2
double-dashed_triplicate-dotted
 70
   64
  3
-----  ---------  -  -  -  -----
 72
   65
 73
   10
 40
20.25
 49
6
 49
-1.5
 49
6
 49
-1.5
 49
0.25
 49
-1.5
 49
0.25
 49
-1.5
 49
0.25
 49
-1.5
  0
LTYPE
  2
undefined
 70
   64
  3
--------------------------------
 72
   65
 73
    0
 40
0
  0
ENDTAB
  0
TABLE
  2
STYLE
  5
3
100
AcDbSymbolTable
 70
     1
  0
STYLE
  5
10
100
AcDbSymbolTableRecord
100
AcDbTextStyleTableRecord
  2
STANDARD
 70
     0
 40
0.0
 41
1.0
 50
0.0
 71
     0
 42
0.2
  3
txt
  4
bigfont.shx
  0
STYLE
  5
26
100
AcDbSymbolTableRecord
100
AcDbTextStyleTableRecord
  2
TATEGAKI
 70
    68
 40
0.0
 41
1.0
 50
0.0
 71
     0
 42
1.0
  3
txt
  4
bigfont.shx
  0
ENDTAB
  0
TABLE
  2
LAYER
 70
    4
  0
LAYER
  2
_0-0_
 70
   64
 62
    7
  6
CONTINUOUS
  0
LAYER
  2
_0-1_
 70
   64
 62
    7
  6
CONTINUOUS
  0
LAYER
  2
_0-f_
 70
   64
 62
    7
  6
CONTINUOUS
  0
LAYER
  2
ADD_LINE
 70
   64
 62
    7
  6
CONTINUOUS
  0
ENDTAB
  0
ENDSEC
  0
SECTION
  2
BLOCKS
  0
ENDSEC
  0
SECTION
  2
ENTITIES
  0
TEXT
  8
_0-f_
 62
    7
 10
1.6215074507716736
 20
2.1071344095558402
 40
4.2999999999999998
 41
0.744186046511628
 50
0
  1
EP23_EP23S
  0
LINE
  8
_0-0_
  6
CONTINUOUS
 62
    7
 10
7.640617838682374
 20
12.010994141661399
 11
16.640607838682172
 21
12.010994141661399
  0
LINE
  8
_0-0_
  6
CONTINUOUS
 62
    7
 10
16.624457838682247
 20
12.84295414166138
 11
16.624457838682247
 21
15.091224141661485
  0
LINE
  8
_0-0_
  6
CONTINUOUS
 62
    7
 10
16.624457838682247
 20
15.091224141661485
 11
16.01874783868243
 21
15.091224141661485
  0
LINE
  8
_0-0_
  6
CONTINUOUS
 62
    7
 10
16.01874783868243
 20
15.091224141661485
 11
16.01874783868243
 21
12.84295414166138
  0
LINE
  8
_0-0_
  6
CONTINUOUS
 62
    7
 10
16.01874783868243
 20
12.84295414166138
 11
16.624457838682247
 21
12.84295414166138
  0
LINE
  8
_0-0_
  6
CONTINUOUS
 62
    7
 10
17.140687838682425
 20
12.51106414166145
 11
17.140687838682425
 21
15.510984141661254
  0
LINE
  8
_0-0_
  6
CONTINUOUS
 62
    7
 10
16.640607838682172
 20
16.011054141661305
 11
7.640617838682374
 21
16.011054141661305
  0
LINE
  8
_0-0_
  6
CONTINUOUS
 62
    7
 10
7.1406878386824246
 20
15.510984141661254
 11
7.1406878386824246
 21
12.51106414166145
  0
LINE
  8
_0-0_
  6
CONTINUOUS
 62
    7
 10
8.3644478386822811
 20
12.875084141661432
 11
8.9703278386823513
 21
12.875084141661432
  0
LINE
  8
_0-0_
  6
CONTINUOUS
 62
    7
 10
8.9703278386823513
 20
12.875084141661432
 11
8.9703278386823513
 21
13.660104141661691
  0
LINE
  8
_0-0_
  6
CONTINUOUS
 62
    7
 10
8.9703278386823513
 20
13.660104141661691
 11
9.8761278386818958
 21
15.123374141661486
  0
LINE
  8
_0-0_
  6
CONTINUOUS
 62
    7
 10
9.8761278386818958
 20
15.123374141661486
 11
9.1341078386822119
 21
15.123374141661486
  0
LINE
  8
_0-0_
  6
CONTINUOUS
 62
    7
 10
9.1341078386822119
 20
15.123374141661486
 11
8.6901678386821004
 21
14.406284141661388
  0
LINE
  8
_0-0_
  6
CONTINUOUS
 62
    7
 10
8.6901678386821004
 20
14.406284141661388
 11
8.2461778386823426
 21
15.123374141661486
  0
LINE
  8
_0-0_
  6
CONTINUOUS
 62
    7
 10
8.2461778386823426
 20
15.123374141661486
 11
7.5041178386818501
 21
15.123374141661486
  0
LINE
  8
_0-0_
  6
CONTINUOUS
 62
    7
 10
7.5041178386818501
 20
15.123374141661486
 11
8.3644478386822811
 21
13.733514141661658
  0
LINE
  8
_0-0_
  6
CONTINUOUS
 62
    7
 10
8.3644478386822811
 20
13.733514141661658
 11
8.3644478386822811
 21
12.875084141661432
  0
LINE
  8
_0-0_
  6
CONTINUOUS
 62
    7
 10
10.785267838681648
 20
12.98468414166166
 11
10.654427838681841
 21
13.125604141661483
  0
LINE
  8
_0-0_
  6
CONTINUOUS
 62
    7
 10
10.654427838681841
 20
13.125604141661483
 11
10.548287838681972
 21
13.288854141661545
  0
LINE
  8
_0-0_
  6
CONTINUOUS
 62
    7
 10
10.548287838681972
 20
13.288854141661545
 11
10.470087838682048
 21
13.469474141661181
  0
LINE
  8
_0-0_
  6
CONTINUOUS
 62
    7
 10
10.470087838682048
 20
13.469474141661181
 11
10.422197838682223
 21
13.66197414166129
  0
LINE
  8
_0-0_
  6
CONTINUOUS
 62
    7
 10
10.422197838682223
 20
13.66197414166129
 11
10.406067838682247
 21
13.860504141661409
  0
LINE
  8
_0-0_
  6
CONTINUOUS
 62
    7
 10
10.405287838681943
 20
13.860504141661409
 11
10.405287838681943
 21
15.091224141661485
  0
LINE
  8
_0-0_
  6
CONTINUOUS
 62
    7
 10
10.405287838681943
 20
15.091224141661485
 11
11.011047838682316
 21
15.091224141661485
  0
LINE
  8
_0-0_
  6
CONTINUOUS
 62
    7
 10
11.011047838682316
 20
15.091224141661485
 11
11.011047838682316
 21
13.860504141661409
  0
LINE
  8
_0-0_
  6
CONTINUOUS
 62
    7
 10
11.011277838681963
 20
13.860504141661409
 11
11.018207838682429
 21
13.769894141661666
  0
LINE
  8
_0-0_
  6
CONTINUOUS
 62
    7
 10
11.018207838682429
 20
13.769894141661666
 11
11.038797838681603
 21
13.682044141661322
  0
LINE
  8
_0-0_
  6
CONTINUOUS
 62
    7
 10
11.038797838681603
 20
13.682044141661322
 11
11.072417838682213
 21
13.599614141661391
  0
LINE
  8
_0-0_
  6
CONTINUOUS
 62
    7
 10
11.072417838682213
 20
13.599614141661391
 11
11.11803783868163
 21
13.525114141661675
  0
LINE
  8
_0-0_
  6
CONTINUOUS
 62
    7
 10
11.11803783868163
 20
13.525114141661675
 11
11.174287838682176
 21
13.46080414166147
  0
LINE
  8
_0-0_
  6
CONTINUOUS
 62
    7
 10
11.174287838682176
 20
13.46080414166147
 11
11.239447838682281
 21
13.408634141661537
  0
LINE
  8
_0-0_
  6
CONTINUOUS
 62
    7
 10
11.239447838682281
 20
13.408634141661537
 11
11.311537838681943
 21
13.370194141661273
  0
LINE
  8
_0-0_
  6
CONTINUOUS
 62
    7
 10
11.311537838681943
 20
13.370194141661273
 11
11.388377838681663
 21
13.346654141661588
  0
LINE
  8
_0-0_
  6
CONTINUOUS
 62
    7
 10
11.388377838681663
 20
13.346654141661588
 11
11.46761783868169
 21
13.338734141661575
  0
LINE
  8
_0-0_
  6
CONTINUOUS
 62
    7
 10
11.46761783868169
 20
13.338734141661575
 11
11.546857838681717
 21
13.346654141661588
  0
LINE
  8
_0-0_
  6
CONTINUOUS
 62
    7
 10
11.546857838681717
 20
13.346654141661588
 11
11.623697838682347
 21
13.370194141661273
  0
LINE
  8
_0-0_
  6
CONTINUOUS
 62
    7
 10
11.623697838682347
 20
13.370194141661273
 11
11.695787838682008
 21
13.408634141661537
  0
LINE
  8
_0-0_
  6
CONTINUOUS
 62
    7
 10
11.695787838682008
 20
13.408634141661537
 11
11.760947838682114
 21
13.46080414166147
  0
LINE
  8
_0-0_
  6
CONTINUOUS
 62
    7
 10
11.760947838682114
 20
13.46080414166147
 11
11.817197838682205
 21
13.525114141661675
  0
LINE
  8
_0-0_
  6
CONTINUOUS
 62
    7
 10
11.817197838682205
 20
13.525114141661675
 11
11.862817838681622
 21
13.599614141661391
  0
LINE
  8
_0-0_
  6
CONTINUOUS
 62
    7
 10
11.862817838681622
 20
13.599614141661391
 11
11.896437838681777
 21
13.682044141661322
  0
LINE
  8
_0-0_
  6
CONTINUOUS
 62
    7
 10
11.896437838681777
 20
13.682044141661322
 11
11.917027838681861
 21
13.769894141661666
  0
LINE
  8
_0-0_
  6
CONTINUOUS
 62
    7
 10
11.917027838681861
 20
13.769894141661666
 11
11.923957838682327
 21
13.860504141661409
  0
LINE
  8
_0-0_
  6
CONTINUOUS
 62
    7
 10
11.924187838681974
 20
13.860504141661409
 11
11.924187838681974
 21
15.091224141661485
  0
LINE
  8
_0-0_
  6
CONTINUOUS
 62
    7
 10
11.924187838681974
 20
15.091224141661485
 11
12.529907838681993
 21
15.091224141661485
  0
LINE
  8
_0-0_
  6
CONTINUOUS
 62
    7
 10
12.529907838681993
 20
15.091224141661485
 11
12.529907838681993
 21
13.860504141661409
  0
LINE
  8
_0-0_
  6
CONTINUOUS
 62
    7
 10
12.529167838682042
 20
13.860504141661409
 11
12.513037838682067
 21
13.66197414166129
  0
LINE
  8
_0-0_
  6
CONTINUOUS
 62
    7
 10
12.513037838682067
 20
13.66197414166129
 11
12.465147838682242
 21
13.469474141661181
  0
LINE
  8
_0-0_
  6
CONTINUOUS
 62
    7
 10
12.465147838682242
 20
13.469474141661181
 11
12.386947838682318
 21
13.288854141661545
  0
LINE
  8
_0-0_
  6
CONTINUOUS
 62
    7
 10
12.386947838682318
 20
13.288854141661545
 11
12.280807838682449
 21
13.125604141661483
  0
LINE
  8
_0-0_
  6
CONTINUOUS
 62
    7
 10
12.280807838682449
 20
13.125604141661483
 11
12.149967838682187
 21
12.98468414166166
  0
LINE
  8
_0-0_
  6
CONTINUOUS
 62
    7
 10
12.149967838682187
 20
12.98468414166166
 11
11.998387838681992
 21
12.870384141661475
  0
LINE
  8
_0-0_
  6
CONTINUOUS
 62
    7
 10
11.998387838681992
 20
12.870384141661475
 11
11.830687838682024
 21
12.786154141661541
  0
LINE
  8
_0-0_
  6
CONTINUOUS
 62
    7
 10
11.830687838682024
 20
12.786154141661541
 11
11.651957838682392
 21
12.734574141661255
  0
LINE
  8
_0-0_
  6
CONTINUOUS
 62
    7
 10
11.651957838682392
 20
12.734574141661255
 11
11.46761783868169
 21
12.717204141661682
  0
LINE
  8
_0-0_
  6
CONTINUOUS
 62
    7
 10
11.46761783868169
 20
12.717204141661682
 11
11.283277838681897
 21
12.734574141661255
  0
LINE
  8
_0-0_
  6
CONTINUOUS
 62
    7
 10
11.283277838681897
 20
12.734574141661255
 11
11.104547838682265
 21
12.786154141661541
  0
LINE
  8
_0-0_
  6
CONTINUOUS
 62
    7
 10
11.104547838682265
 20
12.786154141661541
 11
10.936847838682297
 21
12.870384141661475
  0
LINE
  8
_0-0_
  6
CONTINUOUS
 62
    7
 10
10.936847838682297
 20
12.870384141661475
 11
10.785267838681648
 21
12.98468414166166
  0
LINE
  8
_0-0_
  6
CONTINUOUS
 62
    7
 10
13.312987838682147
 20
12.847194141661134
 11
13.918797838681712
 21
12.847194141661134
  0
LINE
  8
_0-0_
  6
CONTINUOUS
 62
    7
 10
13.918797838681712
 20
12.847194141661134
 11
13.918797838681712
 21
13.541984141661146
  0
LINE
  8
_0-0_
  6
CONTINUOUS
 62
    7
 10
13.918797838681712
 20
13.541984141661146
 11
14.013927838682321
 21
13.639024141661253
  0
LINE
  8
_0-0_
  6
CONTINUOUS
 62
    7
 10
14.013927838682321
 20
13.639024141661253
 11
14.629307838682053
 21
12.84295414166138
  0
LINE
  8
_0-0_
  6
CONTINUOUS
 62
    7
 10
14.629307838682053
 20
12.84295414166138
 11
15.437557838682096
 21
12.84295414166138
  0
LINE
  8
_0-0_
  6
CONTINUOUS
 62
    7
 10
15.437557838682096
 20
12.84295414166138
 11
14.465797838682192
 21
14.100034141661695
  0
LINE
  8
_0-0_
  6
CONTINUOUS
 62
    7
 10
14.465797838682192
 20
14.100034141661695
 11
15.437557838682096
 21
15.091224141661485
  0
LINE
  8
_0-0_
  6
CONTINUOUS
 62
    7
 10
15.437557838682096
 20
15.091224141661485
 11
14.527927838682444
 21
15.091224141661485
  0
LINE
  8
_0-0_
  6
CONTINUOUS
 62
    7
 10
14.527927838682444
 20
15.091224141661485
 11
13.918797838681712
 21
14.469904141661289
  0
LINE
  8
_0-0_
  6
CONTINUOUS
 62
    7
 10
13.918797838681712
 20
14.469904141661289
 11
13.918797838681712
 21
15.091224141661485
  0
LINE
  8
_0-0_
  6
CONTINUOUS
 62
    7
 10
13.918797838681712
 20
15.091224141661485
 11
13.312987838682147
 21
15.091224141661485
  0
LINE
  8
_0-0_
  6
CONTINUOUS
 62
    7
 10
13.312987838682147
 20
15.091224141661485
 11
13.312987838682147
 21
12.847194141661134
  0
LINE
  8
_0-0_
  6
CONTINUOUS
 62
    7
 10
22.140757838682475
 20
10.5110441416615
 11
22.140757838682475
 21
37.511044141661557
  0
LINE
  8
_0-0_
  6
CONTINUOUS
 62
    7
 10
20.640757838682475
 20
39.011044141661557
 11
3.6407578386824753
 21
39.011044141661557
  0
LINE
  8
_0-0_
  6
CONTINUOUS
 62
    7
 10
2.1407578386824753
 20
37.511044141661557
 11
2.1407578386824753
 21
10.5110441416615
  0
LINE
  8
_0-0_
  6
CONTINUOUS
 62
    7
 10
3.6407578386824753
 20
9.0110441416615004
 11
20.640757838682475
 21
9.0110441416615004
  0
LINE
  8
_0-0_
  6
CONTINUOUS
 62
    7
 10
9.4956478386820891
 20
29.596194141661442
 11
10.688687838682199
 21
29.596194141661442
  0
LINE
  8
_0-0_
  6
CONTINUOUS
 62
    7
 10
10.688687838682199
 20
28.42579414166147
 11
9.4956478386820891
 21
28.42579414166147
  0
LINE
  8
_0-0_
  6
CONTINUOUS
 62
    7
 10
11.555567838681782
 20
27.558924141661635
 11
11.555567838681782
 21
26.366034141661373
  0
LINE
  8
_0-0_
  6
CONTINUOUS
 62
    7
 10
12.725857838681804
 20
26.366034141661373
 11
12.725857838681804
 21
27.558924141661635
  0
LINE
  8
_0-0_
  6
CONTINUOUS
 62
    7
 10
13.592787838681943
 20
28.42579414166147
 11
14.78576783868175
 21
28.42579414166147
  0
LINE
  8
_0-0_
  6
CONTINUOUS
 62
    7
 10
14.78576783868175
 20
29.596194141661442
 11
13.592787838681943
 21
29.596194141661442
  0
LINE
  8
_0-0_
  6
CONTINUOUS
 62
    7
 10
12.725857838681804
 20
30.463064141661732
 11
12.725857838681804
 21
31.656154141661489
  0
LINE
  8
_0-0_
  6
CONTINUOUS
 62
    7
 10
11.555567838681782
 20
31.656154141661489
 11
11.555567838681782
 21
30.463064141661732
  0
CIRCLE
  8
_0-0_
  6
CONTINUOUS
 62
    7
 10
12.140757838682475
 20
29.011044141661557
 40
4.1989502999999999
  0
ARC
  8
_0-0_
  6
CONTINUOUS
 62
    7
 10
10.688687838682199
 20
30.463064141661732
 40
0.8668801000000001
 50
270
 51
0
  0
ARC
  8
_0-0_
  6
CONTINUOUS
 62
    7
 10
13.592787838681943
 20
30.463064141661732
 40
0.8668801000000001
 50
180
 51
270
  0
ARC
  8
_0-0_
  6
CONTINUOUS
 62
    7
 10
13.592787838681943
 20
27.558924141661635
 40
0.8668801000000001
 50
90
 51
180
  0
ARC
  8
_0-0_
  6
CONTINUOUS
 62
    7
 10
10.688687838682199
 20
27.558924141661635
 40
0.8668801000000001
 50
0
 51
90
  0
ARC
  8
_0-0_
  6
CONTINUOUS
 62
    7
 10
12.140757838682475
 20
29.011044141661557
 40
2.7090001000000004
 50
347.52571999999998
 51
12.474273000000045
  0
ARC
  8
_0-0_
  6
CONTINUOUS
 62
    7
 10
12.140757838682475
 20
29.011044141661557
 40
2.7090001000000004
 50
77.525817000000018
 51
102.47418000000003
  0
ARC
  8
_0-0_
  6
CONTINUOUS
 62
    7
 10
12.140757838682475
 20
29.011044141661557
 40
2.7090001000000004
 50
167.52571999999995
 51
192.47426999999996
  0
ARC
  8
_0-0_
  6
CONTINUOUS
 62
    7
 10
12.140757838682475
 20
29.011044141661557
 40
2.7090001000000004
 50
257.52580999999998
 51
282.47417999999999
  0
ARC
  8
_0-0_
  6
CONTINUOUS
 62
    7
 10
3.6407578386824753
 20
37.511044141661557
 40
1.5
 50
90
 51
180
  0
ARC
  8
_0-0_
  6
CONTINUOUS
 62
    7
 10
20.640757838682475
 20
37.511044141661557
 40
1.5
 50
0
 51
90.000000000000028
  0
ARC
  8
_0-0_
  6
CONTINUOUS
 62
    7
 10
20.640757838682475
 20
10.5110441416615
 40
1.5
 50
270
 51
0
  0
ARC
  8
_0-0_
  6
CONTINUOUS
 62
    7
 10
3.6407578386824753
 20
10.5110441416615
 40
1.5
 50
180
 51
270
  0
ARC
  8
_0-0_
  6
CONTINUOUS
 62
    7
 10
16.640607838682172
 20
15.510984141661254
 40
0.4999999
 50
0
 51
90
  0
ARC
  8
_0-0_
  6
CONTINUOUS
 62
    7
 10
16.640607838682172
 20
12.51106414166145
 40
0.4999999
 50
270
 51
0
  0
ARC
  8
_0-0_
  6
CONTINUOUS
 62
    7
 10
7.640617838682374
 20
12.51106414166145
 40
0.4999999
 50
180
 51
270
  0
ARC
  8
_0-0_
  6
CONTINUOUS
 62
    7
 10
7.640617838682374
 20
15.510984141661254
 40
0.4999999
 50
90
 51
180
  0
LINE
  8
_0-0_
  6
CONTINUOUS
 62
    7
 10
66.638636224805396
 20
9.0110441416615004
 11
68.138636224805396
 21
9.0110441416615004
  0
LINE
  8
_0-0_
  6
CONTINUOUS
 62
    7
 10
68.138636224805396
 20
9.0110441416615004
 11
68.138636224805396
 21
39.011044141661557
  0
LINE
  8
_0-0_
  6
CONTINUOUS
 62
    7
 10
68.138636224805396
 20
39.011044141661557
 11
66.638636224805396
 21
39.011044141661557
  0
LINE
  8
_0-0_
  6
CONTINUOUS
 62
    7
 10
65.138636224805396
 20
37.511044141661557
 11
65.138636224805396
 21
10.5110441416615
  0
LINE
  8
_0-0_
  6
CONTINUOUS
 62
    7
 10
68.138636224805396
 20
24.811054141661486
 11
69.638566224805345
 21
24.811054141661486
  0
LINE
  8
_0-0_
  6
CONTINUOUS
 62
    7
 10
69.638566224805345
 20
24.811054141661486
 11
69.638566224805345
 21
33.210934141661426
  0
LINE
  8
_0-0_
  6
CONTINUOUS
 62
    7
 10
69.638566224805345
 20
33.210934141661426
 11
68.138636224805396
 21
33.210934141661426
  0
LINE
  8
_0-0_
  6
CONTINUOUS
 62
    7
 10
70.13854622480585
 20
33.210934141661426
 11
77.164736224805438
 21
33.027114141661684
  0
LINE
  8
_0-0_
  6
CONTINUOUS
 62
    7
 10
77.164736224805438
 20
33.027114141661684
 11
77.164805316514958
 21
33.027111310473799
  0
LINE
  8
_0-0_
  6
CONTINUOUS
 62
    7
 10
78.138626224805648
 20
32.027454141661735
 11
78.138626224805648
 21
29.899224141661477
  0
LINE
  8
_0-0_
  6
CONTINUOUS
 62
    7
 10
78.138626224805648
 20
29.899224141661477
 11
72.638526224805446
 21
29.610954141661466
  0
LINE
  8
_0-0_
  6
CONTINUOUS
 62
    7
 10
72.638526224805446
 20
29.610954141661466
 11
72.638526224805446
 21
28.411034141661446
  0
LINE
  8
_0-0_
  6
CONTINUOUS
 62
    7
 10
72.638526224805446
 20
28.411034141661446
 11
78.138626224805648
 21
28.122764141661435
  0
LINE
  8
_0-0_
  6
CONTINUOUS
 62
    7
 10
78.138626224805648
 20
28.122764141661435
 11
78.138626224805648
 21
25.994634141661379
  0
LINE
  8
_0-0_
  6
CONTINUOUS
 62
    7
 10
77.178867362172241
 20
24.995444244362886
 11
70.13854622480585
 21
24.811054141661486
  0
LINE
  8
_0-0_
  6
CONTINUOUS
 62
    7
 10
70.13854622480585
 20
24.811054141661486
 11
70.13854622480585
 21
33.210934141661426
  0
ARC
  8
_0-0_
  6
CONTINUOUS
 62
    7
 10
77.138626224805648
 20
32.027454141661735
 40
0.9999999
 50
0
 51
88.499877000000012
  0
ARC
  8
_0-0_
  6
CONTINUOUS
 62
    7
 10
66.638636224805396
 20
10.5110441416615
 40
1.5
 50
180
 51
270
  0
ARC
  8
_0-0_
  6
CONTINUOUS
 62
    7
 10
66.638636224805396
 20
37.511044141661557
 40
1.5
 50
90
 51
180
  0
ARC
  8
_0-0_
  6
CONTINUOUS
 62
    7
 10
77.138626224805648
 20
25.994634141661379
 40
0.9999999
 50
272.30627029322716
 51
0.0000000000000636
  0
LINE
  8
_0-0_
  6
CONTINUOUS
 62
    7
 10
2.1407578386824753
 20
74.536922472481137
 11
2.1407578386824753
 21
76.036922472481137
  0
LINE
  8
_0-0_
  6
CONTINUOUS
 62
    7
 10
2.1407578386824753
 20
76.036922472481137
 11
22.140757838682475
 21
76.036922472481137
  0
LINE
  8
_0-0_
  6
CONTINUOUS
 62
    7
 10
22.140757838682475
 20
76.036922472481137
 11
22.140757838682475
 21
74.536922472481137
  0
LINE
  8
_0-0_
  6
CONTINUOUS
 62
    7
 10
20.640757838682475
 20
73.036922472481137
 11
3.6407578386824753
 21
73.036922472481137
  0
ARC
  8
_0-0_
  6
CONTINUOUS
 62
    7
 10
3.6407578386824753
 20
74.536922472481137
 40
1.5
 50
180
 51
270
  0
ARC
  8
_0-0_
  6
CONTINUOUS
 62
    7
 10
20.640757838682475
 20
74.536922472481137
 40
1.5
 50
270
 51
0
  0
LINE
  8
_0-0_
  6
CONTINUOUS
 62
    7
 10
4.2407578386823843
 20
76.036922472481137
 11
4.2407578386823843
 21
78.536922472481137
  0
LINE
  8
_0-0_
  6
CONTINUOUS
 62
    7
 10
4.7407578386823843
 20
79.036922472481137
 11
19.540757838682339
 21
79.036922472481137
  0
LINE
  8
_0-0_
  6
CONTINUOUS
 62
    7
 10
20.040757838682339
 20
78.536922472481137
 11
20.040757838682339
 21
76.036922472481137
  0
LINE
  8
_0-0_
  6
CONTINUOUS
 62
    7
 10
16.140757838682475
 20
79.03692247248091
 11
15.848400835760685
 21
84.615426406845586
  0
LINE
  8
_0-0_
  6
CONTINUOUS
 62
    7
 10
14.350456533628858
 20
86.036922472481251
 11
9.9310591437360927
 21
86.036922472481251
  0
LINE
  8
_0-0_
  6
CONTINUOUS
 62
    7
 10
8.1407578386824753
 20
79.036922472481365
 11
8.4331148416040378
 21
84.615426406845586
  0
ARC
  8
_0-0_
  6
CONTINUOUS
 62
    7
 10
9.9310591437360927
 20
84.536922472481251
 40
1.5
 50
90
 51
177.00000000000068
  0
ARC
  8
_0-0_
  6
CONTINUOUS
 62
    7
 10
14.350456533628858
 20
84.536922472481251
 40
1.5
 50
3.0000000000002718
 51
89.999999999999986
  0
ARC
  8
_0-0_
  6
CONTINUOUS
 62
    7
 10
19.540757838682339
 20
78.536922472481137
 40
0.5
 50
0
 51
90
  0
ARC
  8
_0-0_
  6
CONTINUOUS
 62
    7
 10
4.7407578386823843
 20
78.536922472481137
 40
0.4999999999999998
 50
90
 51
180
  0
LINE
  8
_0-1_
  6
CENTER2
 62
  152
 10
17.140787838681717
 20
29.011044141661557
 11
7.1407678386822226
 21
29.011044141661557
  0
LINE
  8
_0-1_
  6
CENTER2
 62
  152
 10
12.140757838682475
 20
34.011014141661406
 11
12.140757838682475
 21
24.011044141661557
  0
LINE
  8
_0-1_
  6
CENTER2
 62
  152
 10
64.138566224805345
 20
29.011044141661557
 11
79.138636224805396
 21
29.011044141661557
  0
LINE
  8
_0-1_
  6
DASHED3
 62
  152
 10
2.1407578386824753
 20
76.036922472481137
 11
2.1407578386824753
 21
75.536922472481137
  0
LINE
  8
_0-1_
  6
CENTER1
 62
  152
 10
12.140757838682475
 20
86.036922472481251
 11
12.140757838682475
 21
73.036922472481137
  0
ENDSEC
  0
EOF
