  0
SECTION
  2
HEADER
  9
$ACADVER
  1
AC1009
  9
$INSBASE
 10
0
 20
0
 30
0
  9
$EXTMIN
 10
0
 20
0
  9
$EXTMAX
 10
1189
 20
841
  9
$LIMMIN
 10
0
 20
0
  9
$LIMMAX
 10
1189
 20
841
  9
$LTSCALE
 40
1
  0
ENDSEC
  0
SECTION
  2
TABLES
  0
TABLE
  2
LTYPE
 70
     9
  0
LTYPE
  2
CONTINUOUS
 70
    64
  3
実線
 72
    65
 73
     0
 40
0.0
  0
LTYPE
  2
DASHED1
 70
    64
  3
--  --  --  --  --  --  --  --  
 72
    65
 73
     2
 40
2.5
 49
1.25
 49
-1.25
  0
LTYPE
  2
DASHED2
 70
    64
  3
----    ----    ----    ----    
 72
    65
 73
     2
 40
5.0
 49
2.5
 49
-2.5
  0
LTYPE
  2
DASHED3
 70
    64
  3
------  ------  ------  ------  
 72
    65
 73
     2
 40
5.0
 49
3.75
 49
-1.25
  0
LTYPE
  2
CENTER1
 70
    64
  3
----- - ----- - ----- - ----- - 
 72
    65
 73
     4
 40
10.0
 49
6.25
 49
-1.25
 49
1.25
 49
-1.25
  0
LTYPE
  2
CENTER2
 70
    64
  3
----------  --  ----------  --  
 72
    65
 73
     4
 40
20.0
 49
12.5
 49
-2.5
 49
2.5
 49
-2.5
  0
LTYPE
  2
PHANTOM1
 70
    64
  3
--- - - --- - - --- - - --- - - 
 72
    65
 73
     6
 40
10.0
 49
3.25
 49
-1.25
 49
1.25
 49
-1.25
 49
1.25
 49
-1.25
  0
LTYPE
  2
PHANTOM2
 70
    64
  3
--------  -  -  --------  -  -  
 72
    65
 73
     6
 40
20.0
 49
10.0
 49
-2.5
 49
1.25
 49
-2.5
 49
1.25
 49
-2.5
  0
LTYPE
  2
DOT
 70
    64
  3
-   -   -   -   -   -   -   -   
 72
    65
 73
     2
 40
2.5
 49
0.625
 49
-1.875
  0
LTYPE
  2
DUMMY
 70
    64
  3
ダミー
 72
    65
 73
     0
 40
0.0
  0
LTYPE
  2
RAND1
 70
    64
  3
ランダム線1
 72
    65
 73
     4
 40
10.0
 49
1.0
 49
-2.0
 49
3.0
 49
-4.0
  0
LTYPE
  2
RAND2
 70
    64
  3
ランダム線2
 72
    65
 73
     4
 40
14.0
 49
2.0
 49
-3.0
 49
4.0
 49
-5.0
  0
LTYPE
  2
RAND3
 70
    64
  3
ランダム線3
 72
    65
 73
     4
 40
18.0
 49
3.0
 49
-4.0
 49
5.0
 49
-6.0
  0
LTYPE
  2
RAND4
 70
    64
  3
ランダム線4
 72
    65
 73
     4
 40
22.0
 49
4.0
 49
-5.0
 49
6.0
 49
-7.0
  0
LTYPE
  2
RAND5
 70
    64
  3
ランダム線5
 72
    65
 73
     4
 40
26.0
 49
5.0
 49
-6.0
 49
7.0
 49
-8.0
  0
LTYPE
  2
LONG1
 70
    64
  3
----------  --  ----------  --  
 72
    65
 73
     4
 40
40.0
 49
32.5
 49
-2.5
 49
2.5
 49
-2.5
  0
LTYPE
  2
LONG2
 70
    64
  3
--------  -  -  --------  -  -  
 72
    65
 73
     6
 40
40.0
 49
30.0
 49
-2.5
 49
1.25
 49
-2.5
 49
1.25
 49
-2.5
  0
LTYPE
  2
LONG3
 70
    64
  3
+++++++++++++++..+++++++++++++++
 72
    65
 73
     2
 40
40.0
 49
37.5
 49
-2.5
  0
LTYPE
  2
LONG4
 70
    64
  3
+++++++++++++++..+++++++++++++++
 72
    65
 73
     2
 40
80.0
 49
75.0
 49
-5.0
  0
LTYPE
  2
LONG5
 70
    64
  3
----------  --  ----------  --  
 72
    65
 73
     4
 40
60.0
 49
37.5
 49
-7.5
 49
7.5
 49
-7.5
  0
LTYPE
  2
dashed
 70
   64
  3
-------   -------------   ------
 72
   65
 73
    2
 40
7.5
 49
6
 49
-1.5
  0
LTYPE
  2
dashed_spaced
 70
   64
  3
----        --------        ----
 72
   65
 73
    2
 40
12
 49
6
 49
-6
  0
LTYPE
  2
long_dashed_dotted
 70
   64
  3
------------- --- --------------
 72
   65
 73
    4
 40
15.25
 49
12
 49
-1.5
 49
0.25
 49
-1.5
  0
LTYPE
  2
long_dashed_double-dotted
 70
   64
  3
----------- --- --- ------------
 72
   65
 73
    6
 40
17
 49
12
 49
-1.5
 49
0.25
 49
-1.5
 49
0.25
 49
-1.5
  0
LTYPE
  2
long_dashed_triplicate-dotted
 70
   64
  3
--------- --- --- --- ----------
 72
   65
 73
    8
 40
18.75
 49
12
 49
-1.5
 49
0.25
 49
-1.5
 49
0.25
 49
-1.5
 49
0.25
 49
-1.5
  0
LTYPE
  2
dotted
 70
   64
  3
   -       -       -       -    
 72
   65
 73
    2
 40
1.75
 49
0.25
 49
-1.5
  0
LTYPE
  2
chain
 70
   64
  3
-------------- -- --------------
 72
   65
 73
    4
 40
18.5
 49
12
 49
-1.5
 49
3.5
 49
-1.5
  0
LTYPE
  2
chain_double_dash
 70
   64
  3
------------ -- -- -------------
 72
   65
 73
    6
 40
23.5
 49
12
 49
-1.5
 49
3.5
 49
-1.5
 49
3.5
 49
-1.5
  0
LTYPE
  2
dashed_dotted
 70
   64
  3
-----------     -     ----------
 72
   65
 73
    4
 40
9.25
 49
6
 49
-1.5
 49
0.25
 49
-1.5
  0
LTYPE
  2
double-dashed_dotted
 70
   64
  3
------   -----------   -   -----
 72
   65
 73
    6
 40
16.75
 49
6
 49
-1.5
 49
6
 49
-1.5
 49
0.25
 49
-1.5
  0
LTYPE
  2
dashed_double-dotted
 70
   64
  3
---------    -    -    ---------
 72
   65
 73
    6
 40
11
 49
6
 49
-1.5
 49
0.25
 49
-1.5
 49
0.25
 49
-1.5
  0
LTYPE
  2
double-dashed_double-dotted
 70
   64
  3
-----   ---------   -   -   ----
 72
   65
 73
    8
 40
18.5
 49
6
 49
-1.5
 49
6
 49
-1.5
 49
0.25
 49
-1.5
 49
0.25
 49
-1.5
  0
LTYPE
  2
dashed_triplicate-dotted
 70
   64
  3
-------    -    -    -    ------
 72
   65
 73
    8
 40
12.75
 49
6
 49
-1.5
 49
0.25
 49
-1.5
 49
0.25
 49
-1.5
 49
0.25
 49
-1.5
  0
LTYPE
  2
double-dashed_triplicate-dotted
 70
   64
  3
-----  ---------  -  -  -  -----
 72
   65
 73
   10
 40
20.25
 49
6
 49
-1.5
 49
6
 49
-1.5
 49
0.25
 49
-1.5
 49
0.25
 49
-1.5
 49
0.25
 49
-1.5
  0
LTYPE
  2
undefined
 70
   64
  3
--------------------------------
 72
   65
 73
    0
 40
0
  0
ENDTAB
  0
TABLE
  2
STYLE
  5
3
100
AcDbSymbolTable
 70
     1
  0
STYLE
  5
10
100
AcDbSymbolTableRecord
100
AcDbTextStyleTableRecord
  2
STANDARD
 70
     0
 40
0.0
 41
1.0
 50
0.0
 71
     0
 42
0.2
  3
txt
  4
bigfont.shx
  0
STYLE
  5
26
100
AcDbSymbolTableRecord
100
AcDbTextStyleTableRecord
  2
TATEGAKI
 70
    68
 40
0.0
 41
1.0
 50
0.0
 71
     0
 42
1.0
  3
txt
  4
bigfont.shx
  0
ENDTAB
  0
TABLE
  2
LAYER
 70
    4
  0
LAYER
  2
_0-0_
 70
   64
 62
    7
  6
CONTINUOUS
  0
LAYER
  2
_0-1_
 70
   64
 62
    7
  6
CONTINUOUS
  0
LAYER
  2
_0-f_
 70
   64
 62
    7
  6
CONTINUOUS
  0
LAYER
  2
ADD_LINE
 70
   64
 62
    7
  6
CONTINUOUS
  0
ENDTAB
  0
ENDSEC
  0
SECTION
  2
BLOCKS
  0
ENDSEC
  0
SECTION
  2
ENTITIES
  0
TEXT
  8
_0-f_
 62
    7
 10
2.2159354054743972
 20
2.0561384912006133
 40
4.2999999999999998
 41
0.744186046511628
 50
0
  1
EP20
  0
LINE
  8
_0-0_
  6
CONTINUOUS
 62
    7
 10
15.537474070885196
 20
20.211653354107796
 11
13.927511328737182
 21
18.601690611959725
  0
LINE
  8
_0-0_
  6
CONTINUOUS
 62
    7
 10
13.927511328737296
 20
18.601690611959611
 11
13.610943142502151
 21
18.631655343244063
  0
LINE
  8
_0-0_
  6
CONTINUOUS
 62
    7
 10
13.610943142502265
 20
18.631655343244233
 11
13.912225841263762
 21
18.956984085666647
  0
LINE
  8
_0-0_
  6
CONTINUOUS
 62
    7
 10
13.912225841263762
 20
18.956984085666647
 11
15.799512967300416
 21
20.844271211702676
  0
LINE
  8
_0-0_
  6
CONTINUOUS
 62
    7
 10
15.375248898588438
 20
21.268535280414596
 11
13.487961772542803
 21
19.381248154368961
  0
LINE
  8
_0-0_
  6
CONTINUOUS
 62
    7
 10
13.487961772542803
 20
19.381248154368961
 11
13.162633030129882
 21
19.079965455616218
  0
LINE
  8
_0-0_
  6
CONTINUOUS
 62
    7
 10
13.162633030129882
 20
19.079965455616218
 11
12.859253254874488
 21
19.079965455616218
  0
LINE
  8
_0-0_
  6
CONTINUOUS
 62
    7
 10
12.859253254874488
 20
19.079965455616218
 11
12.533924512451904
 21
19.381248154377886
  0
LINE
  8
_0-0_
  6
CONTINUOUS
 62
    7
 10
12.533924512451904
 20
19.381248154377886
 11
10.646637386416046
 21
21.268535280414596
  0
LINE
  8
_0-0_
  6
CONTINUOUS
 62
    7
 10
10.010943142502242
 20
21.779965455616377
 11
16.010943142502242
 21
21.779965455616377
  0
LINE
  8
_0-0_
  6
CONTINUOUS
 62
    7
 10
16.310943142502197
 20
21.479965455616366
 11
16.310943142502197
 21
15.479965455616252
  0
LINE
  8
_0-0_
  6
CONTINUOUS
 62
    7
 10
16.010943142502242
 20
15.179965455616241
 11
10.010943142502242
 21
15.179965455616241
  0
LINE
  8
_0-0_
  6
CONTINUOUS
 62
    7
 10
10.646637386415932
 20
15.691395630818192
 11
12.533924512461567
 21
17.578682756863884
  0
LINE
  8
_0-0_
  6
CONTINUOUS
 62
    7
 10
12.533924512461567
 20
17.578682756863884
 11
12.859253254874147
 21
17.87996545561623
  0
LINE
  8
_0-0_
  6
CONTINUOUS
 62
    7
 10
12.859253254874375
 20
17.87996545561623
 11
12.889217986158883
 21
17.563397269381426
  0
LINE
  8
_0-0_
  6
CONTINUOUS
 62
    7
 10
12.889217986158542
 20
17.563397269381255
 11
11.279255244010756
 21
15.953434527233355
  0
LINE
  8
_0-0_
  6
CONTINUOUS
 62
    7
 10
11.491096558786239
 20
15.442004352031574
 11
14.530789726218245
 21
15.442004352031574
  0
LINE
  8
_0-0_
  6
CONTINUOUS
 62
    7
 10
14.742631040993615
 20
15.953434527233355
 11
13.132668298845829
 21
17.563397269381255
  0
LINE
  8
_0-0_
  6
CONTINUOUS
 62
    7
 10
13.132668298845601
 20
17.563397269381142
 11
13.16263303013011
 21
17.87996545561623
  0
LINE
  8
_0-0_
  6
CONTINUOUS
 62
    7
 10
13.16263303013011
 20
17.87996545561623
 11
13.487961772552467
 21
17.57868275685496
  0
LINE
  8
_0-0_
  6
CONTINUOUS
 62
    7
 10
13.487961772552467
 20
17.57868275685496
 11
15.375248898588552
 21
15.691395630818192
  0
LINE
  8
_0-0_
  6
CONTINUOUS
 62
    7
 10
15.799512967300416
 20
16.11565969953017
 11
13.912225841254781
 21
18.002946825575748
  0
LINE
  8
_0-0_
  6
CONTINUOUS
 62
    7
 10
13.912225841254781
 20
18.002946825575748
 11
13.610943142502265
 21
18.328275567988612
  0
LINE
  8
_0-0_
  6
CONTINUOUS
 62
    7
 10
13.610943142502265
 20
18.328275567988612
 11
13.610943142502265
 21
18.631655343244233
  0
LINE
  8
_0-0_
  6
CONTINUOUS
 62
    7
 10
13.610943142502151
 20
18.328275567988385
 11
13.92751132873741
 21
18.358240299272893
  0
LINE
  8
_0-0_
  6
CONTINUOUS
 62
    7
 10
13.927511328737182
 20
18.358240299272836
 11
13.927511328737182
 21
18.601690611959725
  0
LINE
  8
_0-0_
  6
CONTINUOUS
 62
    7
 10
13.92751132873741
 20
18.358240299272893
 11
15.537474070885196
 21
16.748277557124993
  0
LINE
  8
_0-0_
  6
CONTINUOUS
 62
    7
 10
16.048904246086977
 20
16.960118871900477
 11
16.048904246086977
 21
19.999812039332369
  0
LINE
  8
_0-0_
  6
CONTINUOUS
 62
    7
 10
16.048904246087091
 20
19.999812039332085
 11
16.043164065038582
 21
20.058603600022536
  0
LINE
  8
_0-0_
  6
CONTINUOUS
 62
    7
 10
16.043164065038582
 20
20.058603600022536
 11
16.026162885373083
 21
20.115072500307747
  0
LINE
  8
_0-0_
  6
CONTINUOUS
 62
    7
 10
14.742631040993615
 20
21.006496383999377
 11
13.132668298845374
 21
19.396533641851136
  0
LINE
  8
_0-0_
  6
CONTINUOUS
 62
    7
 10
13.132668298845488
 20
19.396533641850965
 11
13.162633030129882
 21
19.079965455616161
  0
LINE
  8
_0-0_
  6
CONTINUOUS
 62
    7
 10
13.16263303013011
 20
17.87996545561623
 11
12.859253254874375
 21
17.87996545561623
  0
LINE
  8
_0-0_
  6
CONTINUOUS
 62
    7
 10
12.889217986158542
 20
17.563397269381255
 11
13.132668298845829
 21
17.563397269381255
  0
LINE
  8
_0-0_
  6
CONTINUOUS
 62
    7
 10
12.410943142502219
 20
18.328275567988726
 11
12.410943142502219
 21
18.631655343244063
  0
LINE
  8
_0-0_
  6
CONTINUOUS
 62
    7
 10
12.410943142502219
 20
18.631655343244063
 11
12.109660443749704
 21
18.956984085657041
  0
LINE
  8
_0-0_
  6
CONTINUOUS
 62
    7
 10
12.109660443749704
 20
18.956984085657041
 11
10.223075176858288
 21
20.843569352548343
  0
LINE
  8
_0-0_
  6
CONTINUOUS
 62
    7
 10
10.485114073273394
 20
20.21095149495369
 11
12.094374956267416
 21
18.601690611959611
  0
LINE
  8
_0-0_
  6
CONTINUOUS
 62
    7
 10
12.094374956267416
 20
18.601690611959611
 11
12.410943142502219
 21
18.631655343244063
  0
LINE
  8
_0-0_
  6
CONTINUOUS
 62
    7
 10
12.410943142502219
 20
18.328275567988726
 11
12.109660443740836
 21
18.002946825566312
  0
LINE
  8
_0-0_
  6
CONTINUOUS
 62
    7
 10
12.109660443740836
 20
18.002946825566312
 11
10.223075176858174
 21
16.116361558684389
  0
LINE
  8
_0-0_
  6
CONTINUOUS
 62
    7
 10
25.510943142502242
 20
29.979965455616309
 11
25.510943142502242
 21
11.979965455616252
  0
LINE
  8
_0-1_
  6
CENTER1
 62
  152
 10
13.010943142502242
 20
11.979965455616252
 11
13.010943142502242
 21
23.203994726002463
  0
LINE
  8
_0-0_
  6
CONTINUOUS
 62
    7
 10
14.530789726218131
 20
21.517926559201157
 11
11.491096558786353
 21
21.517926559201157
  0
LINE
  8
_0-0_
  6
CONTINUOUS
 62
    7
 10
11.279255244010869
 20
21.006496383999377
 11
12.889217986158883
 21
19.396533641851136
  0
LINE
  8
_0-0_
  6
CONTINUOUS
 62
    7
 10
12.889217986158769
 20
19.396533641851306
 11
12.859253254874261
 21
19.079965455616161
  0
LINE
  8
_0-0_
  6
CONTINUOUS
 62
    7
 10
12.889217986158883
 20
19.396533641851136
 11
13.132668298845374
 21
19.396533641851136
  0
LINE
  8
_0-0_
  6
CONTINUOUS
 62
    7
 10
12.410943142502219
 20
18.328275567988385
 11
12.094374956267075
 21
18.358240299272893
  0
LINE
  8
_0-0_
  6
CONTINUOUS
 62
    7
 10
12.094374956267075
 20
18.358240299272893
 11
10.485114073273394
 21
16.748979416279099
  0
LINE
  8
_0-0_
  6
CONTINUOUS
 62
    7
 10
9.9729820389173938
 20
16.96111145063503
 11
9.9729820389173938
 21
19.998819460597758
  0
LINE
  8
_0-0_
  6
CONTINUOUS
 62
    7
 10
9.7109431425022876
 20
21.479965455616366
 11
9.7109431425022876
 21
15.479965455616252
  0
LINE
  8
_0-0_
  6
CONTINUOUS
 62
    7
 10
6.9126434826523564
 20
15.179965455654667
 11
6.9126434826523564
 21
12.379965455654656
  0
LINE
  8
_0-0_
  6
CONTINUOUS
 62
    7
 10
6.9126434826523564
 20
12.379965455654656
 11
24.112643482652402
 21
12.379965455654656
  0
LINE
  8
_0-0_
  6
CONTINUOUS
 62
    7
 10
24.112643482686735
 20
12.379965455654656
 11
24.112643482686735
 21
26.12282321229992
  0
LINE
  8
_0-0_
  6
CONTINUOUS
 62
    7
 10
24.112643482721182
 20
26.12282321229992
 11
23.612643482721182
 21
26.12282321229992
  0
LINE
  8
_0-0_
  6
CONTINUOUS
 62
    7
 10
23.612643482727321
 20
26.122823212300091
 11
23.612643482727321
 21
28.579965455616389
  0
LINE
  8
_0-0_
  6
CONTINUOUS
 62
    7
 10
23.612643482733461
 20
28.579965455616389
 11
23.112643482733461
 21
29.079965455616389
  0
LINE
  8
_0-0_
  6
CONTINUOUS
 62
    7
 10
23.112643482733461
 20
29.079965455616389
 11
20.652372348287713
 21
29.079965455616389
  0
LINE
  8
_0-0_
  6
CONTINUOUS
 62
    7
 10
20.652372348288395
 20
29.079965455617128
 11
20.652372348288395
 21
29.579965455616389
  0
LINE
  8
_0-0_
  6
CONTINUOUS
 62
    7
 10
20.652372348288395
 20
29.579965455616389
 11
6.9126434826523564
 21
29.579965455616389
  0
LINE
  8
_0-0_
  6
CONTINUOUS
 62
    7
 10
6.9126434826523564
 20
29.579965455616389
 11
6.9126434826523564
 21
21.779965455616491
  0
LINE
  8
_0-0_
  6
CONTINUOUS
 62
    7
 10
6.9126434826523564
 20
21.779965455616491
 11
6.9109431425707726
 21
21.779965455616491
  0
LINE
  8
_0-0_
  6
CONTINUOUS
 62
    7
 10
6.9109431425707726
 20
21.779965455616491
 11
6.9109431425707726
 21
15.179965455654553
  0
LINE
  8
_0-0_
  6
CONTINUOUS
 62
    7
 10
6.9109431425707726
 20
15.17996545565461
 11
6.9126434826523564
 21
15.17996545565461
  0
LINE
  8
_0-0_
  6
CONTINUOUS
 62
    7
 10
6.5109431425022422
 20
30.979965455616309
 11
24.510943142502242
 21
30.979965455616309
  0
LINE
  8
_0-1_
  6
CENTER1
 62
  152
 10
18.791947863977498
 20
27.729965455616366
 11
26.454378391287264
 21
27.729965455616366
  0
LINE
  8
_0-1_
  6
CENTER1
 62
  152
 10
22.260943142502356
 20
32.132448630944509
 11
22.260943142502356
 21
24.473606139812034
  0
LINE
  8
_0-1_
  6
CONTINUOUS
 62
  152
 10
7.908673445200975
 20
19.847114500573923
 11
6.908673445200975
 21
19.847114500573923
  0
LINE
  8
_0-1_
  6
CONTINUOUS
 62
  152
 10
7.0426480414165553
 20
20.347114500573923
 11
7.908673445200975
 21
19.847114500573923
  0
LINE
  8
_0-1_
  6
CENTER1
 62
  152
 10
6.5109431425022422
 20
18.479965455616252
 11
16.998457913409652
 21
18.479965455616252
  0
LINE
  8
_0-0_
  6
CONTINUOUS
 62
    7
 10
5.5109431425022422
 20
29.979965455616366
 11
5.5109431425022422
 21
11.979965455616366
  0
LINE
  8
_0-0_
  6
CONTINUOUS
 62
    7
 10
12.094374956267416
 20
18.601690611959611
 11
12.094374956267075
 21
18.358240299272893
  0
LINE
  8
_0-0_
  6
CONTINUOUS
 62
    7
 10
24.510943142502242
 20
10.979965455616309
 11
6.5109431425022422
 21
10.979965455616309
  0
ARC
  8
_0-0_
  6
CONTINUOUS
 62
    7
 10
22.260943142502356
 20
27.729965455616366
 40
1.599999999999997
 50
180
 51
327.65187513744331
  0
ARC
  8
_0-0_
  6
CONTINUOUS
 62
    7
 10
22.260943142502356
 20
27.729965455616366
 40
1.599999999999997
 50
122.46174496724304
 51
179.99999999999997
  0
ARC
  8
_0-0_
  6
CONTINUOUS
 62
    7
 10
22.260943142502356
 20
27.729965455616366
 40
2.1000000000000001
 50
139.99479911513964
 51
179.99999999999997
  0
ARC
  8
_0-0_
  6
CONTINUOUS
 62
    7
 10
22.260943142502356
 20
27.729965455616366
 40
2.1000000000000001
 50
180
 51
310.06579230459681
  0
ARC
  8
_0-0_
  6
CONTINUOUS
 62
    7
 10
13.010943142502242
 20
18.479965455616252
 40
1.3768417186847719
 50
212.41486908963449
 51
237.58513091035707
  0
ARC
  8
_0-0_
  6
CONTINUOUS
 62
    7
 10
13.010943142502242
 20
18.479965455616252
 40
1.3768417186847719
 50
302.4148690896385
 51
327.58513091036014
  0
ARC
  8
_0-0_
  6
CONTINUOUS
 62
    7
 10
16.010943142502242
 20
15.479965455616252
 40
0.2999999999999998
 50
269.99999999998909
 51
0.0000000000000254
  0
ARC
  8
_0-0_
  6
CONTINUOUS
 62
    7
 10
13.010943142502242
 20
18.479965455616252
 40
1.3768417186847719
 50
122.41486908963127
 51
147.58513091035493
  0
ARC
  8
_0-0_
  6
CONTINUOUS
 62
    7
 10
13.010943142502242
 20
18.479965455616252
 40
1.3768417186847719
 50
32.414869089641478
 51
57.585130910362089
  0
ARC
  8
_0-0_
  6
CONTINUOUS
 62
    7
 10
16.010943142502242
 20
21.479965455616366
 40
0.2999999999999998
 50
0
 51
90
  0
ARC
  8
_0-0_
  6
CONTINUOUS
 62
    7
 10
24.510943142502242
 20
11.979965455616252
 40
1
 50
270.00000000000318
 51
0.0000000000000127
  0
ARC
  8
_0-0_
  6
CONTINUOUS
 62
    7
 10
6.5109431425022422
 20
11.979965455616366
 40
1
 50
180
 51
270
  0
ARC
  8
_0-0_
  6
CONTINUOUS
 62
    7
 10
6.5109431425022422
 20
29.979965455616366
 40
1
 50
90
 51
180
  0
ARC
  8
_0-0_
  6
CONTINUOUS
 62
    7
 10
24.510943142502242
 20
29.979965455616309
 40
1
 50
0
 51
90
  0
ARC
  8
_0-0_
  6
CONTINUOUS
 62
    7
 10
10.272982038917462
 20
19.998819460597758
 40
0.3
 50
44.999999999999744
 51
180
  0
ARC
  8
_0-0_
  6
CONTINUOUS
 62
    7
 10
10.010943142502356
 20
20.631437318192411
 40
0.3
 50
45.000000000001883
 51
179.99999999999994
  0
ARC
  8
_0-0_
  6
CONTINUOUS
 62
    7
 10
10.010943142502356
 20
16.328493593040434
 40
0.3
 50
180
 51
314.99999999998892
  0
ARC
  8
_0-0_
  6
CONTINUOUS
 62
    7
 10
10.272982038917462
 20
16.96111145063503
 40
0.3
 50
180
 51
315.00000000000017
  0
ARC
  8
_0-0_
  6
CONTINUOUS
 62
    7
 10
10.010943142502242
 20
21.479965455616366
 40
0.2999999999999998
 50
90
 51
180
  0
ARC
  8
_0-0_
  6
CONTINUOUS
 62
    7
 10
10.010943142502242
 20
15.479965455616252
 40
0.2999999999999998
 50
180
 51
270.00000000001091
  0
ARC
  8
_0-0_
  6
CONTINUOUS
 62
    7
 10
11.492089137520679
 20
15.742004352031472
 40
0.3
 50
134.99999999999974
 51
270
  0
ARC
  8
_0-0_
  6
CONTINUOUS
 62
    7
 10
10.859471279926083
 20
15.479965455616366
 40
0.3
 50
135.00000000000188
 51
269.99999999999994
  0
ARC
  8
_0-0_
  6
CONTINUOUS
 62
    7
 10
15.16241500507806
 20
15.479965455616366
 40
0.3
 50
270
 51
44.999999999988916
  0
ARC
  8
_0-0_
  6
CONTINUOUS
 62
    7
 10
14.52979714748335
 20
15.742004352031472
 40
0.3
 50
270
 51
45.000000000000171
  0
ARC
  8
_0-0_
  6
CONTINUOUS
 62
    7
 10
15.748904246087022
 20
16.961111450634689
 40
0.3
 50
224.99999999999974
 51
0
  0
ARC
  8
_0-0_
  6
CONTINUOUS
 62
    7
 10
16.010943142502128
 20
16.328493593040093
 40
0.3
 50
225.00000000000188
 51
359.99999999999994
  0
ARC
  8
_0-0_
  6
CONTINUOUS
 62
    7
 10
16.010943142502128
 20
20.631437318192013
 40
0.3
 50
0
 51
134.99999999998897
  0
ARC
  8
_0-0_
  6
CONTINUOUS
 62
    7
 10
15.748904246087022
 20
19.998819460597417
 40
0.3
 50
0
 51
135.00000000000017
  0
ARC
  8
_0-0_
  6
CONTINUOUS
 62
    7
 10
14.529797147483805
 20
21.217926559201032
 40
0.3
 50
314.99999999999977
 51
90
  0
ARC
  8
_0-0_
  6
CONTINUOUS
 62
    7
 10
15.162415005078401
 20
21.479965455616139
 40
0.3
 50
315.00000000000188
 51
89.999999999999943
  0
ARC
  8
_0-0_
  6
CONTINUOUS
 62
    7
 10
10.859471279926424
 20
21.479965455616139
 40
0.3
 50
90
 51
224.99999999998892
  0
ARC
  8
_0-0_
  6
CONTINUOUS
 62
    7
 10
11.49208913752102
 20
21.217926559201032
 40
0.3
 50
90
 51
225.00000000000011
  0
ARC
  8
_0-1_
  6
PHANTOM1
 62
  152
 10
13.010943142502356
 20
18.479965455616252
 40
5.2822582836441665
 50
114.57859079646853
 51
78.031712399802359
  0
LINE
  8
_0-0_
  6
CONTINUOUS
 62
    7
 10
24.510943142502242
 20
71.317526292361777
 11
6.5109431425022422
 21
71.317526292361777
  0
LINE
  8
_0-0_
  6
CONTINUOUS
 62
  152
 10
6.5109431425022422
 20
71.317526292361777
 11
6.5109431425022422
 21
91.317526292361777
  0
LINE
  8
_0-0_
  6
CONTINUOUS
 62
    7
 10
6.5109431425022422
 20
91.317526292361777
 11
24.510943142502242
 21
91.317526292361777
  0
LINE
  8
_0-0_
  6
CONTINUOUS
 62
  152
 10
24.510943142502242
 20
91.317526292361777
 11
24.510943142502242
 21
71.317526292361777
  0
LINE
  8
_0-0_
  6
CONTINUOUS
 62
  152
 10
25.510943142502242
 20
72.317526292361777
 11
5.5109431425022422
 21
72.317526292361777
  0
LINE
  8
_0-0_
  6
CONTINUOUS
 62
    7
 10
5.5109431425022422
 20
72.317526292361777
 11
5.5109431425022422
 21
90.317526292361777
  0
LINE
  8
_0-0_
  6
CONTINUOUS
 62
  152
 10
5.5109431425022422
 20
90.317526292361777
 11
25.510943142502242
 21
90.317526292361777
  0
LINE
  8
_0-0_
  6
CONTINUOUS
 62
    7
 10
25.510943142502242
 20
90.317526292361833
 11
25.510943142502242
 21
72.317526292361833
  0
LINE
  8
_0-1_
  6
CONTINUOUS
 62
  152
 10
16.554720825625395
 20
74.191095472187158
 11
16.554720825625395
 21
75.868698778007115
  0
LINE
  8
_0-1_
  6
CONTINUOUS
 62
  152
 10
16.554720825625395
 20
75.868698778007115
 11
16.045615297225709
 21
75.868698778007115
  0
LINE
  8
_0-1_
  6
CONTINUOUS
 62
  152
 10
16.045615297225709
 20
75.868698778007115
 11
16.045615297225709
 21
73.827137535407132
  0
LINE
  8
_0-1_
  6
CONTINUOUS
 62
  152
 10
16.045615297225709
 20
73.827137535407132
 11
17.474958073539824
 21
73.827137535407132
  0
LINE
  8
_0-1_
  6
CONTINUOUS
 62
  152
 10
17.474958073539824
 20
73.827137535407132
 11
17.474958073539824
 21
74.191095472187158
  0
LINE
  8
_0-1_
  6
CONTINUOUS
 62
  152
 10
17.474958073539824
 20
74.191095472187158
 11
16.554720825625395
 21
74.191095472187158
  0
LINE
  8
_0-0_
  6
CONTINUOUS
 62
    7
 10
15.810943142502424
 20
73.317526292361777
 11
23.210943142502515
 21
73.317526292361777
  0
LINE
  8
_0-0_
  6
CONTINUOUS
 62
    7
 10
23.210943142502515
 20
76.317526292361777
 11
15.810943142502424
 21
76.317526292361777
  0
LINE
  8
_0-0_
  6
CONTINUOUS
 62
    7
 10
15.510943142502242
 20
76.017526292361822
 11
15.510943142502242
 21
73.617526292361731
  0
LINE
  8
_0-0_
  6
CONTINUOUS
 62
    7
 10
23.510943142502242
 20
73.617526292361731
 11
23.510943142502242
 21
76.017526292361822
  0
LINE
  8
_0-1_
  6
CONTINUOUS
 62
  152
 10
21.121011853882123
 20
75.258984571487076
 11
20.600911207745071
 21
75.258984571487076
  0
LINE
  8
_0-1_
  6
CONTINUOUS
 62
  152
 10
20.603441944821157
 20
74.523323951447196
 11
21.134431350283307
 21
74.523323951447196
  0
LINE
  8
_0-1_
  6
CONTINUOUS
 62
  152
 10
19.209508140135426
 20
74.689645449337036
 11
19.209508140135426
 21
75.031296527317068
  0
LINE
  8
_0-1_
  6
CONTINUOUS
 62
  152
 10
19.209508140135426
 20
75.031296527317068
 11
18.375054465158087
 21
75.031296527317068
  0
LINE
  8
_0-1_
  6
CONTINUOUS
 62
  152
 10
18.375054465158087
 20
75.031296527317068
 11
18.375054465158087
 21
75.504740841255966
  0
LINE
  8
_0-1_
  6
CONTINUOUS
 62
  152
 10
18.375054465158087
 20
75.504740841255966
 11
19.297469171262605
 21
75.504740841255966
  0
LINE
  8
_0-1_
  6
CONTINUOUS
 62
  152
 10
19.297469171262605
 20
75.504740841255966
 11
19.297469171262605
 21
75.868698778007115
  0
LINE
  8
_0-1_
  6
CONTINUOUS
 62
  152
 10
19.297469171262605
 20
75.868698778007115
 11
17.867754379718122
 21
75.868698778007115
  0
LINE
  8
_0-1_
  6
CONTINUOUS
 62
  152
 10
17.867754379718122
 20
75.868698778007115
 11
17.867754379718122
 21
73.827137535407132
  0
LINE
  8
_0-1_
  6
CONTINUOUS
 62
  152
 10
17.867754379718122
 20
73.827137535407132
 11
19.297469171262605
 21
73.827137535407132
  0
LINE
  8
_0-1_
  6
CONTINUOUS
 62
  152
 10
19.297469171262605
 20
73.827137535407132
 11
19.297469171262605
 21
74.191095472187158
  0
LINE
  8
_0-1_
  6
CONTINUOUS
 62
  152
 10
19.297469171262605
 20
74.191095472187158
 11
18.375054465158087
 21
74.191095472187158
  0
LINE
  8
_0-1_
  6
CONTINUOUS
 62
  152
 10
18.375054465158087
 20
74.191095472187158
 11
18.375054465158087
 21
74.689645449337036
  0
LINE
  8
_0-1_
  6
CONTINUOUS
 62
  152
 10
18.375054465158087
 20
74.689645449337036
 11
19.209508140135426
 21
74.689645449337036
  0
LINE
  8
_0-1_
  6
CENTER1
 62
  152
 10
13.010943142502242
 20
75.267526292361651
 11
13.010943142502242
 21
92.367526292362072
  0
LINE
  8
_0-1_
  6
CENTER1
 62
  152
 10
4.4609431425020603
 20
83.817526292361833
 11
21.560943142502424
 21
83.817526292361833
  0
ARC
  8
_0-0_
  6
CONTINUOUS
 62
    7
 10
15.810943142502424
 20
73.617526292361731
 40
0.2999999999999999
 50
180
 51
270
  0
ARC
  8
_0-0_
  6
CONTINUOUS
 62
    7
 10
15.810943142502424
 20
76.017526292361822
 40
0.2999999999999999
 50
90
 51
180
  0
ARC
  8
_0-0_
  6
CONTINUOUS
 62
    7
 10
23.210943142502515
 20
76.017526292361822
 40
0.2999999999999999
 50
0
 51
90
  0
ARC
  8
_0-0_
  6
CONTINUOUS
 62
    7
 10
23.210943142502515
 20
73.617526292361731
 40
0.2999999999999999
 50
270
 51
0
  0
ARC
  8
_0-0_
  6
CONTINUOUS
 62
    7
 10
24.510943142502242
 20
90.317526292361833
 40
1
 50
0
 51
90
  0
ARC
  8
_0-0_
  6
CONTINUOUS
 62
    7
 10
6.5109431425022422
 20
72.317526292361777
 40
1
 50
180
 51
270
  0
ARC
  8
_0-0_
  6
CONTINUOUS
 62
    7
 10
6.5109431425022422
 20
90.317526292361777
 40
1
 50
90
 51
180
  0
CIRCLE
  8
_0-0_
  6
CONTINUOUS
 62
    7
 10
13.010943142502242
 20
83.817526292361833
 40
3.5500000000001806
  0
ARC
  8
_0-0_
  6
CONTINUOUS
 62
    7
 10
24.510943142502242
 20
72.317526292361833
 40
1
 50
270
 51
0
  0
ARC
  8
_0-1_
  6
CONTINUOUS
 62
  152
 10
22.069462637968741
 20
74.847918156707124
 40
2.3989863444973807
 50
164.21600247589294
 51
195.78399752410709
  0
ARC
  8
_0-1_
  6
CONTINUOUS
 62
  152
 10
26.306633235935465
 20
74.847918156702804
 40
6.0927389498109967
 50
176.78919008197266
 51
183.21080991802734
  0
ARC
  8
_0-1_
  6
CONTINUOUS
 62
  152
 10
20.301553118420657
 20
74.382764484514269
 40
0.5721789663386137
 50
199.11812031409383
 51
253.77089632225113
  0
ARC
  8
_0-1_
  6
CONTINUOUS
 62
  152
 10
20.413484322962745
 20
74.902261965109687
 40
1.102902967963006
 50
255.7307072235771
 51
284.2692927764229
  0
ARC
  8
_0-1_
  6
CONTINUOUS
 62
  152
 10
20.525415527504379
 20
74.382764484514269
 40
0.5721789663386137
 50
286.22910367774887
 51
340.8818796859062
  0
ARC
  8
_0-1_
  6
CONTINUOUS
 62
  152
 10
18.757506007956295
 20
74.847918156707124
 40
2.3989863444973807
 50
344.21600247589294
 51
352.22375855280194
  0
ARC
  8
_0-1_
  6
CONTINUOUS
 62
  152
 10
20.413484322962745
 20
74.315267012303707
 40
0.1658629864205162
 50
198.7809348325886
 51
341.21906516741143
  0
ARC
  8
_0-1_
  6
CONTINUOUS
 62
  152
 10
19.677275729690905
 20
74.507156437593608
 40
0.9263073175532966
 50
344.64474174215434
 51
1.000075600874925
  0
ARC
  8
_0-1_
  6
CONTINUOUS
 62
  152
 10
21.14969291623413
 20
74.507156437593608
 40
0.9263073175532966
 50
179.28077569259483
 51
195.35525825784563
  0
ARC
  8
_0-1_
  6
CONTINUOUS
 62
  152
 10
20.413484322962745
 20
75.380569301110768
 40
0.1658629864205162
 50
18.780934832588589
 51
161.21906516741137
  0
ARC
  8
_0-1_
  6
CONTINUOUS
 62
  152
 10
21.14969291623413
 20
75.18867987582064
 40
0.9263073175532966
 50
164.64474174215434
 51
180.71922430740514
  0
ARC
  8
_0-1_
  6
CONTINUOUS
 62
  152
 10
19.677275729690905
 20
75.18867987582064
 40
0.9263073175532966
 50
4.3528100028009122
 51
15.355258257845675
  0
ARC
  8
_0-1_
  6
CONTINUOUS
 62
  152
 10
20.525415527504379
 20
75.313071828900206
 40
0.5721789663386137
 50
19.118120314093819
 51
73.770896322251133
  0
ARC
  8
_0-1_
  6
CONTINUOUS
 62
  152
 10
18.757506007956295
 20
74.847918156707124
 40
2.3989863444973807
 50
9.8663227198208787
 51
15.783997524107056
  0
ARC
  8
_0-1_
  6
CONTINUOUS
 62
  152
 10
20.413484322962745
 20
74.79357434830456
 40
1.102902967963006
 50
75.730707223577113
 51
104.2692927764229
  0
ARC
  8
_0-1_
  6
CONTINUOUS
 62
  152
 10
20.301553118420657
 20
75.313071828900206
 40
0.5721789663386137
 50
106.22910367774887
 51
160.88187968590617
  0
ARC
  8
_0-1_
  6
CONTINUOUS
 62
  152
 10
23.858754937998242
 20
74.847918156707124
 40
2.3989863444973807
 50
164.21600247589294
 51
195.78399752410709
  0
ARC
  8
_0-1_
  6
CONTINUOUS
 62
  152
 10
28.095925535964966
 20
74.847918156702804
 40
6.0927389498109967
 50
176.78919008197266
 51
183.21080991802734
  0
ARC
  8
_0-1_
  6
CONTINUOUS
 62
  152
 10
16.309627710019527
 20
74.847918156702804
 40
6.0927389498109967
 50
356.78919008197266
 51
3.2108099180273384
  0
ARC
  8
_0-1_
  6
CONTINUOUS
 62
  152
 10
22.202776622992246
 20
74.315267012303707
 40
0.1658629864205162
 50
198.7809348325886
 51
341.21906516741143
  0
ARC
  8
_0-1_
  6
CONTINUOUS
 62
  152
 10
22.202776622992246
 20
74.902261965109687
 40
1.102902967963006
 50
255.7307072235771
 51
284.2692927764229
  0
ARC
  8
_0-1_
  6
CONTINUOUS
 62
  152
 10
22.31470782753388
 20
74.382764484514269
 40
0.5721789663386137
 50
286.22910367774887
 51
340.8818796859062
  0
ARC
  8
_0-1_
  6
CONTINUOUS
 62
  152
 10
22.090845418450158
 20
74.382764484514269
 40
0.5721789663386137
 50
199.11812031409383
 51
253.77089632225113
  0
ARC
  8
_0-1_
  6
CONTINUOUS
 62
  152
 10
20.546798307985796
 20
74.847918156707124
 40
2.3989863444973807
 50
344.21600247589294
 51
15.783997524107075
  0
ARC
  8
_0-1_
  6
CONTINUOUS
 62
  152
 10
21.466568029720406
 20
74.507156437593608
 40
0.9263073175532966
 50
344.64474174215434
 51
0.7192243074051015
  0
ARC
  8
_0-1_
  6
CONTINUOUS
 62
  152
 10
22.938985216263632
 20
74.507156437593608
 40
0.9263073175532966
 50
179.28077569259483
 51
195.35525825784563
  0
ARC
  8
_0-1_
  6
CONTINUOUS
 62
  152
 10
22.938985216263632
 20
75.18867987582064
 40
0.9263073175532966
 50
164.64474174215434
 51
180.71922430740514
  0
ARC
  8
_0-1_
  6
CONTINUOUS
 62
  152
 10
22.202776622992246
 20
75.380569301110768
 40
0.1658629864205162
 50
18.780934832588589
 51
161.21906516741137
  0
ARC
  8
_0-1_
  6
CONTINUOUS
 62
  152
 10
21.466568029720406
 20
75.18867987582064
 40
0.9263073175532966
 50
359.28077569259489
 51
15.355258257845644
  0
ARC
  8
_0-1_
  6
CONTINUOUS
 62
  152
 10
22.202776622992246
 20
74.79357434830456
 40
1.102902967963006
 50
75.730707223577113
 51
104.2692927764229
  0
ARC
  8
_0-1_
  6
CONTINUOUS
 62
  152
 10
22.090845418450158
 20
75.313071828900206
 40
0.5721789663386137
 50
106.22910367774887
 51
160.88187968590617
  0
ARC
  8
_0-1_
  6
CONTINUOUS
 62
  152
 10
22.31470782753388
 20
75.313071828900206
 40
0.5721789663386137
 50
19.118120314093819
 51
73.770896322251133
  0
LINE
  8
_0-0_
  6
CONTINUOUS
 62
    7
 10
6.5109431425022422
 20
54.24034123220963
 11
24.510943142502242
 21
54.24034123220963
  0
LINE
  8
_0-0_
  6
CONTINUOUS
 62
    7
 10
25.510943142502242
 20
53.24034123220963
 11
25.510943142502242
 21
51.24034123220963
  0
LINE
  8
_0-0_
  6
CONTINUOUS
 62
    7
 10
25.510943142502242
 20
51.24034123220963
 11
5.5109431425022422
 21
51.24034123220963
  0
LINE
  8
_0-0_
  6
CONTINUOUS
 62
    7
 10
5.5109431425022422
 20
51.24034123220963
 11
5.5109431425022422
 21
53.24034123220963
  0
LINE
  8
_0-0_
  6
CONTINUOUS
 62
    7
 10
23.612643482725048
 20
49.740341232127889
 11
20.660943142502219
 21
49.740341232127889
  0
LINE
  8
_0-0_
  6
CONTINUOUS
 62
    7
 10
20.660943142502219
 20
49.740341232127889
 11
20.160943142502219
 21
50.240341232127889
  0
LINE
  8
_0-0_
  6
CONTINUOUS
 62
    7
 10
20.160943142502219
 20
50.240341232127889
 11
20.160943142502219
 21
51.24034123220963
  0
LINE
  8
_0-0_
  6
CONTINUOUS
 62
    7
 10
20.160943142502219
 20
50.240341232127889
 11
23.612643482721182
 21
50.240341232127889
  0
LINE
  8
_0-0_
  6
CONTINUOUS
 62
    7
 10
23.612643482723115
 20
49.740341232127889
 11
23.612643482723115
 21
51.240341232127889
  0
LINE
  8
_0-1_
  6
CENTER1
 62
  152
 10
22.260943142502242
 20
52.783773872941651
 11
22.260943142502242
 21
48.446690329872808
  0
LINE
  8
_0-0_
  6
CONTINUOUS
 62
    7
 10
16.310943142502197
 20
49.240341232209744
 11
9.7109431425022876
 21
49.240341232209744
  0
LINE
  8
_0-0_
  6
CONTINUOUS
 62
    7
 10
9.7109431425296862
 20
49.240341232209744
 11
9.7109431425296862
 21
51.240341232209744
  0
LINE
  8
_0-0_
  6
CONTINUOUS
 62
    7
 10
9.7109431425017192
 20
49.240341232209516
 11
9.9580825485054447
 21
44.524640445327123
  0
LINE
  8
_0-0_
  6
CONTINUOUS
 62
    7
 10
16.310943142498104
 20
49.240341232209744
 11
16.310943142498104
 21
51.24034123220963
  0
LINE
  8
_0-0_
  6
CONTINUOUS
 62
    7
 10
16.310943142502197
 20
49.240341232199967
 11
16.063803736498926
 21
44.524640445327123
  0
LINE
  8
_0-0_
  6
CONTINUOUS
 62
    7
 10
15.764214876072515
 20
44.240341232199967
 11
14.999805908334451
 21
44.240341232199967
  0
LINE
  8
_0-0_
  6
CONTINUOUS
 62
    7
 10
14.864387496218001
 20
44.502684373575221
 11
15.463812762602515
 21
49.240341232199967
  0
LINE
  8
_0-0_
  6
CONTINUOUS
 62
    7
 10
10.558073522401855
 20
49.240341232199967
 11
11.157498788786484
 21
44.502684373575221
  0
LINE
  8
_0-0_
  6
CONTINUOUS
 62
    7
 10
11.021899634021111
 20
44.240341232199967
 11
10.257671408931856
 21
44.240341232199967
  0
LINE
  8
_0-0_
  6
CONTINUOUS
 62
    7
 10
11.455126006961336
 20
44.240341232199967
 11
14.566760278043148
 21
44.240341232199967
  0
ARC
  8
_0-0_
  6
CONTINUOUS
 62
    7
 10
24.510943142502242
 20
53.24034123220963
 40
1
 50
0
 51
90
  0
ARC
  8
_0-0_
  6
CONTINUOUS
 62
    7
 10
6.5109431425022422
 20
53.24034123220963
 40
1
 50
89.999999999996845
 51
180.00000000000003
  0
ARC
  8
_0-0_
  6
CONTINUOUS
 62
    7
 10
11.455126006961336
 20
44.540341232199921
 40
0.2999999999999999
 50
187.21095140006955
 51
270
  0
ARC
  8
_0-0_
  6
CONTINUOUS
 62
    7
 10
14.566760278043148
 20
44.540341232199921
 40
0.2999999999999999
 50
270
 51
352.78904859993241
  0
ARC
  8
_0-0_
  6
CONTINUOUS
 62
    7
 10
10.257671408931856
 20
44.540341232199921
 40
0.2999999999999999
 50
183.00000000000028
 51
270
  0
ARC
  8
_0-0_
  6
CONTINUOUS
 62
    7
 10
15.764214876072515
 20
44.540341232199921
 40
0.2999999999999999
 50
270.00000000000006
 51
356.99999999999989
  0
LINE
  8
_0-1_
  6
CENTER1
 62
  152
 10
13.010943142502242
 20
55.535428177719155
 11
13.010943142502242
 21
43.054861019529426
  0
LINE
  8
_0-0_
  6
CONTINUOUS
 62
    7
 10
50.608453983115282
 20
71.317526292361777
 11
50.608453983115282
 21
91.317526292361777
  0
LINE
  8
_0-0_
  6
CONTINUOUS
 62
    7
 10
50.608453983115282
 20
91.317526292361777
 11
48.608453983115282
 21
91.317526292361777
  0
LINE
  8
_0-0_
  6
CONTINUOUS
 62
    7
 10
47.608453983115282
 20
90.317526292361777
 11
47.608453983115282
 21
72.317526292361777
  0
LINE
  8
_0-0_
  6
CONTINUOUS
 62
    7
 10
48.608453983115282
 20
71.317526292361777
 11
50.608453983115282
 21
71.317526292361777
  0
LINE
  8
_0-0_
  6
CONTINUOUS
 62
    7
 10
52.608453983115396
 20
87.1175262923623
 11
57.32415476999779
 21
86.870386886358517
  0
LINE
  8
_0-0_
  6
CONTINUOUS
 62
    7
 10
57.608453983124946
 20
86.570798025932106
 11
57.608453983124946
 21
85.806569800842851
  0
LINE
  8
_0-0_
  6
CONTINUOUS
 62
    7
 10
57.346110841749692
 20
85.670970646077478
 11
52.608453983124946
 21
86.270395912462106
  0
LINE
  8
_0-0_
  6
CONTINUOUS
 62
    7
 10
52.608453983115169
 20
87.117526292334276
 11
50.608453983115169
 21
87.117526292334276
  0
LINE
  8
_0-0_
  6
CONTINUOUS
 62
    7
 10
52.608453983115169
 20
87.117526292361674
 11
52.608453983115169
 21
80.517526292361765
  0
LINE
  8
_0-0_
  6
CONTINUOUS
 62
    7
 10
52.608453983115169
 20
80.517526292365915
 11
50.608453983115282
 21
80.517526292365915
  0
LINE
  8
_0-0_
  6
CONTINUOUS
 62
    7
 10
57.32415476999779
 20
80.764665698365093
 11
52.608453983124946
 21
80.517526292361765
  0
LINE
  8
_0-0_
  6
CONTINUOUS
 62
    7
 10
52.608453983124946
 20
81.364656672261503
 11
57.346110841749692
 21
81.964081938645961
  0
LINE
  8
_0-0_
  6
CONTINUOUS
 62
    7
 10
57.608453983124946
 20
81.828663526529567
 11
57.608453983124946
 21
81.064254558791447
  0
LINE
  8
_0-0_
  6
CONTINUOUS
 62
    7
 10
57.608453983124946
 20
82.261709156820871
 11
57.608453983124946
 21
85.373343427902626
  0
LINE
  8
_0-1_
  6
CENTER1
 62
  152
 10
58.793934195795487
 20
83.817526292361777
 11
46.313367037605758
 21
83.817526292361777
  0
LINE
  8
_0-0_
  6
CONTINUOUS
 62
    7
 10
50.608453983115282
 20
76.667526292361799
 11
51.608453983197023
 21
76.667526292361799
  0
LINE
  8
_0-0_
  6
CONTINUOUS
 62
    7
 10
51.608453983197023
 20
76.667526292361799
 11
52.108453983197023
 21
76.167526292361799
  0
LINE
  8
_0-0_
  6
CONTINUOUS
 62
    7
 10
52.108453983197023
 20
76.167526292361799
 11
52.108453983197023
 21
73.215825952138971
  0
LINE
  8
_0-0_
  6
CONTINUOUS
 62
    7
 10
52.108453983197023
 20
73.215825952140904
 11
50.608453983197023
 21
73.215825952140904
  0
LINE
  8
_0-0_
  6
CONTINUOUS
 62
    7
 10
50.608453983197023
 20
73.717526292340892
 11
52.108453983197023
 21
73.717526292340892
  0
LINE
  8
_0-0_
  6
CONTINUOUS
 62
    7
 10
52.108453983197023
 20
75.423625696774252
 11
51.608453983197023
 21
76.174668535678109
  0
LINE
  8
_0-0_
  6
CONTINUOUS
 62
    7
 10
51.608453983197023
 20
76.174668535678109
 11
51.608453983197023
 21
76.667526292361799
  0
LINE
  8
_0-0_
  6
CONTINUOUS
 62
    7
 10
51.608453983197023
 20
76.174668535678109
 11
50.608453983115282
 21
76.174668535678109
  0
LINE
  8
_0-1_
  6
CENTER1
 62
  152
 10
49.065021342383261
 20
74.567526292361777
 11
53.402104885452104
 21
74.567526292361777
  0
ARC
  8
_0-0_
  6
CONTINUOUS
 62
    7
 10
48.608453983115282
 20
72.317526292361777
 40
1
 50
180
 51
270
  0
ARC
  8
_0-0_
  6
CONTINUOUS
 62
    7
 10
48.608453983115282
 20
90.317526292361777
 40
1
 50
90
 51
180.00000000000318
  0
ARC
  8
_0-0_
  6
CONTINUOUS
 62
    7
 10
57.308453983124878
 20
85.373343427902626
 40
0.2999999999999999
 50
0
 51
82.789048599930453
  0
ARC
  8
_0-0_
  6
CONTINUOUS
 62
    7
 10
57.308453983124878
 20
82.261709156820871
 40
0.2999999999999999
 50
277.21095140006759
 51
0
  0
ARC
  8
_0-0_
  6
CONTINUOUS
 62
    7
 10
57.308453983124878
 20
86.570798025932106
 40
0.2999999999999999
 50
0
 51
86.999999999999716
  0
ARC
  8
_0-0_
  6
CONTINUOUS
 62
    7
 10
57.308453983124878
 20
81.064254558791447
 40
0.2999999999999999
 50
273.00000000000011
 51
359.99999999999994
  0
ARC
  8
_0-0_
  6
CONTINUOUS
 62
    7
 10
13.010943142502242
 20
83.817526292361833
 40
2.3026499999999999
 50
257.52580999999998
 51
282.47417999999999
  0
ARC
  8
_0-0_
  6
CONTINUOUS
 62
    7
 10
13.010943142502242
 20
83.817526292361833
 40
2.3026499999999999
 50
167.52571999999995
 51
192.47426999999996
  0
ARC
  8
_0-0_
  6
CONTINUOUS
 62
    7
 10
13.010943142502242
 20
83.817526292361833
 40
2.3026499999999999
 50
77.525817000000018
 51
102.47418000000003
  0
ARC
  8
_0-0_
  6
CONTINUOUS
 62
    7
 10
13.010943142502242
 20
83.817526292361833
 40
2.3026499999999999
 50
347.52571999999998
 51
12.474273000000045
  0
ARC
  8
_0-0_
  6
CONTINUOUS
 62
    7
 10
11.77668314250252
 20
82.583286292362061
 40
0.7368479999999999
 50
0
 51
90
  0
ARC
  8
_0-0_
  6
CONTINUOUS
 62
    7
 10
14.24516314250252
 20
82.583286292362061
 40
0.7368479999999999
 50
90
 51
180
  0
ARC
  8
_0-0_
  6
CONTINUOUS
 62
    7
 10
14.24516314250252
 20
85.051716292361959
 40
0.7368479999999999
 50
180
 51
270
  0
ARC
  8
_0-0_
  6
CONTINUOUS
 62
    7
 10
11.77668314250252
 20
85.051716292361959
 40
0.7368479999999999
 50
270
 51
0
  0
LINE
  8
_0-0_
  6
CONTINUOUS
 62
    7
 10
12.513523142502095
 20
81.569226292362089
 11
12.513523142502095
 21
82.583286292362061
  0
LINE
  8
_0-0_
  6
CONTINUOUS
 62
    7
 10
13.508323142502036
 20
82.583286292362061
 11
13.508323142502036
 21
81.569226292362089
  0
LINE
  8
_0-0_
  6
CONTINUOUS
 62
    7
 10
15.259203142502543
 20
83.32012629236209
 11
14.24516314250252
 21
83.32012629236209
  0
LINE
  8
_0-0_
  6
CONTINUOUS
 62
    7
 10
14.24516314250252
 20
84.31487629236193
 11
15.259203142502543
 21
84.31487629236193
  0
LINE
  8
_0-0_
  6
CONTINUOUS
 62
    7
 10
13.508323142502036
 20
86.065826292362033
 11
13.508323142502036
 21
85.051716292361959
  0
LINE
  8
_0-0_
  6
CONTINUOUS
 62
    7
 10
12.513523142502095
 20
85.051716292361959
 11
12.513523142502095
 21
86.065826292362033
  0
LINE
  8
_0-0_
  6
CONTINUOUS
 62
    7
 10
11.77668314250252
 20
84.31487629236193
 11
10.762603142502599
 21
84.31487629236193
  0
LINE
  8
_0-0_
  6
CONTINUOUS
 62
    7
 10
10.762603142502599
 20
83.32012629236209
 11
11.77668314250252
 21
83.32012629236209
  0
ENDSEC
  0
EOF
