  0
SECTION
  2
HEADER
  9
$ACADVER
  1
AC1009
  9
$INSBASE
 10
0
 20
0
 30
0
  9
$EXTMIN
 10
0
 20
0
  9
$EXTMAX
 10
1189
 20
841
  9
$LIMMIN
 10
0
 20
0
  9
$LIMMAX
 10
1189
 20
841
  9
$LTSCALE
 40
1
  0
ENDSEC
  0
SECTION
  2
TABLES
  0
TABLE
  2
LTYPE
 70
     9
  0
LTYPE
  2
CONTINUOUS
 70
    64
  3
実線
 72
    65
 73
     0
 40
0.0
  0
LTYPE
  2
DASHED1
 70
    64
  3
--  --  --  --  --  --  --  --  
 72
    65
 73
     2
 40
2.5
 49
1.25
 49
-1.25
  0
LTYPE
  2
DASHED2
 70
    64
  3
----    ----    ----    ----    
 72
    65
 73
     2
 40
5.0
 49
2.5
 49
-2.5
  0
LTYPE
  2
DASHED3
 70
    64
  3
------  ------  ------  ------  
 72
    65
 73
     2
 40
5.0
 49
3.75
 49
-1.25
  0
LTYPE
  2
CENTER1
 70
    64
  3
----- - ----- - ----- - ----- - 
 72
    65
 73
     4
 40
10.0
 49
6.25
 49
-1.25
 49
1.25
 49
-1.25
  0
LTYPE
  2
CENTER2
 70
    64
  3
----------  --  ----------  --  
 72
    65
 73
     4
 40
20.0
 49
12.5
 49
-2.5
 49
2.5
 49
-2.5
  0
LTYPE
  2
PHANTOM1
 70
    64
  3
--- - - --- - - --- - - --- - - 
 72
    65
 73
     6
 40
10.0
 49
3.25
 49
-1.25
 49
1.25
 49
-1.25
 49
1.25
 49
-1.25
  0
LTYPE
  2
PHANTOM2
 70
    64
  3
--------  -  -  --------  -  -  
 72
    65
 73
     6
 40
20.0
 49
10.0
 49
-2.5
 49
1.25
 49
-2.5
 49
1.25
 49
-2.5
  0
LTYPE
  2
DOT
 70
    64
  3
-   -   -   -   -   -   -   -   
 72
    65
 73
     2
 40
2.5
 49
0.625
 49
-1.875
  0
LTYPE
  2
DUMMY
 70
    64
  3
ダミー
 72
    65
 73
     0
 40
0.0
  0
LTYPE
  2
RAND1
 70
    64
  3
ランダム線1
 72
    65
 73
     4
 40
10.0
 49
1.0
 49
-2.0
 49
3.0
 49
-4.0
  0
LTYPE
  2
RAND2
 70
    64
  3
ランダム線2
 72
    65
 73
     4
 40
14.0
 49
2.0
 49
-3.0
 49
4.0
 49
-5.0
  0
LTYPE
  2
RAND3
 70
    64
  3
ランダム線3
 72
    65
 73
     4
 40
18.0
 49
3.0
 49
-4.0
 49
5.0
 49
-6.0
  0
LTYPE
  2
RAND4
 70
    64
  3
ランダム線4
 72
    65
 73
     4
 40
22.0
 49
4.0
 49
-5.0
 49
6.0
 49
-7.0
  0
LTYPE
  2
RAND5
 70
    64
  3
ランダム線5
 72
    65
 73
     4
 40
26.0
 49
5.0
 49
-6.0
 49
7.0
 49
-8.0
  0
LTYPE
  2
LONG1
 70
    64
  3
----------  --  ----------  --  
 72
    65
 73
     4
 40
40.0
 49
32.5
 49
-2.5
 49
2.5
 49
-2.5
  0
LTYPE
  2
LONG2
 70
    64
  3
--------  -  -  --------  -  -  
 72
    65
 73
     6
 40
40.0
 49
30.0
 49
-2.5
 49
1.25
 49
-2.5
 49
1.25
 49
-2.5
  0
LTYPE
  2
LONG3
 70
    64
  3
+++++++++++++++..+++++++++++++++
 72
    65
 73
     2
 40
40.0
 49
37.5
 49
-2.5
  0
LTYPE
  2
LONG4
 70
    64
  3
+++++++++++++++..+++++++++++++++
 72
    65
 73
     2
 40
80.0
 49
75.0
 49
-5.0
  0
LTYPE
  2
LONG5
 70
    64
  3
----------  --  ----------  --  
 72
    65
 73
     4
 40
60.0
 49
37.5
 49
-7.5
 49
7.5
 49
-7.5
  0
LTYPE
  2
dashed
 70
   64
  3
-------   -------------   ------
 72
   65
 73
    2
 40
7.5
 49
6
 49
-1.5
  0
LTYPE
  2
dashed_spaced
 70
   64
  3
----        --------        ----
 72
   65
 73
    2
 40
12
 49
6
 49
-6
  0
LTYPE
  2
long_dashed_dotted
 70
   64
  3
------------- --- --------------
 72
   65
 73
    4
 40
15.25
 49
12
 49
-1.5
 49
0.25
 49
-1.5
  0
LTYPE
  2
long_dashed_double-dotted
 70
   64
  3
----------- --- --- ------------
 72
   65
 73
    6
 40
17
 49
12
 49
-1.5
 49
0.25
 49
-1.5
 49
0.25
 49
-1.5
  0
LTYPE
  2
long_dashed_triplicate-dotted
 70
   64
  3
--------- --- --- --- ----------
 72
   65
 73
    8
 40
18.75
 49
12
 49
-1.5
 49
0.25
 49
-1.5
 49
0.25
 49
-1.5
 49
0.25
 49
-1.5
  0
LTYPE
  2
dotted
 70
   64
  3
   -       -       -       -    
 72
   65
 73
    2
 40
1.75
 49
0.25
 49
-1.5
  0
LTYPE
  2
chain
 70
   64
  3
-------------- -- --------------
 72
   65
 73
    4
 40
18.5
 49
12
 49
-1.5
 49
3.5
 49
-1.5
  0
LTYPE
  2
chain_double_dash
 70
   64
  3
------------ -- -- -------------
 72
   65
 73
    6
 40
23.5
 49
12
 49
-1.5
 49
3.5
 49
-1.5
 49
3.5
 49
-1.5
  0
LTYPE
  2
dashed_dotted
 70
   64
  3
-----------     -     ----------
 72
   65
 73
    4
 40
9.25
 49
6
 49
-1.5
 49
0.25
 49
-1.5
  0
LTYPE
  2
double-dashed_dotted
 70
   64
  3
------   -----------   -   -----
 72
   65
 73
    6
 40
16.75
 49
6
 49
-1.5
 49
6
 49
-1.5
 49
0.25
 49
-1.5
  0
LTYPE
  2
dashed_double-dotted
 70
   64
  3
---------    -    -    ---------
 72
   65
 73
    6
 40
11
 49
6
 49
-1.5
 49
0.25
 49
-1.5
 49
0.25
 49
-1.5
  0
LTYPE
  2
double-dashed_double-dotted
 70
   64
  3
-----   ---------   -   -   ----
 72
   65
 73
    8
 40
18.5
 49
6
 49
-1.5
 49
6
 49
-1.5
 49
0.25
 49
-1.5
 49
0.25
 49
-1.5
  0
LTYPE
  2
dashed_triplicate-dotted
 70
   64
  3
-------    -    -    -    ------
 72
   65
 73
    8
 40
12.75
 49
6
 49
-1.5
 49
0.25
 49
-1.5
 49
0.25
 49
-1.5
 49
0.25
 49
-1.5
  0
LTYPE
  2
double-dashed_triplicate-dotted
 70
   64
  3
-----  ---------  -  -  -  -----
 72
   65
 73
   10
 40
20.25
 49
6
 49
-1.5
 49
6
 49
-1.5
 49
0.25
 49
-1.5
 49
0.25
 49
-1.5
 49
0.25
 49
-1.5
  0
LTYPE
  2
undefined
 70
   64
  3
--------------------------------
 72
   65
 73
    0
 40
0
  0
ENDTAB
  0
TABLE
  2
STYLE
  5
3
100
AcDbSymbolTable
 70
     1
  0
STYLE
  5
10
100
AcDbSymbolTableRecord
100
AcDbTextStyleTableRecord
  2
STANDARD
 70
     0
 40
0.0
 41
1.0
 50
0.0
 71
     0
 42
0.2
  3
txt
  4
bigfont.shx
  0
STYLE
  5
26
100
AcDbSymbolTableRecord
100
AcDbTextStyleTableRecord
  2
TATEGAKI
 70
    68
 40
0.0
 41
1.0
 50
0.0
 71
     0
 42
1.0
  3
txt
  4
bigfont.shx
  0
ENDTAB
  0
TABLE
  2
LAYER
 70
    3
  0
LAYER
  2
_0-0_
 70
   64
 62
    7
  6
CONTINUOUS
  0
LAYER
  2
_0-1_
 70
   64
 62
    7
  6
CONTINUOUS
  0
LAYER
  2
ADD_LINE
 70
   64
 62
    7
  6
CONTINUOUS
  0
ENDTAB
  0
ENDSEC
  0
SECTION
  2
BLOCKS
  0
ENDSEC
  0
SECTION
  2
ENTITIES
  0
LINE
  8
_0-0_
  6
CONTINUOUS
 62
    7
 10
194.06358683078844
 20
203.9501220622231
 11
194.06358683078844
 21
183.9501220622231
  0
LINE
  8
_0-0_
  6
CONTINUOUS
 62
    7
 10
160.06358683078844
 20
203.9501220622231
 11
194.06358683078844
 21
203.9501220622231
  0
LINE
  8
_0-0_
  6
CONTINUOUS
 62
    7
 10
192.06358683078844
 20
181.9501220622231
 11
162.06358683078844
 21
181.9501220622231
  0
LINE
  8
_0-0_
  6
CONTINUOUS
 62
    7
 10
160.06358683078844
 20
183.9501220622231
 11
160.06358683078844
 21
203.9501220622231
  0
LINE
  8
_0-0_
  6
CONTINUOUS
 62
    7
 10
8.5109046335060157
 20
203.9501220622231
 11
42.510904633506016
 21
203.9501220622231
  0
LINE
  8
_0-0_
  6
CONTINUOUS
 62
    7
 10
42.510904633506016
 20
203.9501220622231
 11
42.510904633506016
 21
183.9501220622231
  0
LINE
  8
_0-0_
  6
CONTINUOUS
 62
    7
 10
8.5109046335060157
 20
203.9501220622231
 11
8.5109046335060157
 21
183.9501220622231
  0
LINE
  8
_0-0_
  6
CONTINUOUS
 62
    7
 10
10.510904633506016
 20
181.9501220622231
 11
40.510904633506016
 21
181.9501220622231
  0
LINE
  8
_0-0_
  6
CONTINUOUS
 62
    7
 10
58.11631252634038
 20
183.9501220622231
 11
58.11631252634038
 21
203.9501220622231
  0
LINE
  8
_0-0_
  6
CONTINUOUS
 62
    7
 10
58.11631252634038
 20
203.9501220622231
 11
92.116312526340437
 21
203.9501220622231
  0
LINE
  8
_0-0_
  6
CONTINUOUS
 62
    7
 10
92.116312526340437
 20
203.9501220622231
 11
92.116312526340437
 21
183.9501220622231
  0
LINE
  8
_0-0_
  6
CONTINUOUS
 62
    7
 10
90.116312526340437
 20
181.9501220622231
 11
60.11631252634038
 21
181.9501220622231
  0
LINE
  8
_0-0_
  6
CONTINUOUS
 62
    7
 10
108.87328572960251
 20
203.9501220622231
 11
108.87328572960251
 21
183.9501220622231
  0
LINE
  8
_0-0_
  6
CONTINUOUS
 62
    7
 10
142.87328572960251
 20
203.9501220622231
 11
142.87328572960251
 21
183.9501220622231
  0
LINE
  8
_0-0_
  6
CONTINUOUS
 62
    7
 10
140.87328572960251
 20
181.9501220622231
 11
110.87328572960251
 21
181.9501220622231
  0
LINE
  8
_0-0_
  6
CONTINUOUS
 62
    7
 10
108.87328572960251
 20
203.9501220622231
 11
142.87328572960251
 21
203.9501220622231
  0
ARC
  8
_0-0_
  6
CONTINUOUS
 62
    7
 10
40.510904633506016
 20
183.9501220622231
 40
2
 50
270
 51
0
  0
ARC
  8
_0-0_
  6
CONTINUOUS
 62
    7
 10
10.510904633506016
 20
183.9501220622231
 40
2
 50
180
 51
270
  0
ARC
  8
_0-0_
  6
CONTINUOUS
 62
    7
 10
90.116312526340437
 20
183.9501220622231
 40
2
 50
270
 51
0
  0
ARC
  8
_0-0_
  6
CONTINUOUS
 62
    7
 10
60.11631252634038
 20
183.9501220622231
 40
2
 50
180
 51
270
  0
ARC
  8
_0-0_
  6
CONTINUOUS
 62
    7
 10
140.87328572960251
 20
183.9501220622231
 40
2
 50
270
 51
0
  0
ARC
  8
_0-0_
  6
CONTINUOUS
 62
    7
 10
110.87328572960251
 20
183.9501220622231
 40
2
 50
180
 51
270
  0
ARC
  8
_0-0_
  6
CONTINUOUS
 62
    7
 10
192.06358683078844
 20
183.9501220622231
 40
2
 50
270
 51
0
  0
ARC
  8
_0-0_
  6
CONTINUOUS
 62
    7
 10
162.06358683078844
 20
183.9501220622231
 40
2
 50
180
 51
270
  0
LINE
  8
_0-0_
  6
CONTINUOUS
 62
    7
 10
90.116312526340437
 20
162.94487741195053
 11
60.11631252634038
 21
162.94487741195053
  0
LINE
  8
_0-0_
  6
CONTINUOUS
 62
    7
 10
58.11631252634038
 20
160.94487741195053
 11
58.11631252634038
 21
130.94487741195053
  0
LINE
  8
_0-0_
  6
CONTINUOUS
 62
    7
 10
60.11631252634038
 20
128.94487741195053
 11
90.116312526340437
 21
128.94487741195053
  0
LINE
  8
_0-0_
  6
CONTINUOUS
 62
    7
 10
92.116312526340437
 20
130.94487741195053
 11
92.116312526340437
 21
160.94487741195053
  0
LINE
  8
_0-0_
  6
CONTINUOUS
 62
    7
 10
142.87328572960251
 20
160.94487741195053
 11
142.87328572960251
 21
130.94487741195053
  0
LINE
  8
_0-0_
  6
CONTINUOUS
 62
    7
 10
140.87328572960251
 20
128.94487741195053
 11
110.87328572960251
 21
128.94487741195053
  0
LINE
  8
_0-0_
  6
CONTINUOUS
 62
    7
 10
108.87328572960251
 20
130.94487741195053
 11
108.87328572960251
 21
160.94487741195053
  0
LINE
  8
_0-0_
  6
CONTINUOUS
 62
    7
 10
110.87328572960251
 20
162.94487741195053
 11
140.87328572960251
 21
162.94487741195053
  0
LINE
  8
_0-0_
  6
CONTINUOUS
 62
    7
 10
40.510904633506016
 20
128.94487741195053
 11
10.510904633506016
 21
128.94487741195053
  0
LINE
  8
_0-0_
  6
CONTINUOUS
 62
    7
 10
8.5109046335060157
 20
130.94487741195053
 11
8.5109046335060157
 21
160.94487741195053
  0
LINE
  8
_0-0_
  6
CONTINUOUS
 62
    7
 10
10.510904633506016
 20
162.94487741195053
 11
40.510904633506016
 21
162.94487741195053
  0
LINE
  8
_0-0_
  6
CONTINUOUS
 62
    7
 10
42.510904633506016
 20
160.94487741195053
 11
42.510904633506016
 21
130.94487741195053
  0
LINE
  8
_0-0_
  6
CONTINUOUS
 62
    7
 10
162.06358683078844
 20
162.94487741195053
 11
192.06358683078844
 21
162.94487741195053
  0
LINE
  8
_0-0_
  6
CONTINUOUS
 62
    7
 10
194.06358683078844
 20
160.94487741195053
 11
194.06358683078844
 21
130.94487741195053
  0
LINE
  8
_0-0_
  6
CONTINUOUS
 62
    7
 10
192.06358683078844
 20
128.94487741195053
 11
162.06358683078844
 21
128.94487741195053
  0
LINE
  8
_0-0_
  6
CONTINUOUS
 62
    7
 10
160.06358683078844
 20
130.94487741195053
 11
160.06358683078844
 21
160.94487741195053
  0
CIRCLE
  8
_0-0_
  6
CONTINUOUS
 62
    7
 10
80.11631252634038
 20
150.94487741195053
 40
6.5
  0
CIRCLE
  8
_0-0_
  6
CONTINUOUS
 62
    7
 10
30.510904633506016
 20
150.94487741195053
 40
8.5
  0
ARC
  8
_0-0_
  6
CONTINUOUS
 62
    7
 10
40.510904633506016
 20
130.94487741195053
 40
2
 50
270
 51
0
  0
ARC
  8
_0-0_
  6
CONTINUOUS
 62
    7
 10
10.510904633506016
 20
130.94487741195053
 40
2
 50
180
 51
270
  0
ARC
  8
_0-0_
  6
CONTINUOUS
 62
    7
 10
40.510904633506016
 20
160.94487741195053
 40
2
 50
0
 51
90
  0
ARC
  8
_0-0_
  6
CONTINUOUS
 62
    7
 10
10.510904633506016
 20
160.94487741195053
 40
2
 50
90
 51
180
  0
ARC
  8
_0-0_
  6
CONTINUOUS
 62
    7
 10
90.116312526340437
 20
130.94487741195053
 40
2
 50
270
 51
0
  0
ARC
  8
_0-0_
  6
CONTINUOUS
 62
    7
 10
60.11631252634038
 20
130.94487741195053
 40
2
 50
180
 51
270
  0
ARC
  8
_0-0_
  6
CONTINUOUS
 62
    7
 10
90.116312526340437
 20
160.94487741195053
 40
2
 50
0
 51
90
  0
ARC
  8
_0-0_
  6
CONTINUOUS
 62
    7
 10
60.11631252634038
 20
160.94487741195053
 40
2
 50
90
 51
180
  0
CIRCLE
  8
_0-0_
  6
CONTINUOUS
 62
    7
 10
134.87328572960251
 20
154.94487741195053
 40
5.25
  0
ARC
  8
_0-0_
  6
CONTINUOUS
 62
    7
 10
140.87328572960251
 20
130.94487741195053
 40
2
 50
270
 51
0
  0
ARC
  8
_0-0_
  6
CONTINUOUS
 62
    7
 10
110.87328572960251
 20
130.94487741195053
 40
2
 50
180
 51
270
  0
ARC
  8
_0-0_
  6
CONTINUOUS
 62
    7
 10
140.87328572960251
 20
160.94487741195053
 40
2
 50
0
 51
90
  0
ARC
  8
_0-0_
  6
CONTINUOUS
 62
    7
 10
110.87328572960251
 20
160.94487741195053
 40
2
 50
90
 51
180
  0
ARC
  8
_0-0_
  6
CONTINUOUS
 62
    7
 10
192.06358683078844
 20
130.94487741195053
 40
2
 50
270
 51
0
  0
ARC
  8
_0-0_
  6
CONTINUOUS
 62
    7
 10
162.06358683078844
 20
130.94487741195053
 40
2
 50
180
 51
270
  0
ARC
  8
_0-0_
  6
CONTINUOUS
 62
    7
 10
192.06358683078844
 20
160.94487741195053
 40
2
 50
0
 51
90
  0
ARC
  8
_0-0_
  6
CONTINUOUS
 62
    7
 10
162.06358683078844
 20
160.94487741195053
 40
2
 50
90
 51
180
  0
LINE
  8
_0-0_
  6
CONTINUOUS
 62
    7
 10
3.5109046335060157
 20
44.837211723000792
 11
3.5109046335060157
 21
4.8372117230007916
  0
LINE
  8
_0-0_
  6
CONTINUOUS
 62
    7
 10
5.5109046335060157
 20
2.8372117230007916
 11
45.510904633506016
 21
2.8372117230007916
  0
LINE
  8
_0-0_
  6
CONTINUOUS
 62
    7
 10
47.510904633506016
 20
4.8372117230007916
 11
47.510904633506016
 21
44.837211723000792
  0
LINE
  8
_0-0_
  6
CONTINUOUS
 62
    7
 10
45.510904633506016
 20
46.837211723000792
 11
5.5109046335060157
 21
46.837211723000792
  0
LINE
  8
_0-0_
  6
CONTINUOUS
 62
    7
 10
228.13900850842043
 20
44.837211723000792
 11
228.13900850842043
 21
4.8372117230007916
  0
LINE
  8
_0-0_
  6
CONTINUOUS
 62
    7
 10
226.13900850842043
 20
2.8372117230007916
 11
186.13900850842043
 21
2.8372117230007916
  0
LINE
  8
_0-0_
  6
CONTINUOUS
 62
    7
 10
184.13900850842043
 20
4.8372117230007916
 11
184.13900850842043
 21
44.837211723000792
  0
LINE
  8
_0-0_
  6
CONTINUOUS
 62
    7
 10
186.13900850842043
 20
46.837211723000792
 11
226.13900850842043
 21
46.837211723000792
  0
LINE
  8
_0-0_
  6
CONTINUOUS
 62
    7
 10
168.88918931718496
 20
44.837211723000792
 11
168.88918931718496
 21
4.8372117230007916
  0
LINE
  8
_0-0_
  6
CONTINUOUS
 62
    7
 10
166.88918931718496
 20
2.8372117230007916
 11
126.88918931718496
 21
2.8372117230007916
  0
LINE
  8
_0-0_
  6
CONTINUOUS
 62
    7
 10
124.88918931718496
 20
4.8372117230007916
 11
124.88918931718473
 21
44.837211723000792
  0
LINE
  8
_0-0_
  6
CONTINUOUS
 62
    7
 10
126.88918931718496
 20
46.837211723000792
 11
166.88918931718496
 21
46.837211723000792
  0
LINE
  8
_0-0_
  6
CONTINUOUS
 62
    7
 10
105.32627710741014
 20
46.837211723000792
 11
65.326277107410078
 21
46.837211723000792
  0
LINE
  8
_0-0_
  6
CONTINUOUS
 62
    7
 10
63.326277107410078
 20
44.837211723000792
 11
63.326277107410078
 21
4.8372117230007916
  0
LINE
  8
_0-0_
  6
CONTINUOUS
 62
    7
 10
65.326277107410078
 20
2.8372117230007916
 11
105.32627710741014
 21
2.8372117230007916
  0
LINE
  8
_0-0_
  6
CONTINUOUS
 62
    7
 10
107.32627710741014
 20
4.8372117230007916
 11
107.32627710741014
 21
44.837211723000792
  0
CIRCLE
  8
_0-0_
  6
CONTINUOUS
 62
    7
 10
85.326277107410135
 20
24.837211723000792
 40
6.5
  0
CIRCLE
  8
_0-0_
  6
CONTINUOUS
 62
    7
 10
25.510904633506016
 20
24.837211723000792
 40
8.5
  0
ARC
  8
_0-0_
  6
CONTINUOUS
 62
    7
 10
5.5109046335060157
 20
4.8372117230007916
 40
2
 50
180
 51
270
  0
ARC
  8
_0-0_
  6
CONTINUOUS
 62
    7
 10
45.510904633506016
 20
4.8372117230007916
 40
2
 50
270
 51
0
  0
ARC
  8
_0-0_
  6
CONTINUOUS
 62
    7
 10
5.5109046335060157
 20
44.837211723000792
 40
2
 50
90
 51
180
  0
ARC
  8
_0-0_
  6
CONTINUOUS
 62
    7
 10
45.510904633506016
 20
44.837211723000792
 40
2
 50
0
 51
90
  0
ARC
  8
_0-0_
  6
CONTINUOUS
 62
    7
 10
65.326277107410078
 20
4.8372117230007916
 40
2
 50
180
 51
270
  0
ARC
  8
_0-0_
  6
CONTINUOUS
 62
    7
 10
105.32627710741014
 20
4.8372117230007916
 40
2
 50
270
 51
0
  0
ARC
  8
_0-0_
  6
CONTINUOUS
 62
    7
 10
65.326277107410078
 20
44.837211723000792
 40
2
 50
90
 51
180
  0
ARC
  8
_0-0_
  6
CONTINUOUS
 62
    7
 10
105.32627710741014
 20
44.837211723000792
 40
2
 50
0
 51
90
  0
CIRCLE
  8
_0-0_
  6
CONTINUOUS
 62
    7
 10
160.88918931718496
 20
38.837211723000792
 40
5.25
  0
ARC
  8
_0-0_
  6
CONTINUOUS
 62
    7
 10
126.88918931718496
 20
4.8372117230007916
 40
2
 50
180
 51
270
  0
ARC
  8
_0-0_
  6
CONTINUOUS
 62
    7
 10
166.88918931718496
 20
4.8372117230007916
 40
2
 50
270
 51
0
  0
ARC
  8
_0-0_
  6
CONTINUOUS
 62
    7
 10
126.88918931718496
 20
44.837211723000792
 40
2
 50
90
 51
180
  0
ARC
  8
_0-0_
  6
CONTINUOUS
 62
    7
 10
166.88918931718496
 20
44.837211723000792
 40
2
 50
0
 51
90
  0
ARC
  8
_0-0_
  6
CONTINUOUS
 62
    7
 10
186.13900850842043
 20
4.8372117230007916
 40
2
 50
180
 51
270
  0
ARC
  8
_0-0_
  6
CONTINUOUS
 62
    7
 10
226.13900850842043
 20
4.8372117230007916
 40
2
 50
270
 51
0
  0
ARC
  8
_0-0_
  6
CONTINUOUS
 62
    7
 10
186.13900850842043
 20
44.837211723000792
 40
2
 50
90
 51
180
  0
ARC
  8
_0-0_
  6
CONTINUOUS
 62
    7
 10
226.13900850842043
 20
44.837211723000792
 40
2
 50
0
 51
90
  0
LINE
  8
_0-0_
  6
CONTINUOUS
 62
    7
 10
5.5109046335060157
 20
62.261998191922714
 11
45.510904633506016
 21
62.261998191922714
  0
LINE
  8
_0-0_
  6
CONTINUOUS
 62
    7
 10
3.5109046335060157
 20
89.261998191922714
 11
47.510904633506016
 21
89.261998191922714
  0
LINE
  8
_0-0_
  6
CONTINUOUS
 62
    7
 10
47.510904633506016
 20
89.261998191922714
 11
47.510904633506016
 21
64.261998191922714
  0
LINE
  8
_0-0_
  6
CONTINUOUS
 62
    7
 10
63.326277107410078
 20
89.261998191922714
 11
107.32627710741014
 21
89.261998191922714
  0
LINE
  8
_0-0_
  6
CONTINUOUS
 62
    7
 10
107.32627710741014
 20
89.261998191922714
 11
107.32627710741014
 21
64.261998191922714
  0
LINE
  8
_0-0_
  6
CONTINUOUS
 62
    7
 10
63.326277107410078
 20
89.261998191922714
 11
63.326277107410078
 21
64.261998191922714
  0
LINE
  8
_0-0_
  6
CONTINUOUS
 62
    7
 10
65.326277107410078
 20
62.261998191922714
 11
105.32627710741014
 21
62.261998191922714
  0
LINE
  8
_0-0_
  6
CONTINUOUS
 62
    7
 10
124.88918931718496
 20
89.261998191922714
 11
124.88918931718496
 21
64.261998191922714
  0
LINE
  8
_0-0_
  6
CONTINUOUS
 62
    7
 10
168.88918931718496
 20
89.261998191922714
 11
124.88918931718496
 21
89.261998191922714
  0
LINE
  8
_0-0_
  6
CONTINUOUS
 62
    7
 10
126.88918931718496
 20
62.261998191922714
 11
166.88918931718496
 21
62.261998191922714
  0
LINE
  8
_0-0_
  6
CONTINUOUS
 62
    7
 10
168.88918931718496
 20
64.261998191922714
 11
168.88918931718496
 21
89.261998191922714
  0
LINE
  8
_0-0_
  6
CONTINUOUS
 62
    7
 10
184.13900850842043
 20
89.261998191922714
 11
184.13900850842043
 21
64.261998191922714
  0
LINE
  8
_0-0_
  6
CONTINUOUS
 62
    7
 10
228.13900850842043
 20
89.261998191922714
 11
184.13900850842043
 21
89.261998191922714
  0
LINE
  8
_0-0_
  6
CONTINUOUS
 62
    7
 10
186.13900850842043
 20
62.261998191922714
 11
226.13900850842043
 21
62.261998191922714
  0
LINE
  8
_0-0_
  6
CONTINUOUS
 62
    7
 10
228.13900850842043
 20
64.261998191922714
 11
228.13900850842043
 21
89.261998191922714
  0
LINE
  8
_0-0_
  6
CONTINUOUS
 62
    7
 10
3.5109046335060157
 20
89.261998191922714
 11
3.5109046335060157
 21
64.261998191922714
  0
ARC
  8
_0-0_
  6
CONTINUOUS
 62
    7
 10
126.88918931718496
 20
64.261998191922714
 40
2
 50
180
 51
270
  0
ARC
  8
_0-0_
  6
CONTINUOUS
 62
    7
 10
166.88918931718496
 20
64.261998191922714
 40
2
 50
270
 51
0
  0
ARC
  8
_0-0_
  6
CONTINUOUS
 62
    7
 10
5.5109046335060157
 20
64.261998191922714
 40
2
 50
180
 51
270
  0
ARC
  8
_0-0_
  6
CONTINUOUS
 62
    7
 10
45.510904633506016
 20
64.261998191922714
 40
2
 50
270
 51
0
  0
ARC
  8
_0-0_
  6
CONTINUOUS
 62
    7
 10
65.326277107410078
 20
64.261998191922714
 40
2
 50
180
 51
270
  0
ARC
  8
_0-0_
  6
CONTINUOUS
 62
    7
 10
105.32627710741014
 20
64.261998191922714
 40
2
 50
270
 51
0
  0
ARC
  8
_0-0_
  6
CONTINUOUS
 62
    7
 10
186.13900850842043
 20
64.261998191922714
 40
2
 50
180
 51
270
  0
ARC
  8
_0-0_
  6
CONTINUOUS
 62
    7
 10
226.13900850842043
 20
64.261998191922714
 40
2
 50
270
 51
0
  0
LINE
  8
_0-1_
  6
DASHED2
 62
  152
 10
191.56358683078844
 20
183.9501220622231
 11
162.56358683078844
 21
183.9501220622231
  0
LINE
  8
_0-1_
  6
DASHED2
 62
  152
 10
162.06358683078844
 20
184.4501220622231
 11
162.06358683078844
 21
203.9501220622231
  0
LINE
  8
_0-1_
  6
DASHED2
 62
  152
 10
192.06358683078844
 20
203.9501220622231
 11
192.06358683078844
 21
184.4501220622231
  0
LINE
  8
_0-1_
  6
CENTER1
 62
  152
 10
177.06358683078844
 20
203.9501220622231
 11
177.06358683078844
 21
181.9501220622231
  0
LINE
  8
_0-1_
  6
DASHED2
 62
  152
 10
40.010904633506016
 20
183.9501220622231
 11
11.010904633506016
 21
183.9501220622231
  0
LINE
  8
_0-1_
  6
DASHED2
 62
  152
 10
10.510904633506016
 20
184.4501220622231
 11
10.510904633506016
 21
203.9501220622231
  0
LINE
  8
_0-1_
  6
DASHED2
 62
  152
 10
40.510904633506016
 20
184.4501220622231
 11
40.510904633506016
 21
203.9501220622231
  0
LINE
  8
_0-1_
  6
CENTER1
 62
  152
 10
25.510904633506016
 20
203.9501220622231
 11
25.510904633506016
 21
181.9501220622231
  0
LINE
  8
_0-1_
  6
DASHED2
 62
  152
 10
89.616312526340437
 20
183.9501220622231
 11
60.61631252634038
 21
183.9501220622231
  0
LINE
  8
_0-1_
  6
DASHED2
 62
  152
 10
60.11631252634038
 20
184.4501220622231
 11
60.11631252634038
 21
203.9501220622231
  0
LINE
  8
_0-1_
  6
CENTER1
 62
  152
 10
75.11631252634038
 20
203.9501220622231
 11
75.11631252634038
 21
181.9501220622231
  0
LINE
  8
_0-1_
  6
DASHED2
 62
  152
 10
90.116312526340437
 20
184.4501220622231
 11
90.116312526340437
 21
203.9501220622231
  0
LINE
  8
_0-1_
  6
DASHED2
 62
  152
 10
111.37328572960251
 20
183.9501220622231
 11
140.37328572960251
 21
183.9501220622231
  0
LINE
  8
_0-1_
  6
DASHED2
 62
  152
 10
140.87328572960251
 20
184.4501220622231
 11
140.87328572960251
 21
203.9501220622231
  0
LINE
  8
_0-1_
  6
DASHED2
 62
  152
 10
110.87328572960251
 20
184.4501220622231
 11
110.87328572960251
 21
203.9501220622231
  0
LINE
  8
_0-1_
  6
CENTER1
 62
  152
 10
125.87328572960251
 20
203.9501220622231
 11
125.87328572960251
 21
181.9501220622231
  0
ARC
  8
_0-1_
  6
DASHED2
 62
  152
 10
40.010904633506016
 20
184.4501220622231
 40
0.5
 50
270
 51
0
  0
ARC
  8
_0-1_
  6
DASHED2
 62
  152
 10
11.010904633506016
 20
184.4501220622231
 40
0.5
 50
180
 51
270
  0
ARC
  8
_0-1_
  6
DASHED2
 62
  152
 10
89.616312526340437
 20
184.4501220622231
 40
0.5
 50
270
 51
0
  0
ARC
  8
_0-1_
  6
DASHED2
 62
  152
 10
60.61631252634038
 20
184.4501220622231
 40
0.5
 50
180
 51
270
  0
ARC
  8
_0-1_
  6
DASHED2
 62
  152
 10
140.37328572960251
 20
184.4501220622231
 40
0.5
 50
270
 51
0
  0
ARC
  8
_0-1_
  6
DASHED2
 62
  152
 10
111.37328572960251
 20
184.4501220622231
 40
0.5
 50
180
 51
270
  0
ARC
  8
_0-1_
  6
DASHED2
 62
  152
 10
191.56358683078844
 20
184.4501220622231
 40
0.5
 50
270
 51
0
  0
ARC
  8
_0-1_
  6
DASHED2
 62
  152
 10
162.56358683078844
 20
184.4501220622231
 40
0.5
 50
180
 51
270
  0
LINE
  8
_0-1_
  6
CENTER1
 62
  152
 10
80.11631252634038
 20
160.44487741195053
 11
80.11631252634038
 21
141.33899906811394
  0
LINE
  8
_0-1_
  6
CENTER1
 62
  152
 10
92.116312526340437
 20
145.94487741195053
 11
58.11631252634038
 21
145.94487741195053
  0
LINE
  8
_0-1_
  6
CENTER1
 62
  152
 10
42.510904633506016
 20
145.94487741195053
 11
8.5109046335060157
 21
145.94487741195053
  0
LINE
  8
_0-1_
  6
CENTER1
 62
  152
 10
125.87328572960251
 20
128.94487741195053
 11
125.87328572960251
 21
162.94487741195053
  0
LINE
  8
_0-1_
  6
CENTER1
 62
  152
 10
127.18856303978015
 20
154.94487741195053
 11
142.79239215635727
 21
154.94487741195053
  0
LINE
  8
_0-1_
  6
CENTER1
 62
  152
 10
134.87328572960251
 20
162.08566998249444
 11
134.87328572960251
 21
147.06455647608027
  0
LINE
  8
_0-1_
  6
CENTER1
 62
  152
 10
142.87328572960251
 20
145.94487741195053
 11
108.87328572960251
 21
145.94487741195053
  0
LINE
  8
_0-1_
  6
CENTER1
 62
  152
 10
89.616312526340437
 20
150.94487741195053
 11
70.116870722987414
 21
150.94487741195053
  0
LINE
  8
_0-1_
  6
CENTER1
 62
  152
 10
75.11631252634038
 20
162.94487741195053
 11
75.11631252634038
 21
128.94487741195053
  0
LINE
  8
_0-1_
  6
CENTER1
 62
  152
 10
25.510904633506016
 20
128.94487741195053
 11
25.510904633506016
 21
162.94487741195053
  0
LINE
  8
_0-1_
  6
CENTER1
 62
  152
 10
30.510904633506016
 20
160.44487741195053
 11
30.510904633506016
 21
141.33899906811394
  0
LINE
  8
_0-1_
  6
CENTER1
 62
  152
 10
40.010904633506016
 20
150.94487741195053
 11
20.511462830153278
 21
150.94487741195053
  0
LINE
  8
_0-1_
  6
CENTER1
 62
  152
 10
160.06358683078844
 20
145.94487741195053
 11
194.06358683078844
 21
145.94487741195053
  0
LINE
  8
_0-1_
  6
CENTER1
 62
  152
 10
177.06358683078844
 20
128.94487741195053
 11
177.06358683078844
 21
162.94487741195053
  0
LINE
  8
_0-1_
  6
DASHED2
 62
  152
 10
40.010904633506016
 20
130.94487741195053
 11
11.010904633506016
 21
130.94487741195053
  0
LINE
  8
_0-1_
  6
DASHED2
 62
  152
 10
10.510904633506016
 20
131.44487741195053
 11
10.510904633506016
 21
160.44487741195053
  0
LINE
  8
_0-1_
  6
DASHED2
 62
  152
 10
11.010904633506016
 20
160.94487741195053
 11
40.010904633506016
 21
160.94487741195053
  0
LINE
  8
_0-1_
  6
DASHED2
 62
  152
 10
40.510904633506016
 20
160.44487741195053
 11
40.510904633506016
 21
131.44487741195053
  0
ARC
  8
_0-1_
  6
DASHED2
 62
  152
 10
40.010904633506016
 20
160.44487741195053
 40
0.5
 50
0
 51
90
  0
ARC
  8
_0-1_
  6
DASHED2
 62
  152
 10
11.010904633506016
 20
160.44487741195053
 40
0.5
 50
90
 51
180
  0
ARC
  8
_0-1_
  6
DASHED2
 62
  152
 10
11.010904633506016
 20
131.44487741195053
 40
0.5
 50
180
 51
270
  0
ARC
  8
_0-1_
  6
DASHED2
 62
  152
 10
40.010904633506016
 20
131.44487741195053
 40
0.5
 50
270
 51
0
  0
LINE
  8
_0-1_
  6
DASHED2
 62
  152
 10
90.116312526340437
 20
160.44487741195053
 11
90.116312526340437
 21
131.44487741195053
  0
LINE
  8
_0-1_
  6
DASHED2
 62
  152
 10
89.616312526340437
 20
130.94487741195053
 11
60.61631252634038
 21
130.94487741195053
  0
LINE
  8
_0-1_
  6
DASHED2
 62
  152
 10
60.11631252634038
 20
131.44487741195053
 11
60.11631252634038
 21
160.44487741195053
  0
LINE
  8
_0-1_
  6
DASHED2
 62
  152
 10
140.87328572960251
 20
131.44487741195053
 11
140.87328572960251
 21
160.44487741195053
  0
LINE
  8
_0-1_
  6
DASHED2
 62
  152
 10
140.37328572960251
 20
160.94487741195053
 11
111.37328572960251
 21
160.94487741195053
  0
LINE
  8
_0-1_
  6
DASHED2
 62
  152
 10
110.87328572960251
 20
160.44487741195053
 11
110.87328572960251
 21
131.44487741195053
  0
LINE
  8
_0-1_
  6
DASHED2
 62
  152
 10
111.37328572960251
 20
130.94487741195053
 11
140.37328572960251
 21
130.94487741195053
  0
LINE
  8
_0-1_
  6
DASHED2
 62
  152
 10
191.56358683078844
 20
160.94487741195053
 11
162.56358683078844
 21
160.94487741195053
  0
LINE
  8
_0-1_
  6
DASHED2
 62
  152
 10
162.06358683078844
 20
160.44487741195053
 11
162.06358683078844
 21
131.44487741195053
  0
LINE
  8
_0-1_
  6
DASHED2
 62
  152
 10
162.56358683078844
 20
130.94487741195053
 11
191.56358683078844
 21
130.94487741195053
  0
LINE
  8
_0-1_
  6
DASHED2
 62
  152
 10
192.06358683078844
 20
131.44487741195053
 11
192.06358683078844
 21
160.44487741195053
  0
ARC
  8
_0-1_
  6
DASHED2
 62
  152
 10
89.616312526340437
 20
131.44487741195053
 40
0.5
 50
270
 51
0
  0
ARC
  8
_0-1_
  6
DASHED2
 62
  152
 10
60.61631252634038
 20
131.44487741195053
 40
0.5
 50
180
 51
270
  0
ARC
  8
_0-1_
  6
DASHED2
 62
  152
 10
89.616312526340437
 20
160.44487741195053
 40
0.5
 50
0
 51
90
  0
ARC
  8
_0-1_
  6
DASHED2
 62
  152
 10
60.61631252634038
 20
160.44487741195053
 40
0.5
 50
90
 51
180
  0
ARC
  8
_0-1_
  6
DASHED2
 62
  152
 10
140.37328572960251
 20
131.44487741195053
 40
0.5
 50
270
 51
0
  0
ARC
  8
_0-1_
  6
DASHED2
 62
  152
 10
111.37328572960251
 20
131.44487741195053
 40
0.5
 50
180
 51
270
  0
ARC
  8
_0-1_
  6
DASHED2
 62
  152
 10
140.37328572960251
 20
160.44487741195053
 40
0.5
 50
0
 51
90
  0
ARC
  8
_0-1_
  6
DASHED2
 62
  152
 10
111.37328572960251
 20
160.44487741195053
 40
0.5
 50
90
 51
180
  0
ARC
  8
_0-1_
  6
DASHED2
 62
  152
 10
191.56358683078844
 20
131.44487741195053
 40
0.5
 50
270
 51
0
  0
ARC
  8
_0-1_
  6
DASHED2
 62
  152
 10
162.56358683078844
 20
131.44487741195053
 40
0.5
 50
180
 51
270
  0
ARC
  8
_0-1_
  6
DASHED2
 62
  152
 10
191.56358683078844
 20
160.44487741195053
 40
0.5
 50
0
 51
90
  0
ARC
  8
_0-1_
  6
DASHED2
 62
  152
 10
162.56358683078844
 20
160.44487741195053
 40
0.5
 50
90
 51
180
  0
LINE
  8
_0-1_
  6
DASHED2
 62
  152
 10
60.61631252634038
 20
160.94487741195053
 11
89.616312526340437
 21
160.94487741195053
  0
TEXT
  8
_0-1_
 62
    7
 10
11.147115998376876
 20
165.77890985546554
 40
5
 41
1
 50
0
  1
EC30-H16
  0
TEXT
  8
_0-1_
 62
    7
 10
60.75252389121124
 20
165.77890985546554
 40
5
 41
1
 50
0
  1
EC30-H12
  0
TEXT
  8
_0-1_
 62
    7
 10
111.50949709447326
 20
165.77890985546554
 40
5
 41
1
 50
0
  1
EC30-H10
  0
TEXT
  8
_0-1_
 62
    7
 10
162.69979819565918
 20
165.77890985546554
 40
5
 41
1
 50
0
  1
EC30
  0
LINE
  8
_0-1_
  6
CENTER1
 62
  152
 10
228.13900850842043
 20
24.837211723000792
 11
184.13900850842043
 21
24.837211723000792
  0
LINE
  8
_0-1_
  6
CENTER1
 62
  152
 10
168.88918931718496
 20
24.837211723000792
 11
124.88918931718496
 21
24.837211723000792
  0
LINE
  8
_0-1_
  6
CENTER1
 62
  152
 10
107.32627710741014
 20
24.837211723000792
 11
63.326277107410078
 21
24.837211723000792
  0
LINE
  8
_0-1_
  6
CENTER1
 62
  152
 10
47.510904633506016
 20
24.837211723000792
 11
3.5109046335060157
 21
24.837211723000792
  0
LINE
  8
_0-1_
  6
CENTER1
 62
  152
 10
25.510904633506016
 20
46.837211723000792
 11
25.510904633506016
 21
1.4751183361388485
  0
LINE
  8
_0-1_
  6
CENTER1
 62
  152
 10
206.13900850842043
 20
46.837211723000792
 11
206.13900850842043
 21
2.8372117230007916
  0
LINE
  8
_0-1_
  6
CENTER1
 62
  152
 10
146.88918931718496
 20
2.8372117230007916
 11
146.88918931718496
 21
46.837211723000792
  0
LINE
  8
_0-1_
  6
CENTER1
 62
  152
 10
153.20446662736236
 20
38.837211723000792
 11
168.80829574393948
 21
38.837211723000792
  0
LINE
  8
_0-1_
  6
CENTER1
 62
  152
 10
160.88918931718496
 20
45.9780042935447
 11
160.88918931718496
 21
30.956890787130078
  0
LINE
  8
_0-1_
  6
CENTER1
 62
  152
 10
85.326277107410135
 20
1.4751183361388485
 11
85.326277107410135
 21
46.837211723000792
  0
LINE
  8
_0-1_
  6
DASHED2
 62
  152
 10
6.0109046335060157
 20
44.837211723000792
 11
45.010904633506016
 21
44.837211723000792
  0
LINE
  8
_0-1_
  6
DASHED2
 62
  152
 10
5.5109046335060157
 20
5.3372117230007916
 11
5.5109046335060157
 21
44.337211723000792
  0
LINE
  8
_0-1_
  6
DASHED2
 62
  152
 10
45.010904633506016
 20
4.8372117230007916
 11
6.0109046335060157
 21
4.8372117230007916
  0
LINE
  8
_0-1_
  6
DASHED2
 62
  152
 10
45.510904633506016
 20
44.337211723000792
 11
45.510904633506016
 21
5.3372117230007916
  0
LINE
  8
_0-1_
  6
DASHED2
 62
  152
 10
65.326277107410078
 20
44.337211723000792
 11
65.326277107410078
 21
5.3372117230007916
  0
LINE
  8
_0-1_
  6
DASHED2
 62
  152
 10
104.82627710741014
 20
44.837211723000792
 11
65.826277107410078
 21
44.837211723000792
  0
LINE
  8
_0-1_
  6
DASHED2
 62
  152
 10
105.32627710741014
 20
5.3372117230007916
 11
105.32627710741014
 21
44.337211723000792
  0
LINE
  8
_0-1_
  6
DASHED2
 62
  152
 10
65.826277107410078
 20
4.8372117230007916
 11
104.82627710741014
 21
4.8372117230007916
  0
LINE
  8
_0-1_
  6
DASHED2
 62
  152
 10
127.38918931718496
 20
4.8372117230007916
 11
166.38918931718496
 21
4.8372117230007916
  0
LINE
  8
_0-1_
  6
DASHED2
 62
  152
 10
126.88918931718496
 20
44.337211723000792
 11
126.88918931718496
 21
5.3372117230007916
  0
LINE
  8
_0-1_
  6
DASHED2
 62
  152
 10
166.38918931718496
 20
44.837211723000792
 11
127.38918931718496
 21
44.837211723000792
  0
LINE
  8
_0-1_
  6
DASHED2
 62
  152
 10
166.88918931718496
 20
5.3372117230007916
 11
166.88918931718496
 21
44.337211723000792
  0
ARC
  8
_0-1_
  6
DASHED2
 62
  152
 10
186.63900850842043
 20
5.3372117230007916
 40
0.5
 50
180
 51
270
  0
ARC
  8
_0-1_
  6
DASHED2
 62
  152
 10
225.63900850842043
 20
5.3372117230007916
 40
0.5
 50
270
 51
0
  0
ARC
  8
_0-1_
  6
DASHED2
 62
  152
 10
186.63900850842043
 20
44.337211723000792
 40
0.5
 50
90
 51
180
  0
ARC
  8
_0-1_
  6
DASHED2
 62
  152
 10
225.63900850842043
 20
44.337211723000792
 40
0.5
 50
0
 51
90
  0
LINE
  8
_0-1_
  6
DASHED2
 62
  152
 10
186.13900850842043
 20
5.3372117230007916
 11
186.13900850842043
 21
44.337211723000792
  0
LINE
  8
_0-1_
  6
DASHED2
 62
  152
 10
186.63900850842043
 20
44.837211723000792
 11
225.63900850842043
 21
44.837211723000792
  0
LINE
  8
_0-1_
  6
DASHED2
 62
  152
 10
225.63900850842043
 20
4.8372117230007916
 11
186.63900850842043
 21
4.8372117230007916
  0
LINE
  8
_0-1_
  6
DASHED2
 62
  152
 10
226.13900850842043
 20
44.337211723000792
 11
226.13900850842043
 21
5.3372117230007916
  0
ARC
  8
_0-1_
  6
DASHED2
 62
  152
 10
166.38918931718496
 20
44.337211723000792
 40
0.5
 50
0
 51
90
  0
ARC
  8
_0-1_
  6
DASHED2
 62
  152
 10
127.38918931718496
 20
44.337211723000792
 40
0.5
 50
90
 51
180
  0
ARC
  8
_0-1_
  6
DASHED2
 62
  152
 10
127.38918931718496
 20
5.3372117230007916
 40
0.5
 50
180
 51
270
  0
ARC
  8
_0-1_
  6
DASHED2
 62
  152
 10
166.38918931718496
 20
5.3372117230007916
 40
0.5
 50
270
 51
0
  0
ARC
  8
_0-1_
  6
DASHED2
 62
  152
 10
65.826277107410078
 20
44.337211723000792
 40
0.5
 50
90
 51
180
  0
ARC
  8
_0-1_
  6
DASHED2
 62
  152
 10
104.82627710741014
 20
44.337211723000792
 40
0.5
 50
0
 51
90
  0
ARC
  8
_0-1_
  6
DASHED2
 62
  152
 10
65.826277107410078
 20
5.3372117230007916
 40
0.5
 50
180
 51
270
  0
ARC
  8
_0-1_
  6
DASHED2
 62
  152
 10
104.82627710741014
 20
5.3372117230007916
 40
0.5
 50
270
 51
0
  0
ARC
  8
_0-1_
  6
DASHED2
 62
  152
 10
6.0109046335060157
 20
5.3372117230007916
 40
0.5
 50
180
 51
270
  0
ARC
  8
_0-1_
  6
DASHED2
 62
  152
 10
45.010904633506016
 20
5.3372117230007916
 40
0.5
 50
270
 51
0
  0
ARC
  8
_0-1_
  6
DASHED2
 62
  152
 10
6.0109046335060157
 20
44.337211723000792
 40
0.5
 50
90
 51
180
  0
ARC
  8
_0-1_
  6
DASHED2
 62
  152
 10
45.010904633506016
 20
44.337211723000792
 40
0.5
 50
0
 51
90
  0
TEXT
  8
_0-1_
 62
    7
 10
6.1471159983768757
 20
49.671244166515748
 40
5
 41
1
 50
0
  1
EC40-H16
  0
TEXT
  8
_0-1_
 62
    7
 10
65.962488472280938
 20
49.671244166515748
 40
5
 41
1
 50
0
  1
EC40-H12
  0
TEXT
  8
_0-1_
 62
    7
 10
127.5254006820557
 20
49.671244166515748
 40
5
 41
1
 50
0
  1
EC40-H10
  0
TEXT
  8
_0-1_
 62
    7
 10
186.77521987329118
 20
49.671244166515748
 40
5
 41
1
 50
0
  1
EC40
  0
LINE
  8
_0-1_
  6
CENTER1
 62
  152
 10
25.510904633506016
 20
89.261998191922714
 11
25.510904633506016
 21
62.261998191922714
  0
LINE
  8
_0-1_
  6
DASHED2
 62
  152
 10
45.010904633506016
 20
64.261998191922714
 11
6.0109046335060157
 21
64.261998191922714
  0
LINE
  8
_0-1_
  6
DASHED2
 62
  152
 10
5.5109046335060157
 20
64.761998191922714
 11
5.5109046335060157
 21
89.261998191922714
  0
LINE
  8
_0-1_
  6
DASHED2
 62
  152
 10
45.510904633506016
 20
64.761998191922714
 11
45.510904633506016
 21
89.261998191922714
  0
LINE
  8
_0-1_
  6
DASHED2
 62
  152
 10
104.82627710741014
 20
64.261998191922714
 11
65.826277107410078
 21
64.261998191922714
  0
LINE
  8
_0-1_
  6
DASHED2
 62
  152
 10
65.326277107410078
 20
64.761998191922714
 11
65.326277107410078
 21
89.261998191922714
  0
LINE
  8
_0-1_
  6
DASHED2
 62
  152
 10
105.32627710741014
 20
64.761998191922714
 11
105.32627710741014
 21
89.261998191922714
  0
LINE
  8
_0-1_
  6
DASHED2
 62
  152
 10
127.38918931718496
 20
64.261998191922714
 11
166.38918931718496
 21
64.261998191922714
  0
LINE
  8
_0-1_
  6
DASHED2
 62
  152
 10
166.88918931718496
 20
64.761998191922714
 11
166.88918931718496
 21
89.261998191922714
  0
LINE
  8
_0-1_
  6
DASHED2
 62
  152
 10
126.88918931718496
 20
89.261998191922714
 11
126.88918931718496
 21
64.761998191922714
  0
LINE
  8
_0-1_
  6
DASHED2
 62
  152
 10
186.63900850842043
 20
64.261998191922714
 11
225.63900850842043
 21
64.261998191922714
  0
LINE
  8
_0-1_
  6
DASHED2
 62
  152
 10
226.13900850842043
 20
64.761998191922714
 11
226.13900850842043
 21
89.261998191922714
  0
LINE
  8
_0-1_
  6
DASHED2
 62
  152
 10
186.13900850842043
 20
89.261998191922714
 11
186.13900850842043
 21
64.761998191922714
  0
LINE
  8
_0-1_
  6
CENTER1
 62
  152
 10
206.13900850842043
 20
90.500274963067397
 11
206.13900850842043
 21
62.261998191922714
  0
LINE
  8
_0-1_
  6
CENTER1
 62
  152
 10
146.88918931718496
 20
62.261998191922714
 11
146.88918931718496
 21
89.261998191922714
  0
LINE
  8
_0-1_
  6
CENTER1
 62
  152
 10
85.326277107410135
 20
62.261998191922714
 11
85.326277107410135
 21
89.261998191922714
  0
ARC
  8
_0-1_
  6
DASHED2
 62
  152
 10
127.38918931718496
 20
64.761998191922714
 40
0.5
 50
180
 51
270
  0
ARC
  8
_0-1_
  6
DASHED2
 62
  152
 10
166.38918931718496
 20
64.761998191922714
 40
0.5
 50
270
 51
0
  0
ARC
  8
_0-1_
  6
DASHED2
 62
  152
 10
6.0109046335060157
 20
64.761998191922714
 40
0.5
 50
180
 51
270
  0
ARC
  8
_0-1_
  6
DASHED2
 62
  152
 10
45.010904633506016
 20
64.761998191922714
 40
0.5
 50
270
 51
0
  0
ARC
  8
_0-1_
  6
DASHED2
 62
  152
 10
65.826277107410078
 20
64.761998191922714
 40
0.5
 50
180
 51
270
  0
ARC
  8
_0-1_
  6
DASHED2
 62
  152
 10
104.82627710741014
 20
64.761998191922714
 40
0.5
 50
270
 51
0
  0
ARC
  8
_0-1_
  6
DASHED2
 62
  152
 10
186.63900850842043
 20
64.761998191922714
 40
0.5
 50
180
 51
270
  0
ARC
  8
_0-1_
  6
DASHED2
 62
  152
 10
225.63900850842043
 20
64.761998191922714
 40
0.5
 50
270
 51
0
  0
ENDSEC
  0
EOF
