  0
SECTION
  2
HEADER
  9
$ACADVER
  1
AC1009
  9
$INSBASE
 10
0
 20
0
 30
0
  9
$EXTMIN
 10
0
 20
0
  9
$EXTMAX
 10
1189
 20
841
  9
$LIMMIN
 10
0
 20
0
  9
$LIMMAX
 10
1189
 20
841
  9
$LTSCALE
 40
1
  0
ENDSEC
  0
SECTION
  2
TABLES
  0
TABLE
  2
LTYPE
 70
     9
  0
LTYPE
  2
CONTINUOUS
 70
    64
  3
実線
 72
    65
 73
     0
 40
0.0
  0
LTYPE
  2
DASHED1
 70
    64
  3
--  --  --  --  --  --  --  --  
 72
    65
 73
     2
 40
2.5
 49
1.25
 49
-1.25
  0
LTYPE
  2
DASHED2
 70
    64
  3
----    ----    ----    ----    
 72
    65
 73
     2
 40
5.0
 49
2.5
 49
-2.5
  0
LTYPE
  2
DASHED3
 70
    64
  3
------  ------  ------  ------  
 72
    65
 73
     2
 40
5.0
 49
3.75
 49
-1.25
  0
LTYPE
  2
CENTER1
 70
    64
  3
----- - ----- - ----- - ----- - 
 72
    65
 73
     4
 40
10.0
 49
6.25
 49
-1.25
 49
1.25
 49
-1.25
  0
LTYPE
  2
CENTER2
 70
    64
  3
----------  --  ----------  --  
 72
    65
 73
     4
 40
20.0
 49
12.5
 49
-2.5
 49
2.5
 49
-2.5
  0
LTYPE
  2
PHANTOM1
 70
    64
  3
--- - - --- - - --- - - --- - - 
 72
    65
 73
     6
 40
10.0
 49
3.25
 49
-1.25
 49
1.25
 49
-1.25
 49
1.25
 49
-1.25
  0
LTYPE
  2
PHANTOM2
 70
    64
  3
--------  -  -  --------  -  -  
 72
    65
 73
     6
 40
20.0
 49
10.0
 49
-2.5
 49
1.25
 49
-2.5
 49
1.25
 49
-2.5
  0
LTYPE
  2
DOT
 70
    64
  3
-   -   -   -   -   -   -   -   
 72
    65
 73
     2
 40
2.5
 49
0.625
 49
-1.875
  0
LTYPE
  2
DUMMY
 70
    64
  3
ダミー
 72
    65
 73
     0
 40
0.0
  0
LTYPE
  2
RAND1
 70
    64
  3
ランダム線1
 72
    65
 73
     4
 40
10.0
 49
1.0
 49
-2.0
 49
3.0
 49
-4.0
  0
LTYPE
  2
RAND2
 70
    64
  3
ランダム線2
 72
    65
 73
     4
 40
14.0
 49
2.0
 49
-3.0
 49
4.0
 49
-5.0
  0
LTYPE
  2
RAND3
 70
    64
  3
ランダム線3
 72
    65
 73
     4
 40
18.0
 49
3.0
 49
-4.0
 49
5.0
 49
-6.0
  0
LTYPE
  2
RAND4
 70
    64
  3
ランダム線4
 72
    65
 73
     4
 40
22.0
 49
4.0
 49
-5.0
 49
6.0
 49
-7.0
  0
LTYPE
  2
RAND5
 70
    64
  3
ランダム線5
 72
    65
 73
     4
 40
26.0
 49
5.0
 49
-6.0
 49
7.0
 49
-8.0
  0
LTYPE
  2
LONG1
 70
    64
  3
----------  --  ----------  --  
 72
    65
 73
     4
 40
40.0
 49
32.5
 49
-2.5
 49
2.5
 49
-2.5
  0
LTYPE
  2
LONG2
 70
    64
  3
--------  -  -  --------  -  -  
 72
    65
 73
     6
 40
40.0
 49
30.0
 49
-2.5
 49
1.25
 49
-2.5
 49
1.25
 49
-2.5
  0
LTYPE
  2
LONG3
 70
    64
  3
+++++++++++++++..+++++++++++++++
 72
    65
 73
     2
 40
40.0
 49
37.5
 49
-2.5
  0
LTYPE
  2
LONG4
 70
    64
  3
+++++++++++++++..+++++++++++++++
 72
    65
 73
     2
 40
80.0
 49
75.0
 49
-5.0
  0
LTYPE
  2
LONG5
 70
    64
  3
----------  --  ----------  --  
 72
    65
 73
     4
 40
60.0
 49
37.5
 49
-7.5
 49
7.5
 49
-7.5
  0
LTYPE
  2
dashed
 70
   64
  3
-------   -------------   ------
 72
   65
 73
    2
 40
7.5
 49
6
 49
-1.5
  0
LTYPE
  2
dashed_spaced
 70
   64
  3
----        --------        ----
 72
   65
 73
    2
 40
12
 49
6
 49
-6
  0
LTYPE
  2
long_dashed_dotted
 70
   64
  3
------------- --- --------------
 72
   65
 73
    4
 40
15.25
 49
12
 49
-1.5
 49
0.25
 49
-1.5
  0
LTYPE
  2
long_dashed_double-dotted
 70
   64
  3
----------- --- --- ------------
 72
   65
 73
    6
 40
17
 49
12
 49
-1.5
 49
0.25
 49
-1.5
 49
0.25
 49
-1.5
  0
LTYPE
  2
long_dashed_triplicate-dotted
 70
   64
  3
--------- --- --- --- ----------
 72
   65
 73
    8
 40
18.75
 49
12
 49
-1.5
 49
0.25
 49
-1.5
 49
0.25
 49
-1.5
 49
0.25
 49
-1.5
  0
LTYPE
  2
dotted
 70
   64
  3
   -       -       -       -    
 72
   65
 73
    2
 40
1.75
 49
0.25
 49
-1.5
  0
LTYPE
  2
chain
 70
   64
  3
-------------- -- --------------
 72
   65
 73
    4
 40
18.5
 49
12
 49
-1.5
 49
3.5
 49
-1.5
  0
LTYPE
  2
chain_double_dash
 70
   64
  3
------------ -- -- -------------
 72
   65
 73
    6
 40
23.5
 49
12
 49
-1.5
 49
3.5
 49
-1.5
 49
3.5
 49
-1.5
  0
LTYPE
  2
dashed_dotted
 70
   64
  3
-----------     -     ----------
 72
   65
 73
    4
 40
9.25
 49
6
 49
-1.5
 49
0.25
 49
-1.5
  0
LTYPE
  2
double-dashed_dotted
 70
   64
  3
------   -----------   -   -----
 72
   65
 73
    6
 40
16.75
 49
6
 49
-1.5
 49
6
 49
-1.5
 49
0.25
 49
-1.5
  0
LTYPE
  2
dashed_double-dotted
 70
   64
  3
---------    -    -    ---------
 72
   65
 73
    6
 40
11
 49
6
 49
-1.5
 49
0.25
 49
-1.5
 49
0.25
 49
-1.5
  0
LTYPE
  2
double-dashed_double-dotted
 70
   64
  3
-----   ---------   -   -   ----
 72
   65
 73
    8
 40
18.5
 49
6
 49
-1.5
 49
6
 49
-1.5
 49
0.25
 49
-1.5
 49
0.25
 49
-1.5
  0
LTYPE
  2
dashed_triplicate-dotted
 70
   64
  3
-------    -    -    -    ------
 72
   65
 73
    8
 40
12.75
 49
6
 49
-1.5
 49
0.25
 49
-1.5
 49
0.25
 49
-1.5
 49
0.25
 49
-1.5
  0
LTYPE
  2
double-dashed_triplicate-dotted
 70
   64
  3
-----  ---------  -  -  -  -----
 72
   65
 73
   10
 40
20.25
 49
6
 49
-1.5
 49
6
 49
-1.5
 49
0.25
 49
-1.5
 49
0.25
 49
-1.5
 49
0.25
 49
-1.5
  0
LTYPE
  2
undefined
 70
   64
  3
--------------------------------
 72
   65
 73
    0
 40
0
  0
ENDTAB
  0
TABLE
  2
STYLE
  5
3
100
AcDbSymbolTable
 70
     1
  0
STYLE
  5
10
100
AcDbSymbolTableRecord
100
AcDbTextStyleTableRecord
  2
STANDARD
 70
     0
 40
0.0
 41
1.0
 50
0.0
 71
     0
 42
0.2
  3
txt
  4
bigfont.shx
  0
STYLE
  5
26
100
AcDbSymbolTableRecord
100
AcDbTextStyleTableRecord
  2
TATEGAKI
 70
    68
 40
0.0
 41
1.0
 50
0.0
 71
     0
 42
1.0
  3
txt
  4
bigfont.shx
  0
ENDTAB
  0
TABLE
  2
LAYER
 70
    3
  0
LAYER
  2
_0-0_
 70
   64
 62
    7
  6
CONTINUOUS
  0
LAYER
  2
_0-1_
 70
   64
 62
    7
  6
CONTINUOUS
  0
LAYER
  2
ADD_LINE
 70
   64
 62
    7
  6
CONTINUOUS
  0
ENDTAB
  0
ENDSEC
  0
SECTION
  2
BLOCKS
  0
ENDSEC
  0
SECTION
  2
ENTITIES
  0
LINE
  8
_0-0_
  6
CONTINUOUS
 62
    7
 10
3.7315890685165414
 20
53.493787139098231
 11
28.731589068516541
 21
53.493787139098231
  0
ARC
  8
_0-0_
  6
CONTINUOUS
 62
    7
 10
28.731589068516541
 20
55.493787139098231
 40
2
 50
270
 51
0
  0
ARC
  8
_0-0_
  6
CONTINUOUS
 62
    7
 10
3.7315890685165414
 20
55.493787139098231
 40
2
 50
180
 51
270
  0
LINE
  8
_0-0_
  6
CONTINUOUS
 62
    7
 10
30.731589068516541
 20
3.7744227022330392
 11
30.731589068516541
 21
28.774422702233039
  0
LINE
  8
_0-0_
  6
CONTINUOUS
 62
    7
 10
28.731589068516541
 20
30.774422702233039
 11
3.7315890685165414
 21
30.774422702233039
  0
LINE
  8
_0-0_
  6
CONTINUOUS
 62
    7
 10
1.7315890685165414
 20
28.774422702233039
 11
1.7315890685165414
 21
3.7744227022330392
  0
LINE
  8
_0-0_
  6
CONTINUOUS
 62
    7
 10
3.7315890685165414
 20
1.7744227022330392
 11
28.731589068516541
 21
1.7744227022330392
  0
ARC
  8
_0-0_
  6
CONTINUOUS
 62
    7
 10
28.731589068516541
 20
28.774422702233039
 40
2
 50
0
 51
90
  0
ARC
  8
_0-0_
  6
CONTINUOUS
 62
    7
 10
28.731589068516541
 20
3.7744227022330392
 40
2
 50
270
 51
0
  0
ARC
  8
_0-0_
  6
CONTINUOUS
 62
    7
 10
3.7315890685165414
 20
3.7744227022330392
 40
2
 50
180
 51
270
  0
ARC
  8
_0-0_
  6
CONTINUOUS
 62
    7
 10
3.7315890685165414
 20
28.774422702233039
 40
2
 50
90
 51
180
  0
CIRCLE
  8
_0-0_
  6
CONTINUOUS
 62
    7
 10
16.231589068516541
 20
16.274422702233039
 40
5.25
  0
LINE
  8
_0-0_
  6
CONTINUOUS
 62
    7
 10
85.32333734085779
 20
53.493787139098231
 11
110.32333734085779
 21
53.493787139098231
  0
ARC
  8
_0-0_
  6
CONTINUOUS
 62
    7
 10
110.32333734085779
 20
55.493787139098231
 40
2
 50
270
 51
0
  0
ARC
  8
_0-0_
  6
CONTINUOUS
 62
    7
 10
85.32333734085779
 20
55.493787139098231
 40
2
 50
180
 51
270
  0
LINE
  8
_0-0_
  6
CONTINUOUS
 62
    7
 10
110.32333734085779
 20
1.7744227022330392
 11
85.32333734085779
 21
1.7744227022330392
  0
LINE
  8
_0-0_
  6
CONTINUOUS
 62
    7
 10
83.32333734085779
 20
3.7744227022330392
 11
83.32333734085779
 21
28.774422702233039
  0
LINE
  8
_0-0_
  6
CONTINUOUS
 62
    7
 10
85.32333734085779
 20
30.774422702233039
 11
110.32333734085779
 21
30.774422702233039
  0
LINE
  8
_0-0_
  6
CONTINUOUS
 62
    7
 10
112.32333734085779
 20
28.774422702233039
 11
112.32333734085779
 21
3.7744227022330392
  0
ARC
  8
_0-0_
  6
CONTINUOUS
 62
    7
 10
110.32333734085779
 20
28.774422702233039
 40
2
 50
0
 51
90
  0
ARC
  8
_0-0_
  6
CONTINUOUS
 62
    7
 10
110.32333734085779
 20
3.7744227022330392
 40
2
 50
270
 51
0
  0
ARC
  8
_0-0_
  6
CONTINUOUS
 62
    7
 10
85.32333734085779
 20
3.7744227022330392
 40
2
 50
180
 51
270
  0
ARC
  8
_0-0_
  6
CONTINUOUS
 62
    7
 10
85.32333734085779
 20
28.774422702233039
 40
2
 50
90
 51
180
  0
LINE
  8
_0-1_
  6
DASHED2
 62
  152
 10
4.2315890685165414
 20
55.493787139098231
 11
28.231589068516541
 21
55.493787139098231
  0
LINE
  8
_0-1_
  6
DASHED2
 62
  152
 10
21.481589068516541
 20
53.493787139098231
 11
21.481589068516541
 21
55.493787139098231
  0
LINE
  8
_0-1_
  6
DASHED2
 62
  152
 10
10.981589068516541
 20
55.493787139098231
 11
10.981589068516541
 21
53.493787139098231
  0
ARC
  8
_0-1_
  6
DASHED2
 62
  152
 10
28.231589068516541
 20
55.993787139098231
 40
0.5
 50
270
 51
0
  0
ARC
  8
_0-1_
  6
DASHED2
 62
  152
 10
4.2315890685165414
 20
55.993787139098231
 40
0.5
 50
180
 51
270
  0
LINE
  8
_0-1_
  6
CENTER1
 62
  152
 10
16.231589068516541
 20
1.7744227022330392
 11
16.231589068516541
 21
30.774422702233039
  0
LINE
  8
_0-1_
  6
CENTER1
 62
  152
 10
30.731589068516541
 20
16.274422702233039
 11
1.7315890685165414
 21
16.274422702233039
  0
TEXT
  8
_0-1_
 62
    7
 10
2.4450617984288101
 20
33.939237999179397
 40
4.2999999999999998
 41
0.744186046511628
 50
0
  1
EC25-H10
  0
LINE
  8
_0-1_
  6
DASHED2
 62
  152
 10
85.82333734085779
 20
55.493787139098231
 11
109.82333734085779
 21
55.493787139098231
  0
ARC
  8
_0-1_
  6
DASHED2
 62
  152
 10
109.82333734085779
 20
55.993787139098231
 40
0.5
 50
270
 51
0
  0
ARC
  8
_0-1_
  6
DASHED2
 62
  152
 10
85.82333734085779
 20
55.993787139098231
 40
0.5
 50
180
 51
270
  0
LINE
  8
_0-1_
  6
CENTER1
 62
  152
 10
83.32333734085779
 20
16.274422702233039
 11
112.32333734085779
 21
16.274422702233039
  0
LINE
  8
_0-1_
  6
CENTER1
 62
  152
 10
97.82333734085779
 20
30.774422702233039
 11
97.82333734085779
 21
1.7744227022330392
  0
TEXT
  8
_0-1_
 62
    7
 10
85.481095398735647
 20
34.139868705552828
 40
4.2999999999999998
 41
0.744186046511628
 50
0
  1
EC25
  0
LINE
  8
_0-1_
  6
DASHED2
 62
  152
 10
4.2315890685165414
 20
28.774422702233039
 11
28.231589068516541
 21
28.774422702233039
  0
LINE
  8
_0-1_
  6
DASHED2
 62
  152
 10
3.7315890685165414
 20
4.2744227022330392
 11
3.7315890685165414
 21
28.274422702233039
  0
ARC
  8
_0-1_
  6
DASHED2
 62
  152
 10
4.2315890685165414
 20
28.274422702233039
 40
0.5
 50
90
 51
180
  0
ARC
  8
_0-1_
  6
DASHED2
 62
  152
 10
28.231589068516541
 20
28.274422702233039
 40
0.5
 50
0
 51
90
  0
LINE
  8
_0-1_
  6
DASHED2
 62
  152
 10
28.731589068516541
 20
28.274422702233039
 11
28.731589068516541
 21
4.2744227022330392
  0
LINE
  8
_0-1_
  6
DASHED2
 62
  152
 10
28.231589068516541
 20
3.7744227022330392
 11
4.2315890685165414
 21
3.7744227022330392
  0
ARC
  8
_0-1_
  6
DASHED2
 62
  152
 10
4.2315890685165414
 20
4.2744227022330392
 40
0.5
 50
180
 51
270
  0
ARC
  8
_0-1_
  6
DASHED2
 62
  152
 10
28.231589068516541
 20
4.2744227022330392
 40
0.5
 50
270
 51
0
  0
LINE
  8
_0-1_
  6
DASHED2
 62
  152
 10
85.32333734085779
 20
28.274422702233039
 11
85.32333734085779
 21
4.2744227022330392
  0
ARC
  8
_0-1_
  6
DASHED2
 62
  152
 10
85.82333734085779
 20
28.274422702233039
 40
0.5
 50
90
 51
180
  0
LINE
  8
_0-1_
  6
DASHED2
 62
  152
 10
109.82333734085779
 20
28.774422702233039
 11
85.82333734085779
 21
28.774422702233039
  0
ARC
  8
_0-1_
  6
DASHED2
 62
  152
 10
109.82333734085779
 20
28.274422702233039
 40
0.5
 50
0
 51
90
  0
LINE
  8
_0-1_
  6
DASHED2
 62
  152
 10
110.32333734085779
 20
4.2744227022330392
 11
110.32333734085779
 21
28.274422702233039
  0
LINE
  8
_0-1_
  6
DASHED2
 62
  152
 10
85.82333734085779
 20
3.7744227022330392
 11
109.82333734085779
 21
3.7744227022330392
  0
ARC
  8
_0-1_
  6
DASHED2
 62
  152
 10
85.82333734085779
 20
4.2744227022330392
 40
0.5
 50
180
 51
270
  0
ARC
  8
_0-1_
  6
DASHED2
 62
  152
 10
109.82333734085779
 20
4.2744227022330392
 40
0.5
 50
270
 51
0
  0
LINE
  8
_0-0_
  6
CONTINUOUS
 62
    7
 10
30.731589068516541
 20
75.493787139098231
 11
1.7315890685165414
 21
75.493787139098231
  0
LINE
  8
_0-0_
  6
CONTINUOUS
 62
    7
 10
1.7315890685165414
 20
75.493787139098231
 11
1.7315890685165414
 21
55.493787139098231
  0
LINE
  8
_0-0_
  6
CONTINUOUS
 62
    7
 10
30.731589068516541
 20
55.493787139098231
 11
30.731589068516541
 21
75.493787139098231
  0
LINE
  8
_0-0_
  6
CONTINUOUS
 62
    7
 10
112.32333734085779
 20
55.493787139098231
 11
112.32333734085779
 21
75.493787139098231
  0
LINE
  8
_0-0_
  6
CONTINUOUS
 62
    7
 10
112.32333734085779
 20
75.493787139098231
 11
83.32333734085779
 21
75.493787139098231
  0
LINE
  8
_0-0_
  6
CONTINUOUS
 62
    7
 10
83.32333734085779
 20
75.493787139098231
 11
83.32333734085779
 21
55.493787139098231
  0
LINE
  8
_0-1_
  6
DASHED2
 62
  152
 10
28.731589068516541
 20
55.993787139098231
 11
28.731589068516541
 21
75.493787139098231
  0
LINE
  8
_0-1_
  6
CENTER1
 62
  152
 10
16.231589068516541
 20
75.493787139098231
 11
16.231589068516541
 21
53.493787139098231
  0
LINE
  8
_0-1_
  6
DASHED2
 62
  152
 10
3.7315890685165414
 20
55.993787139098231
 11
3.7315890685165414
 21
75.493787139098231
  0
LINE
  8
_0-1_
  6
CENTER1
 62
  152
 10
97.82333734085779
 20
75.493787139098231
 11
97.82333734085779
 21
53.493787139098231
  0
LINE
  8
_0-1_
  6
DASHED2
 62
  152
 10
110.32333734085779
 20
55.993787139098231
 11
110.32333734085779
 21
75.493787139098231
  0
LINE
  8
_0-1_
  6
DASHED2
 62
  152
 10
85.32333734085779
 20
75.493787139098231
 11
85.32333734085779
 21
55.993787139098231
  0
ENDSEC
  0
EOF
