  0
SECTION
  2
HEADER
  9
$ACADVER
  1
AC1009
  9
$INSBASE
 10
0
 20
0
 30
0
  9
$EXTMIN
 10
0
 20
0
  9
$EXTMAX
 10
1189
 20
841
  9
$LIMMIN
 10
0
 20
0
  9
$LIMMAX
 10
1189
 20
841
  9
$LTSCALE
 40
1
  0
ENDSEC
  0
SECTION
  2
TABLES
  0
TABLE
  2
LTYPE
 70
     9
  0
LTYPE
  2
CONTINUOUS
 70
    64
  3
実線
 72
    65
 73
     0
 40
0.0
  0
LTYPE
  2
DASHED1
 70
    64
  3
--  --  --  --  --  --  --  --  
 72
    65
 73
     2
 40
2.5
 49
1.25
 49
-1.25
  0
LTYPE
  2
DASHED2
 70
    64
  3
----    ----    ----    ----    
 72
    65
 73
     2
 40
5.0
 49
2.5
 49
-2.5
  0
LTYPE
  2
DASHED3
 70
    64
  3
------  ------  ------  ------  
 72
    65
 73
     2
 40
5.0
 49
3.75
 49
-1.25
  0
LTYPE
  2
CENTER1
 70
    64
  3
----- - ----- - ----- - ----- - 
 72
    65
 73
     4
 40
10.0
 49
6.25
 49
-1.25
 49
1.25
 49
-1.25
  0
LTYPE
  2
CENTER2
 70
    64
  3
----------  --  ----------  --  
 72
    65
 73
     4
 40
20.0
 49
12.5
 49
-2.5
 49
2.5
 49
-2.5
  0
LTYPE
  2
PHANTOM1
 70
    64
  3
--- - - --- - - --- - - --- - - 
 72
    65
 73
     6
 40
10.0
 49
3.25
 49
-1.25
 49
1.25
 49
-1.25
 49
1.25
 49
-1.25
  0
LTYPE
  2
PHANTOM2
 70
    64
  3
--------  -  -  --------  -  -  
 72
    65
 73
     6
 40
20.0
 49
10.0
 49
-2.5
 49
1.25
 49
-2.5
 49
1.25
 49
-2.5
  0
LTYPE
  2
DOT
 70
    64
  3
-   -   -   -   -   -   -   -   
 72
    65
 73
     2
 40
2.5
 49
0.625
 49
-1.875
  0
LTYPE
  2
DUMMY
 70
    64
  3
ダミー
 72
    65
 73
     0
 40
0.0
  0
LTYPE
  2
RAND1
 70
    64
  3
ランダム線1
 72
    65
 73
     4
 40
10.0
 49
1.0
 49
-2.0
 49
3.0
 49
-4.0
  0
LTYPE
  2
RAND2
 70
    64
  3
ランダム線2
 72
    65
 73
     4
 40
14.0
 49
2.0
 49
-3.0
 49
4.0
 49
-5.0
  0
LTYPE
  2
RAND3
 70
    64
  3
ランダム線3
 72
    65
 73
     4
 40
18.0
 49
3.0
 49
-4.0
 49
5.0
 49
-6.0
  0
LTYPE
  2
RAND4
 70
    64
  3
ランダム線4
 72
    65
 73
     4
 40
22.0
 49
4.0
 49
-5.0
 49
6.0
 49
-7.0
  0
LTYPE
  2
RAND5
 70
    64
  3
ランダム線5
 72
    65
 73
     4
 40
26.0
 49
5.0
 49
-6.0
 49
7.0
 49
-8.0
  0
LTYPE
  2
LONG1
 70
    64
  3
----------  --  ----------  --  
 72
    65
 73
     4
 40
40.0
 49
32.5
 49
-2.5
 49
2.5
 49
-2.5
  0
LTYPE
  2
LONG2
 70
    64
  3
--------  -  -  --------  -  -  
 72
    65
 73
     6
 40
40.0
 49
30.0
 49
-2.5
 49
1.25
 49
-2.5
 49
1.25
 49
-2.5
  0
LTYPE
  2
LONG3
 70
    64
  3
+++++++++++++++..+++++++++++++++
 72
    65
 73
     2
 40
40.0
 49
37.5
 49
-2.5
  0
LTYPE
  2
LONG4
 70
    64
  3
+++++++++++++++..+++++++++++++++
 72
    65
 73
     2
 40
80.0
 49
75.0
 49
-5.0
  0
LTYPE
  2
LONG5
 70
    64
  3
----------  --  ----------  --  
 72
    65
 73
     4
 40
60.0
 49
37.5
 49
-7.5
 49
7.5
 49
-7.5
  0
LTYPE
  2
dashed
 70
   64
  3
-------   -------------   ------
 72
   65
 73
    2
 40
7.5
 49
6
 49
-1.5
  0
LTYPE
  2
dashed_spaced
 70
   64
  3
----        --------        ----
 72
   65
 73
    2
 40
12
 49
6
 49
-6
  0
LTYPE
  2
long_dashed_dotted
 70
   64
  3
------------- --- --------------
 72
   65
 73
    4
 40
15.25
 49
12
 49
-1.5
 49
0.25
 49
-1.5
  0
LTYPE
  2
long_dashed_double-dotted
 70
   64
  3
----------- --- --- ------------
 72
   65
 73
    6
 40
17
 49
12
 49
-1.5
 49
0.25
 49
-1.5
 49
0.25
 49
-1.5
  0
LTYPE
  2
long_dashed_triplicate-dotted
 70
   64
  3
--------- --- --- --- ----------
 72
   65
 73
    8
 40
18.75
 49
12
 49
-1.5
 49
0.25
 49
-1.5
 49
0.25
 49
-1.5
 49
0.25
 49
-1.5
  0
LTYPE
  2
dotted
 70
   64
  3
   -       -       -       -    
 72
   65
 73
    2
 40
1.75
 49
0.25
 49
-1.5
  0
LTYPE
  2
chain
 70
   64
  3
-------------- -- --------------
 72
   65
 73
    4
 40
18.5
 49
12
 49
-1.5
 49
3.5
 49
-1.5
  0
LTYPE
  2
chain_double_dash
 70
   64
  3
------------ -- -- -------------
 72
   65
 73
    6
 40
23.5
 49
12
 49
-1.5
 49
3.5
 49
-1.5
 49
3.5
 49
-1.5
  0
LTYPE
  2
dashed_dotted
 70
   64
  3
-----------     -     ----------
 72
   65
 73
    4
 40
9.25
 49
6
 49
-1.5
 49
0.25
 49
-1.5
  0
LTYPE
  2
double-dashed_dotted
 70
   64
  3
------   -----------   -   -----
 72
   65
 73
    6
 40
16.75
 49
6
 49
-1.5
 49
6
 49
-1.5
 49
0.25
 49
-1.5
  0
LTYPE
  2
dashed_double-dotted
 70
   64
  3
---------    -    -    ---------
 72
   65
 73
    6
 40
11
 49
6
 49
-1.5
 49
0.25
 49
-1.5
 49
0.25
 49
-1.5
  0
LTYPE
  2
double-dashed_double-dotted
 70
   64
  3
-----   ---------   -   -   ----
 72
   65
 73
    8
 40
18.5
 49
6
 49
-1.5
 49
6
 49
-1.5
 49
0.25
 49
-1.5
 49
0.25
 49
-1.5
  0
LTYPE
  2
dashed_triplicate-dotted
 70
   64
  3
-------    -    -    -    ------
 72
   65
 73
    8
 40
12.75
 49
6
 49
-1.5
 49
0.25
 49
-1.5
 49
0.25
 49
-1.5
 49
0.25
 49
-1.5
  0
LTYPE
  2
double-dashed_triplicate-dotted
 70
   64
  3
-----  ---------  -  -  -  -----
 72
   65
 73
   10
 40
20.25
 49
6
 49
-1.5
 49
6
 49
-1.5
 49
0.25
 49
-1.5
 49
0.25
 49
-1.5
 49
0.25
 49
-1.5
  0
LTYPE
  2
undefined
 70
   64
  3
--------------------------------
 72
   65
 73
    0
 40
0
  0
ENDTAB
  0
TABLE
  2
STYLE
  5
3
100
AcDbSymbolTable
 70
     1
  0
STYLE
  5
10
100
AcDbSymbolTableRecord
100
AcDbTextStyleTableRecord
  2
STANDARD
 70
     0
 40
0.0
 41
1.0
 50
0.0
 71
     0
 42
0.2
  3
txt
  4
bigfont.shx
  0
STYLE
  5
26
100
AcDbSymbolTableRecord
100
AcDbTextStyleTableRecord
  2
TATEGAKI
 70
    68
 40
0.0
 41
1.0
 50
0.0
 71
     0
 42
1.0
  3
txt
  4
bigfont.shx
  0
ENDTAB
  0
TABLE
  2
LAYER
 70
    4
  0
LAYER
  2
_0-0_
 70
   64
 62
    7
  6
CONTINUOUS
  0
LAYER
  2
_0-1_
 70
   64
 62
    7
  6
CONTINUOUS
  0
LAYER
  2
_0-f_
 70
   64
 62
    7
  6
CONTINUOUS
  0
LAYER
  2
ADD_LINE
 70
   64
 62
    7
  6
CONTINUOUS
  0
ENDTAB
  0
ENDSEC
  0
SECTION
  2
BLOCKS
  0
ENDSEC
  0
SECTION
  2
ENTITIES
  0
TEXT
  8
_0-f_
 62
    7
 10
1.0614746154706154
 20
0.9799889864585225
 40
4.2999999999999998
 41
0.744186046511628
 50
0
  1
E66S
  0
LINE
  8
_0-0_
  6
CONTINUOUS
 62
    7
 10
59.356460660330072
 20
16.503199482775472
 11
59.356460660330072
 21
13.303199482775426
  0
LINE
  8
_0-0_
  6
CONTINUOUS
 62
    7
 10
58.956460660329526
 20
12.903199482775563
 11
49.756460660329708
 21
12.903199482775563
  0
LINE
  8
_0-0_
  6
CONTINUOUS
 62
    7
 10
49.356460660330072
 20
13.303199482775426
 11
49.356460660330072
 21
16.503199482775472
  0
LINE
  8
_0-0_
  6
CONTINUOUS
 62
    7
 10
49.756460660329708
 20
16.903199482775563
 11
58.956460660329526
 21
16.903199482775563
  0
LINE
  8
_0-0_
  6
CONTINUOUS
 62
    7
 10
56.288543113985384
 20
15.432949417725922
 11
55.664422338621193
 21
15.432949417725922
  0
LINE
  8
_0-0_
  6
CONTINUOUS
 62
    7
 10
55.667459223112587
 20
14.550156673677975
 11
56.30464650966735
 21
14.550156673677975
  0
LINE
  8
_0-0_
  6
CONTINUOUS
 62
    7
 10
53.994738657490075
 20
14.749742471145964
 11
53.994738657490075
 21
15.159723764722003
  0
LINE
  8
_0-0_
  6
CONTINUOUS
 62
    7
 10
53.994738657490075
 20
15.159723764722003
 11
52.993394247516903
 21
15.159723764722003
  0
LINE
  8
_0-0_
  6
CONTINUOUS
 62
    7
 10
52.993394247516903
 20
15.159723764722003
 11
52.993394247516903
 21
15.727856941448636
  0
LINE
  8
_0-0_
  6
CONTINUOUS
 62
    7
 10
52.993394247516903
 20
15.727856941448636
 11
54.100291894842144
 21
15.727856941448636
  0
LINE
  8
_0-0_
  6
CONTINUOUS
 62
    7
 10
54.100291894842144
 20
15.727856941448636
 11
54.100291894842144
 21
16.16460646555015
  0
LINE
  8
_0-0_
  6
CONTINUOUS
 62
    7
 10
54.100291894842144
 20
16.16460646555015
 11
52.384634144988581
 21
16.16460646555015
  0
LINE
  8
_0-0_
  6
CONTINUOUS
 62
    7
 10
52.384634144988581
 20
16.16460646555015
 11
52.384634144988581
 21
13.714732974430035
  0
LINE
  8
_0-0_
  6
CONTINUOUS
 62
    7
 10
52.384634144988581
 20
13.714732974430035
 11
54.100291894842144
 21
13.714732974430035
  0
LINE
  8
_0-0_
  6
CONTINUOUS
 62
    7
 10
54.100291894842144
 20
13.714732974430035
 11
54.100291894842144
 21
14.151482498566111
  0
LINE
  8
_0-0_
  6
CONTINUOUS
 62
    7
 10
54.100291894842144
 20
14.151482498566111
 11
52.993394247516903
 21
14.151482498566111
  0
LINE
  8
_0-0_
  6
CONTINUOUS
 62
    7
 10
52.993394247516903
 20
14.151482498566111
 11
52.993394247516903
 21
14.749742471145964
  0
LINE
  8
_0-0_
  6
CONTINUOUS
 62
    7
 10
52.993394247516903
 20
14.749742471145964
 11
53.994738657490075
 21
14.749742471145964
  0
LINE
  8
_0-0_
  6
CONTINUOUS
 62
    7
 10
51.91327857757517
 20
14.151482498566111
 11
50.808993880077765
 21
14.151482498566111
  0
LINE
  8
_0-0_
  6
CONTINUOUS
 62
    7
 10
50.808993880077765
 20
14.151482498566111
 11
50.808993880077765
 21
16.16460646555015
  0
LINE
  8
_0-0_
  6
CONTINUOUS
 62
    7
 10
50.808993880077765
 20
16.16460646555015
 11
50.198067245998232
 21
16.16460646555015
  0
LINE
  8
_0-0_
  6
CONTINUOUS
 62
    7
 10
50.198067245998232
 20
16.16460646555015
 11
50.198067245998232
 21
13.714732974430035
  0
LINE
  8
_0-0_
  6
CONTINUOUS
 62
    7
 10
50.198067245998232
 20
13.714732974430035
 11
51.91327857757517
 21
13.714732974430035
  0
LINE
  8
_0-0_
  6
CONTINUOUS
 62
    7
 10
51.91327857757517
 20
13.714732974430035
 11
51.91327857757517
 21
14.151482498566111
  0
LINE
  8
_0-0_
  6
CONTINUOUS
 62
    7
 10
60.856460660330072
 20
9.9031994827755625
 11
3.8564606603300717
 21
9.9031994827755625
  0
LINE
  8
_0-0_
  6
CONTINUOUS
 62
    7
 10
2.3564606603300717
 20
11.403199482775563
 11
2.3564606603300717
 21
68.403199482775563
  0
LINE
  8
_0-0_
  6
CONTINUOUS
 62
    7
 10
3.8564606603300717
 20
69.903199482775563
 11
60.856460660330072
 21
69.903199482775563
  0
LINE
  8
_0-0_
  6
CONTINUOUS
 62
    7
 10
62.356460660330072
 20
68.403199482775563
 11
62.356460660330072
 21
11.403199482775563
  0
LINE
  8
_0-0_
  6
CONTINUOUS
 62
    7
 10
42.796460657945886
 20
52.103199530459278
 11
42.796460657945886
 21
51.22319953522765
  0
LINE
  8
_0-0_
  6
CONTINUOUS
 62
    7
 10
42.796460657945886
 20
52.103199530459278
 11
41.916460662714258
 21
52.103199530459278
  0
LINE
  8
_0-0_
  6
CONTINUOUS
 62
    7
 10
41.916460662714258
 20
52.103199530459278
 11
41.916460662714258
 21
51.22319953522765
  0
LINE
  8
_0-0_
  6
CONTINUOUS
 62
    7
 10
41.036460607877984
 20
50.343199480391377
 11
40.156460612646356
 21
50.343199480391377
  0
LINE
  8
_0-0_
  6
CONTINUOUS
 62
    7
 10
40.156460612646356
 20
50.343199480391377
 11
40.156460612646356
 21
49.463199485159748
  0
LINE
  8
_0-0_
  6
CONTINUOUS
 62
    7
 10
40.156460612646356
 20
49.463199485159748
 11
41.036460607877984
 21
49.463199485159748
  0
LINE
  8
_0-0_
  6
CONTINUOUS
 62
    7
 10
41.916460662714258
 20
48.583199430323475
 11
41.916460662714258
 21
47.703199435091847
  0
LINE
  8
_0-0_
  6
CONTINUOUS
 62
    7
 10
41.916460662714258
 20
47.703199435091847
 11
42.796460657945886
 21
47.703199435091847
  0
LINE
  8
_0-0_
  6
CONTINUOUS
 62
    7
 10
42.796460657945886
 20
47.703199435091847
 11
42.796460657945886
 21
48.583199430323475
  0
LINE
  8
_0-0_
  6
CONTINUOUS
 62
    7
 10
43.676460712782159
 20
49.463199485159748
 11
44.556460708013788
 21
49.463199485159748
  0
LINE
  8
_0-0_
  6
CONTINUOUS
 62
    7
 10
44.556460708013788
 20
49.463199485159748
 11
44.556460708013788
 21
50.343199480391377
  0
LINE
  8
_0-0_
  6
CONTINUOUS
 62
    7
 10
44.556460708013788
 20
50.343199480391377
 11
43.676460712782159
 21
50.343199480391377
  0
LINE
  8
_0-0_
  6
CONTINUOUS
 62
    7
 10
20.156460612646356
 20
30.343199480391377
 11
21.036460607877984
 21
30.343199480391377
  0
LINE
  8
_0-0_
  6
CONTINUOUS
 62
    7
 10
20.156460612646356
 20
30.343199480391377
 11
20.156460612646356
 21
29.463199485159748
  0
LINE
  8
_0-0_
  6
CONTINUOUS
 62
    7
 10
20.156460612646356
 20
29.463199485159748
 11
21.036460607877984
 21
29.463199485159748
  0
LINE
  8
_0-0_
  6
CONTINUOUS
 62
    7
 10
21.916460662714258
 20
28.583199430323475
 11
21.916460662714258
 21
27.703199435091847
  0
LINE
  8
_0-0_
  6
CONTINUOUS
 62
    7
 10
21.916460662714258
 20
27.703199435091847
 11
22.796460657945886
 21
27.703199435091847
  0
LINE
  8
_0-0_
  6
CONTINUOUS
 62
    7
 10
22.796460657945886
 20
27.703199435091847
 11
22.796460657945886
 21
28.583199430323475
  0
LINE
  8
_0-0_
  6
CONTINUOUS
 62
    7
 10
23.676460712782159
 20
29.463199485159748
 11
24.556460708013788
 21
29.463199485159748
  0
LINE
  8
_0-0_
  6
CONTINUOUS
 62
    7
 10
24.556460708013788
 20
29.463199485159748
 11
24.556460708013788
 21
30.343199480391377
  0
LINE
  8
_0-0_
  6
CONTINUOUS
 62
    7
 10
24.556460708013788
 20
30.343199480391377
 11
23.676460712782159
 21
30.343199480391377
  0
LINE
  8
_0-0_
  6
CONTINUOUS
 62
    7
 10
22.796460657945886
 20
31.22319953522765
 11
22.796460657945886
 21
32.103199530459278
  0
LINE
  8
_0-0_
  6
CONTINUOUS
 62
    7
 10
22.796460657945886
 20
32.103199530459278
 11
21.916460662714258
 21
32.103199530459278
  0
LINE
  8
_0-0_
  6
CONTINUOUS
 62
    7
 10
21.916460662714258
 20
32.103199530459278
 11
21.916460662714258
 21
31.22319953522765
  0
ARC
  8
_0-0_
  6
CONTINUOUS
 62
    7
 10
3.8564606603300717
 20
68.403199482775563
 40
1.5
 50
90
 51
180
  0
ARC
  8
_0-0_
  6
CONTINUOUS
 62
    7
 10
60.856460660330072
 20
68.403199482775563
 40
1.5
 50
0
 51
90.000000000000028
  0
ARC
  8
_0-0_
  6
CONTINUOUS
 62
    7
 10
60.856460660330072
 20
11.403199482775563
 40
1.5
 50
270
 51
0
  0
ARC
  8
_0-0_
  6
CONTINUOUS
 62
    7
 10
3.8564606603300717
 20
11.403199482775563
 40
1.5
 50
180
 51
270
  0
ARC
  8
_0-0_
  6
CONTINUOUS
 62
    7
 10
49.756460660329708
 20
16.503199482775472
 40
0.4
 50
89.999999999999986
 51
180
  0
ARC
  8
_0-0_
  6
CONTINUOUS
 62
    7
 10
49.756460660329708
 20
13.303199482775426
 40
0.4
 50
180
 51
270
  0
ARC
  8
_0-0_
  6
CONTINUOUS
 62
    7
 10
58.956460660329526
 20
16.503199482775472
 40
0.4
 50
0
 51
90
  0
ARC
  8
_0-0_
  6
CONTINUOUS
 62
    7
 10
58.956460660329526
 20
13.303199482775426
 40
0.4
 50
270
 51
0
  0
ARC
  8
_0-0_
  6
CONTINUOUS
 62
    7
 10
57.426684054889506
 20
14.939669719989979
 40
2.8787836133968563
 50
164.21600247589294
 51
195.78399752410709
  0
ARC
  8
_0-0_
  6
CONTINUOUS
 62
    7
 10
62.511288772449575
 20
14.939669719984977
 40
7.3112867397731955
 50
176.78919008197266
 51
183.21080991802734
  0
ARC
  8
_0-0_
  6
CONTINUOUS
 62
    7
 10
55.305192631431623
 20
14.381485313358553
 40
0.6866147596063365
 50
199.11812031409383
 51
253.77089632225113
  0
ARC
  8
_0-0_
  6
CONTINUOUS
 62
    7
 10
55.439510076882129
 20
15.004882290073056
 40
1.3234835615556071
 50
255.7307072235771
 51
284.2692927764229
  0
ARC
  8
_0-0_
  6
CONTINUOUS
 62
    7
 10
55.573827522332635
 20
14.381485313358553
 40
0.6866147596063365
 50
286.22910367774887
 51
340.8818796859062
  0
ARC
  8
_0-0_
  6
CONTINUOUS
 62
    7
 10
53.452336098874753
 20
14.939669719989979
 40
2.8787836133968563
 50
344.21600247589294
 51
352.22375855280194
  0
ARC
  8
_0-0_
  6
CONTINUOUS
 62
    7
 10
55.439510076882129
 20
14.300488346705833
 40
0.1990355837046196
 50
198.7809348325886
 51
341.21906516741143
  0
ARC
  8
_0-0_
  6
CONTINUOUS
 62
    7
 10
54.556059764956558
 20
14.530755657053987
 40
1.1115687810639558
 50
344.64474174215434
 51
1.000075600874925
  0
ARC
  8
_0-0_
  6
CONTINUOUS
 62
    7
 10
56.322960388808156
 20
14.530755657053987
 40
1.1115687810639558
 50
179.28077569259483
 51
195.35525825784563
  0
ARC
  8
_0-0_
  6
CONTINUOUS
 62
    7
 10
55.439510076882129
 20
15.578851093274125
 40
0.1990355837046196
 50
18.780934832588589
 51
161.21906516741137
  0
ARC
  8
_0-0_
  6
CONTINUOUS
 62
    7
 10
56.322960388808156
 20
15.348583782926198
 40
1.1115687810639558
 50
164.64474174215434
 51
180.71922430740514
  0
ARC
  8
_0-0_
  6
CONTINUOUS
 62
    7
 10
54.556059764956558
 20
15.348583782926198
 40
1.1115687810639558
 50
4.3528100028009122
 51
15.355258257845675
  0
ARC
  8
_0-0_
  6
CONTINUOUS
 62
    7
 10
55.573827522332635
 20
15.497854126621633
 40
0.6866147596063365
 50
19.118120314093819
 51
73.770896322251133
  0
ARC
  8
_0-0_
  6
CONTINUOUS
 62
    7
 10
53.452336098874753
 20
14.939669719989979
 40
2.8787836133968563
 50
9.8663227198208787
 51
15.783997524107056
  0
ARC
  8
_0-0_
  6
CONTINUOUS
 62
    7
 10
55.439510076882129
 20
14.874457149906902
 40
1.3234835615556071
 50
75.730707223577113
 51
104.2692927764229
  0
ARC
  8
_0-0_
  6
CONTINUOUS
 62
    7
 10
55.305192631431623
 20
15.497854126621633
 40
0.6866147596063365
 50
106.22910367774887
 51
160.88187968590617
  0
ARC
  8
_0-0_
  6
CONTINUOUS
 62
    7
 10
59.573834814924908
 20
14.939669719989979
 40
2.8787836133968563
 50
164.21600247589294
 51
195.78399752410709
  0
ARC
  8
_0-0_
  6
CONTINUOUS
 62
    7
 10
64.658439532484977
 20
14.939669719984977
 40
7.3112867397731955
 50
176.78919008197266
 51
183.21080991802734
  0
ARC
  8
_0-0_
  6
CONTINUOUS
 62
    7
 10
50.514882141350085
 20
14.939669719984977
 40
7.3112867397731955
 50
356.78919008197266
 51
3.2108099180273384
  0
ARC
  8
_0-0_
  6
CONTINUOUS
 62
    7
 10
57.586660836917531
 20
14.300488346705833
 40
0.1990355837046196
 50
198.7809348325886
 51
341.21906516741143
  0
ARC
  8
_0-0_
  6
CONTINUOUS
 62
    7
 10
57.586660836917531
 20
15.004882290073056
 40
1.3234835615556071
 50
255.7307072235771
 51
284.2692927764229
  0
ARC
  8
_0-0_
  6
CONTINUOUS
 62
    7
 10
57.720978282368037
 20
14.381485313358553
 40
0.6866147596063365
 50
286.22910367774887
 51
340.8818796859062
  0
ARC
  8
_0-0_
  6
CONTINUOUS
 62
    7
 10
57.452343391467025
 20
14.381485313358553
 40
0.6866147596063365
 50
199.11812031409383
 51
253.77089632225113
  0
ARC
  8
_0-0_
  6
CONTINUOUS
 62
    7
 10
55.599486858910154
 20
14.939669719989979
 40
2.8787836133968563
 50
344.21600247589294
 51
15.783997524107075
  0
ARC
  8
_0-0_
  6
CONTINUOUS
 62
    7
 10
56.70321052499196
 20
14.530755657053987
 40
1.1115687810639558
 50
344.64474174215434
 51
0.7192243074051015
  0
ARC
  8
_0-0_
  6
CONTINUOUS
 62
    7
 10
58.470111148843557
 20
14.530755657053987
 40
1.1115687810639558
 50
179.28077569259483
 51
195.35525825784563
  0
ARC
  8
_0-0_
  6
CONTINUOUS
 62
    7
 10
58.470111148843557
 20
15.348583782926198
 40
1.1115687810639558
 50
164.64474174215434
 51
180.71922430740514
  0
ARC
  8
_0-0_
  6
CONTINUOUS
 62
    7
 10
57.586660836917531
 20
15.578851093274125
 40
0.1990355837046196
 50
18.780934832588589
 51
161.21906516741137
  0
ARC
  8
_0-0_
  6
CONTINUOUS
 62
    7
 10
56.70321052499196
 20
15.348583782926198
 40
1.1115687810639558
 50
359.28077569259489
 51
15.355258257845644
  0
ARC
  8
_0-0_
  6
CONTINUOUS
 62
    7
 10
57.586660836917531
 20
14.874457149906902
 40
1.3234835615556071
 50
75.730707223577113
 51
104.2692927764229
  0
ARC
  8
_0-0_
  6
CONTINUOUS
 62
    7
 10
57.452343391467025
 20
15.497854126621633
 40
0.6866147596063365
 50
106.22910367774887
 51
160.88187968590617
  0
ARC
  8
_0-0_
  6
CONTINUOUS
 62
    7
 10
57.720978282368037
 20
15.497854126621633
 40
0.6866147596063365
 50
19.118120314093819
 51
73.770896322251133
  0
CIRCLE
  8
_0-0_
  6
CONTINUOUS
 62
    7
 10
22.356460660330072
 20
29.903199482775563
 40
4
  0
ARC
  8
_0-0_
  6
CONTINUOUS
 62
    7
 10
23.676460712782159
 20
31.22319953522765
 40
0.8799999952316283
 50
180
 51
270
  0
ARC
  8
_0-0_
  6
CONTINUOUS
 62
    7
 10
23.676460712782159
 20
28.583199430323475
 40
0.8799999952316283
 50
90
 51
180
  0
ARC
  8
_0-0_
  6
CONTINUOUS
 62
    7
 10
21.036460607877984
 20
28.583199430323475
 40
0.8799999952316283
 50
0
 51
90
  0
ARC
  8
_0-0_
  6
CONTINUOUS
 62
    7
 10
21.036460607877984
 20
31.22319953522765
 40
0.8799999952316283
 50
270
 51
0
  0
CIRCLE
  8
_0-0_
  6
CONTINUOUS
 62
    7
 10
42.356460660330072
 20
49.903199482775563
 40
4
  0
ARC
  8
_0-0_
  6
CONTINUOUS
 62
    7
 10
43.676460712782159
 20
51.22319953522765
 40
0.8799999952316283
 50
180
 51
270
  0
ARC
  8
_0-0_
  6
CONTINUOUS
 62
    7
 10
43.676460712782159
 20
48.583199430323475
 40
0.8799999952316283
 50
90
 51
180
  0
ARC
  8
_0-0_
  6
CONTINUOUS
 62
    7
 10
41.036460607877984
 20
48.583199430323475
 40
0.8799999952316283
 50
0
 51
90
  0
ARC
  8
_0-0_
  6
CONTINUOUS
 62
    7
 10
41.036460607877984
 20
51.22319953522765
 40
0.8799999952316283
 50
270
 51
0
  0
LINE
  8
_0-0_
  6
CONTINUOUS
 62
    7
 10
95.502201299101955
 20
11.403199482775563
 11
95.502201299101955
 21
68.403199482775563
  0
LINE
  8
_0-0_
  6
CONTINUOUS
 62
    7
 10
97.002201299101955
 20
69.903199482775563
 11
98.502201299101955
 21
69.903199482775563
  0
LINE
  8
_0-0_
  6
CONTINUOUS
 62
    7
 10
98.502201299101955
 20
69.903199482775563
 11
98.502201299101955
 21
9.9031994827755625
  0
LINE
  8
_0-0_
  6
CONTINUOUS
 62
    7
 10
98.502201299101955
 20
9.9031994827755625
 11
97.002201299101955
 21
9.9031994827755625
  0
LINE
  8
_0-0_
  6
CONTINUOUS
 62
    7
 10
98.502201299101955
 20
21.653199482775563
 11
103.554537255345
 21
21.917981190434148
  0
LINE
  8
_0-0_
  6
CONTINUOUS
 62
    7
 10
104.50220129910196
 20
22.916610725188775
 11
104.50220129910196
 21
36.889788240362577
  0
LINE
  8
_0-0_
  6
CONTINUOUS
 62
    7
 10
103.554537255345
 20
37.888417775116977
 11
98.502201299101955
 21
38.15319948277579
  0
LINE
  8
_0-0_
  6
CONTINUOUS
 62
    7
 10
98.502201299101955
 20
41.653199482775563
 11
103.554537255345
 21
41.917981190434148
  0
LINE
  8
_0-0_
  6
CONTINUOUS
 62
    7
 10
104.50220129910196
 20
42.916610725188548
 11
104.50220129910196
 21
45.303199482775653
  0
LINE
  8
_0-0_
  6
CONTINUOUS
 62
    7
 10
101.50220129910196
 20
45.803199482775653
 11
98.502201299101955
 21
45.803199482775653
  0
LINE
  8
_0-0_
  6
CONTINUOUS
 62
    7
 10
101.50220129910196
 20
45.803199482775653
 11
107.554537255345
 21
46.120388969717169
  0
LINE
  8
_0-0_
  6
CONTINUOUS
 62
    7
 10
108.50220129910196
 20
47.119018504471796
 11
108.50220129910196
 21
48.361862744436849
  0
LINE
  8
_0-0_
  6
CONTINUOUS
 62
    7
 10
108.02836927722348
 20
48.861177511814276
 11
102.1655661297321
 21
49.168434005147901
  0
LINE
  8
_0-0_
  6
CONTINUOUS
 62
    7
 10
102.1655661297321
 20
50.637964960403451
 11
108.02836927722348
 21
50.945221453737076
  0
LINE
  8
_0-0_
  6
CONTINUOUS
 62
    7
 10
108.50220129910196
 20
51.444536221114276
 11
108.50220129910196
 21
52.687380461079329
  0
LINE
  8
_0-0_
  6
CONTINUOUS
 62
    7
 10
107.554537255345
 20
53.686009995833956
 11
101.50220129910196
 21
54.003199482775472
  0
LINE
  8
_0-0_
  6
CONTINUOUS
 62
    7
 10
101.50220129910196
 20
54.003199482775472
 11
101.50220129910196
 21
45.803199482775653
  0
LINE
  8
_0-0_
  6
CONTINUOUS
 62
    7
 10
104.50220129910196
 20
49.403199482775563
 11
104.50220129910196
 21
50.403199482775563
  0
LINE
  8
_0-0_
  6
CONTINUOUS
 62
    7
 10
104.50220129910196
 20
54.503199482775472
 11
104.50220129910196
 21
56.88978824036235
  0
LINE
  8
_0-0_
  6
CONTINUOUS
 62
    7
 10
103.554537255345
 20
57.888417775116977
 11
98.502201299101955
 21
58.15319948277579
  0
LINE
  8
_0-0_
  6
CONTINUOUS
 62
    7
 10
98.502201299101955
 20
54.003199482775472
 11
101.50220129910196
 21
54.003199482775472
  0
LINE
  8
_0-0_
  6
CONTINUOUS
 62
    7
 10
107.554537255345
 20
33.686009995833956
 11
104.50220129910196
 21
33.845976144926453
  0
LINE
  8
_0-0_
  6
CONTINUOUS
 62
    7
 10
104.50220129910196
 20
30.760422820624854
 11
108.02836927722348
 21
30.945221453737076
  0
LINE
  8
_0-0_
  6
CONTINUOUS
 62
    7
 10
108.50220129910196
 20
31.444536221114504
 11
108.50220129910196
 21
32.687380461079329
  0
LINE
  8
_0-0_
  6
CONTINUOUS
 62
    7
 10
104.50220129910196
 20
29.045976144926499
 11
108.02836927722348
 21
28.861177511814276
  0
LINE
  8
_0-0_
  6
CONTINUOUS
 62
    7
 10
108.50220129910196
 20
28.361862744437076
 11
108.50220129910196
 21
27.119018504471796
  0
LINE
  8
_0-0_
  6
CONTINUOUS
 62
    7
 10
107.554537255345
 20
26.120388969717396
 11
104.50220129910196
 21
25.960422820624899
  0
ARC
  8
_0-0_
  6
CONTINUOUS
 62
    7
 10
97.002201299101955
 20
68.403199482775563
 40
1.5
 50
90
 51
180
  0
ARC
  8
_0-0_
  6
CONTINUOUS
 62
    7
 10
97.002201299101955
 20
11.403199482775563
 40
1.5
 50
180
 51
270
  0
ARC
  8
_0-0_
  6
CONTINUOUS
 62
    7
 10
107.50220129910196
 20
47.119018504471796
 40
1
 50
273.00000000000034
 51
0
  0
ARC
  8
_0-0_
  6
CONTINUOUS
 62
    7
 10
107.50220129910196
 20
52.687380461079329
 40
1
 50
0
 51
86.999999999999602
  0
ARC
  8
_0-0_
  6
CONTINUOUS
 62
    7
 10
108.00220129910196
 20
48.361862744436849
 40
0.5
 50
0
 51
86.999999999999829
  0
ARC
  8
_0-0_
  6
CONTINUOUS
 62
    7
 10
108.00220129910196
 20
51.444536221114276
 40
0.5
 50
273.00000000000017
 51
0
  0
ARC
  8
_0-0_
  6
CONTINUOUS
 62
    7
 10
102.20220129910177
 20
49.867474679476118
 40
0.7
 50
180
 51
266.99999999999966
  0
ARC
  8
_0-0_
  6
CONTINUOUS
 62
    7
 10
102.20220129910177
 20
49.938924286075235
 40
0.7
 50
93.000000000000213
 51
180
  0
ARC
  8
_0-0_
  6
CONTINUOUS
 62
    7
 10
103.50220129910196
 20
42.916610725188548
 40
1
 50
272.99999999999903
 51
0.0000000000000254
  0
ARC
  8
_0-0_
  6
CONTINUOUS
 62
    7
 10
103.50220129910196
 20
56.88978824036235
 40
1
 50
0
 51
86.999999999999773
  0
ARC
  8
_0-0_
  6
CONTINUOUS
 62
    7
 10
107.50220129910196
 20
27.119018504471796
 40
1
 50
273.00000000000034
 51
0
  0
ARC
  8
_0-0_
  6
CONTINUOUS
 62
    7
 10
107.50220129910196
 20
32.687380461079329
 40
1
 50
0
 51
86.999999999999602
  0
ARC
  8
_0-0_
  6
CONTINUOUS
 62
    7
 10
108.00220129910196
 20
28.361862744437076
 40
0.5
 50
0
 51
86.999999999999829
  0
ARC
  8
_0-0_
  6
CONTINUOUS
 62
    7
 10
108.00220129910196
 20
31.444536221114504
 40
0.5
 50
273.00000000000017
 51
0
  0
ARC
  8
_0-0_
  6
CONTINUOUS
 62
    7
 10
103.50220129910196
 20
22.916610725188775
 40
1
 50
272.99999999999903
 51
0.0000000000000254
  0
ARC
  8
_0-0_
  6
CONTINUOUS
 62
    7
 10
103.50220129910196
 20
36.889788240362577
 40
1
 50
0
 51
86.999999999999773
  0
LINE
  8
_0-0_
  6
CONTINUOUS
 62
    7
 10
3.8564606603300717
 20
103.04894012154745
 11
60.856460660330072
 21
103.04894012154745
  0
LINE
  8
_0-0_
  6
CONTINUOUS
 62
    7
 10
62.356460660330072
 20
104.54894012154745
 11
62.356460660330072
 21
106.04894012154745
  0
LINE
  8
_0-0_
  6
CONTINUOUS
 62
    7
 10
62.356460660330072
 20
106.04894012154745
 11
2.3564606603300717
 21
106.04894012154745
  0
LINE
  8
_0-0_
  6
CONTINUOUS
 62
    7
 10
2.3564606603300717
 20
106.04894012154745
 11
2.3564606603300717
 21
104.54894012154745
  0
LINE
  8
_0-0_
  6
CONTINUOUS
 62
    7
 10
14.106460660330072
 20
106.04894012154745
 11
14.371242367988657
 21
111.10127607779049
  0
LINE
  8
_0-0_
  6
CONTINUOUS
 62
    7
 10
15.369871902743284
 20
112.04894012154745
 11
29.343049417917086
 21
112.04894012154745
  0
LINE
  8
_0-0_
  6
CONTINUOUS
 62
    7
 10
30.341678952671487
 20
111.10127607779049
 11
30.606460660330299
 21
106.04894012154745
  0
LINE
  8
_0-0_
  6
CONTINUOUS
 62
    7
 10
34.106460660330072
 20
106.04894012154745
 11
34.371242367988657
 21
111.10127607779049
  0
LINE
  8
_0-0_
  6
CONTINUOUS
 62
    7
 10
35.369871902743057
 20
112.04894012154745
 11
37.756460660330163
 21
112.04894012154745
  0
LINE
  8
_0-0_
  6
CONTINUOUS
 62
    7
 10
38.256460660330163
 20
109.04894012154745
 11
38.256460660330163
 21
106.04894012154745
  0
LINE
  8
_0-0_
  6
CONTINUOUS
 62
    7
 10
38.256460660330163
 20
109.04894012154745
 11
38.573650147271678
 21
115.10127607779049
  0
LINE
  8
_0-0_
  6
CONTINUOUS
 62
    7
 10
39.572279682026306
 20
116.04894012154745
 11
40.815123921991358
 21
116.04894012154745
  0
LINE
  8
_0-0_
  6
CONTINUOUS
 62
    7
 10
41.314438689368785
 20
115.57510809966897
 11
41.62169518270241
 21
109.71230495217759
  0
LINE
  8
_0-0_
  6
CONTINUOUS
 62
    7
 10
43.09122613795796
 20
109.71230495217759
 11
43.398482631291586
 21
115.57510809966897
  0
LINE
  8
_0-0_
  6
CONTINUOUS
 62
    7
 10
43.897797398668786
 20
116.04894012154745
 11
45.140641638633838
 21
116.04894012154745
  0
LINE
  8
_0-0_
  6
CONTINUOUS
 62
    7
 10
46.139271173388465
 20
115.10127607779049
 11
46.456460660329981
 21
109.04894012154745
  0
LINE
  8
_0-0_
  6
CONTINUOUS
 62
    7
 10
46.456460660329981
 20
109.04894012154745
 11
38.256460660330163
 21
109.04894012154745
  0
LINE
  8
_0-0_
  6
CONTINUOUS
 62
    7
 10
41.856460660330072
 20
112.04894012154745
 11
42.856460660330072
 21
112.04894012154745
  0
LINE
  8
_0-0_
  6
CONTINUOUS
 62
    7
 10
46.956460660329981
 20
112.04894012154745
 11
49.343049417916859
 21
112.04894012154745
  0
LINE
  8
_0-0_
  6
CONTINUOUS
 62
    7
 10
50.341678952671487
 20
111.10127607779049
 11
50.606460660330299
 21
106.04894012154745
  0
LINE
  8
_0-0_
  6
CONTINUOUS
 62
    7
 10
46.456460660329981
 20
106.04894012154745
 11
46.456460660329981
 21
109.04894012154745
  0
LINE
  8
_0-0_
  6
CONTINUOUS
 62
    7
 10
26.139271173388465
 20
115.10127607779049
 11
26.299237322480963
 21
112.04894012154745
  0
LINE
  8
_0-0_
  6
CONTINUOUS
 62
    7
 10
23.213683998179363
 20
112.04894012154745
 11
23.398482631291586
 21
115.57510809966897
  0
LINE
  8
_0-0_
  6
CONTINUOUS
 62
    7
 10
23.897797398669013
 20
116.04894012154745
 11
25.140641638633838
 21
116.04894012154745
  0
LINE
  8
_0-0_
  6
CONTINUOUS
 62
    7
 10
21.499237322481008
 20
112.04894012154745
 11
21.314438689368785
 21
115.57510809966897
  0
LINE
  8
_0-0_
  6
CONTINUOUS
 62
    7
 10
20.815123921991585
 20
116.04894012154745
 11
19.572279682026306
 21
116.04894012154745
  0
LINE
  8
_0-0_
  6
CONTINUOUS
 62
    7
 10
18.573650147271906
 20
115.10127607779049
 11
18.413683998179408
 21
112.04894012154745
  0
ARC
  8
_0-0_
  6
CONTINUOUS
 62
    7
 10
60.856460660330072
 20
104.54894012154745
 40
1.5
 50
270
 51
0
  0
ARC
  8
_0-0_
  6
CONTINUOUS
 62
    7
 10
3.8564606603300717
 20
104.54894012154745
 40
1.5
 50
180
 51
270
  0
ARC
  8
_0-0_
  6
CONTINUOUS
 62
    7
 10
39.572279682026306
 20
115.04894012154745
 40
1
 50
89.999999999999986
 51
176.99999999999963
  0
ARC
  8
_0-0_
  6
CONTINUOUS
 62
    7
 10
45.140641638633838
 20
115.04894012154745
 40
1
 50
3.0000000000003726
 51
90.000000000000014
  0
ARC
  8
_0-0_
  6
CONTINUOUS
 62
    7
 10
40.815123921991358
 20
115.54894012154745
 40
0.5
 50
3.0000000000001696
 51
90.000000000000014
  0
ARC
  8
_0-0_
  6
CONTINUOUS
 62
    7
 10
43.897797398668786
 20
115.54894012154745
 40
0.5
 50
89.999999999999986
 51
176.99999999999983
  0
ARC
  8
_0-0_
  6
CONTINUOUS
 62
    7
 10
42.320735857030627
 20
109.74894012154726
 40
0.7
 50
183.00000000000028
 51
270
  0
ARC
  8
_0-0_
  6
CONTINUOUS
 62
    7
 10
42.392185463629744
 20
109.74894012154726
 40
0.7
 50
270
 51
356.99999999999977
  0
ARC
  8
_0-0_
  6
CONTINUOUS
 62
    7
 10
35.369871902743057
 20
111.04894012154745
 40
1
 50
90
 51
177.00000000000094
  0
ARC
  8
_0-0_
  6
CONTINUOUS
 62
    7
 10
49.343049417916859
 20
111.04894012154745
 40
1
 50
3.0000000000002207
 51
89.999999999999986
  0
ARC
  8
_0-0_
  6
CONTINUOUS
 62
    7
 10
19.572279682026306
 20
115.04894012154745
 40
1
 50
89.999999999999986
 51
176.99999999999963
  0
ARC
  8
_0-0_
  6
CONTINUOUS
 62
    7
 10
25.140641638633838
 20
115.04894012154745
 40
1
 50
3.0000000000003726
 51
90.000000000000014
  0
ARC
  8
_0-0_
  6
CONTINUOUS
 62
    7
 10
20.815123921991585
 20
115.54894012154745
 40
0.5
 50
3.0000000000001696
 51
90.000000000000014
  0
ARC
  8
_0-0_
  6
CONTINUOUS
 62
    7
 10
23.897797398669013
 20
115.54894012154745
 40
0.5
 50
89.999999999999986
 51
176.99999999999983
  0
ARC
  8
_0-0_
  6
CONTINUOUS
 62
    7
 10
15.369871902743284
 20
111.04894012154745
 40
1
 50
90
 51
177.00000000000094
  0
ARC
  8
_0-0_
  6
CONTINUOUS
 62
    7
 10
29.343049417917086
 20
111.04894012154745
 40
1
 50
3.0000000000002207
 51
89.999999999999986
  0
LINE
  8
_0-1_
  6
CENTER1
 62
  152
 10
42.356460660330072
 20
45.903199005938404
 11
42.356460660330072
 21
53.903199005938404
  0
LINE
  8
_0-1_
  6
CENTER1
 62
  152
 10
46.356460660330072
 20
49.903199482775563
 11
38.356460660330072
 21
49.903199482775563
  0
LINE
  8
_0-1_
  6
CENTER1
 62
  152
 10
26.356460660330072
 20
29.903199482775563
 11
18.356460660330072
 21
29.903199482775563
  0
LINE
  8
_0-1_
  6
CENTER1
 62
  152
 10
22.356460660330072
 20
33.903199005938404
 11
22.356460660330072
 21
25.903199005938404
  0
LINE
  8
_0-1_
  6
CENTER1
 62
  152
 10
95.502201299101955
 20
49.903199482775563
 11
108.50220129910196
 21
49.903199482775563
  0
LINE
  8
_0-1_
  6
CENTER1
 62
  152
 10
108.50220129910196
 20
29.903199482775563
 11
95.502201299101955
 21
29.903199482775563
  0
LINE
  8
_0-1_
  6
CENTER1
 62
  152
 10
42.356460660330072
 20
103.04894012154745
 11
42.356460660330072
 21
116.04894012154745
  0
LINE
  8
_0-1_
  6
CENTER1
 62
  152
 10
22.356460660330072
 20
116.04894012154745
 11
22.356460660330072
 21
103.04894012154745
  0
ENDSEC
  0
EOF
