  0
SECTION
  2
HEADER
  9
$ACADVER
  1
AC1009
  9
$INSBASE
 10
0
 20
0
 30
0
  9
$EXTMIN
 10
0
 20
0
  9
$EXTMAX
 10
297
 20
210
  9
$LIMMIN
 10
0
 20
0
  9
$LIMMAX
 10
297
 20
210
  9
$LTSCALE
 40
1
  0
ENDSEC
  0
SECTION
  2
TABLES
  0
TABLE
  2
LTYPE
 70
     9
  0
LTYPE
  2
CONTINUOUS
 70
    64
  3
実線
 72
    65
 73
     0
 40
0.0
  0
LTYPE
  2
DASHED1
 70
    64
  3
--  --  --  --  --  --  --  --  
 72
    65
 73
     2
 40
2.5
 49
1.25
 49
-1.25
  0
LTYPE
  2
DASHED2
 70
    64
  3
----    ----    ----    ----    
 72
    65
 73
     2
 40
5.0
 49
2.5
 49
-2.5
  0
LTYPE
  2
DASHED3
 70
    64
  3
------  ------  ------  ------  
 72
    65
 73
     2
 40
5.0
 49
3.75
 49
-1.25
  0
LTYPE
  2
CENTER1
 70
    64
  3
----- - ----- - ----- - ----- - 
 72
    65
 73
     4
 40
10.0
 49
6.25
 49
-1.25
 49
1.25
 49
-1.25
  0
LTYPE
  2
CENTER2
 70
    64
  3
----------  --  ----------  --  
 72
    65
 73
     4
 40
20.0
 49
12.5
 49
-2.5
 49
2.5
 49
-2.5
  0
LTYPE
  2
PHANTOM1
 70
    64
  3
--- - - --- - - --- - - --- - - 
 72
    65
 73
     6
 40
10.0
 49
3.25
 49
-1.25
 49
1.25
 49
-1.25
 49
1.25
 49
-1.25
  0
LTYPE
  2
PHANTOM2
 70
    64
  3
--------  -  -  --------  -  -  
 72
    65
 73
     6
 40
20.0
 49
10.0
 49
-2.5
 49
1.25
 49
-2.5
 49
1.25
 49
-2.5
  0
LTYPE
  2
DOT
 70
    64
  3
-   -   -   -   -   -   -   -   
 72
    65
 73
     2
 40
2.5
 49
0.625
 49
-1.875
  0
LTYPE
  2
DUMMY
 70
    64
  3
ダミー
 72
    65
 73
     0
 40
0.0
  0
LTYPE
  2
RAND1
 70
    64
  3
ランダム線1
 72
    65
 73
     4
 40
10.0
 49
1.0
 49
-2.0
 49
3.0
 49
-4.0
  0
LTYPE
  2
RAND2
 70
    64
  3
ランダム線2
 72
    65
 73
     4
 40
14.0
 49
2.0
 49
-3.0
 49
4.0
 49
-5.0
  0
LTYPE
  2
RAND3
 70
    64
  3
ランダム線3
 72
    65
 73
     4
 40
18.0
 49
3.0
 49
-4.0
 49
5.0
 49
-6.0
  0
LTYPE
  2
RAND4
 70
    64
  3
ランダム線4
 72
    65
 73
     4
 40
22.0
 49
4.0
 49
-5.0
 49
6.0
 49
-7.0
  0
LTYPE
  2
RAND5
 70
    64
  3
ランダム線5
 72
    65
 73
     4
 40
26.0
 49
5.0
 49
-6.0
 49
7.0
 49
-8.0
  0
LTYPE
  2
LONG1
 70
    64
  3
----------  --  ----------  --  
 72
    65
 73
     4
 40
40.0
 49
32.5
 49
-2.5
 49
2.5
 49
-2.5
  0
LTYPE
  2
LONG2
 70
    64
  3
--------  -  -  --------  -  -  
 72
    65
 73
     6
 40
40.0
 49
30.0
 49
-2.5
 49
1.25
 49
-2.5
 49
1.25
 49
-2.5
  0
LTYPE
  2
LONG3
 70
    64
  3
+++++++++++++++..+++++++++++++++
 72
    65
 73
     2
 40
40.0
 49
37.5
 49
-2.5
  0
LTYPE
  2
LONG4
 70
    64
  3
+++++++++++++++..+++++++++++++++
 72
    65
 73
     2
 40
80.0
 49
75.0
 49
-5.0
  0
LTYPE
  2
LONG5
 70
    64
  3
----------  --  ----------  --  
 72
    65
 73
     4
 40
60.0
 49
37.5
 49
-7.5
 49
7.5
 49
-7.5
  0
LTYPE
  2
dashed
 70
   64
  3
-------   -------------   ------
 72
   65
 73
    2
 40
7.5
 49
6
 49
-1.5
  0
LTYPE
  2
dashed_spaced
 70
   64
  3
----        --------        ----
 72
   65
 73
    2
 40
12
 49
6
 49
-6
  0
LTYPE
  2
long_dashed_dotted
 70
   64
  3
------------- --- --------------
 72
   65
 73
    4
 40
15.25
 49
12
 49
-1.5
 49
0.25
 49
-1.5
  0
LTYPE
  2
long_dashed_double-dotted
 70
   64
  3
----------- --- --- ------------
 72
   65
 73
    6
 40
17
 49
12
 49
-1.5
 49
0.25
 49
-1.5
 49
0.25
 49
-1.5
  0
LTYPE
  2
long_dashed_triplicate-dotted
 70
   64
  3
--------- --- --- --- ----------
 72
   65
 73
    8
 40
18.75
 49
12
 49
-1.5
 49
0.25
 49
-1.5
 49
0.25
 49
-1.5
 49
0.25
 49
-1.5
  0
LTYPE
  2
dotted
 70
   64
  3
   -       -       -       -    
 72
   65
 73
    2
 40
1.75
 49
0.25
 49
-1.5
  0
LTYPE
  2
chain
 70
   64
  3
-------------- -- --------------
 72
   65
 73
    4
 40
18.5
 49
12
 49
-1.5
 49
3.5
 49
-1.5
  0
LTYPE
  2
chain_double_dash
 70
   64
  3
------------ -- -- -------------
 72
   65
 73
    6
 40
23.5
 49
12
 49
-1.5
 49
3.5
 49
-1.5
 49
3.5
 49
-1.5
  0
LTYPE
  2
dashed_dotted
 70
   64
  3
-----------     -     ----------
 72
   65
 73
    4
 40
9.25
 49
6
 49
-1.5
 49
0.25
 49
-1.5
  0
LTYPE
  2
double-dashed_dotted
 70
   64
  3
------   -----------   -   -----
 72
   65
 73
    6
 40
16.75
 49
6
 49
-1.5
 49
6
 49
-1.5
 49
0.25
 49
-1.5
  0
LTYPE
  2
dashed_double-dotted
 70
   64
  3
---------    -    -    ---------
 72
   65
 73
    6
 40
11
 49
6
 49
-1.5
 49
0.25
 49
-1.5
 49
0.25
 49
-1.5
  0
LTYPE
  2
double-dashed_double-dotted
 70
   64
  3
-----   ---------   -   -   ----
 72
   65
 73
    8
 40
18.5
 49
6
 49
-1.5
 49
6
 49
-1.5
 49
0.25
 49
-1.5
 49
0.25
 49
-1.5
  0
LTYPE
  2
dashed_triplicate-dotted
 70
   64
  3
-------    -    -    -    ------
 72
   65
 73
    8
 40
12.75
 49
6
 49
-1.5
 49
0.25
 49
-1.5
 49
0.25
 49
-1.5
 49
0.25
 49
-1.5
  0
LTYPE
  2
double-dashed_triplicate-dotted
 70
   64
  3
-----  ---------  -  -  -  -----
 72
   65
 73
   10
 40
20.25
 49
6
 49
-1.5
 49
6
 49
-1.5
 49
0.25
 49
-1.5
 49
0.25
 49
-1.5
 49
0.25
 49
-1.5
  0
LTYPE
  2
undefined
 70
   64
  3
--------------------------------
 72
   65
 73
    0
 40
0
  0
ENDTAB
  0
TABLE
  2
STYLE
  5
3
100
AcDbSymbolTable
 70
     1
  0
STYLE
  5
10
100
AcDbSymbolTableRecord
100
AcDbTextStyleTableRecord
  2
STANDARD
 70
     0
 40
0.0
 41
1.0
 50
0.0
 71
     0
 42
0.2
  3
txt
  4
bigfont.shx
  0
STYLE
  5
26
100
AcDbSymbolTableRecord
100
AcDbTextStyleTableRecord
  2
TATEGAKI
 70
    68
 40
0.0
 41
1.0
 50
0.0
 71
     0
 42
1.0
  3
txt
  4
bigfont.shx
  0
ENDTAB
  0
TABLE
  2
LAYER
 70
    5
  0
LAYER
  2
_0-0_フレ__ム
 70
   64
 62
    7
  6
CONTINUOUS
  0
LAYER
  2
_0-1_その他LF______
 70
   64
 62
    7
  6
CONTINUOUS
  0
LAYER
  2
_0-2_FFU
 70
   64
 62
    7
  6
CONTINUOUS
  0
LAYER
  2
_0-f_集計
 70
   64
 62
    7
  6
CONTINUOUS
  0
LAYER
  2
ADD_LINE
 70
   64
 62
    7
  6
CONTINUOUS
  0
ENDTAB
  0
ENDSEC
  0
SECTION
  2
BLOCKS
  0
ENDSEC
  0
SECTION
  2
ENTITIES
  0
TEXT
  8
_0-f_集計
 62
    7
 10
2.1667775412453523
 20
3.9912852581160223
 40
4.2999999999999998
 41
0.744186046511628
 50
0
  1
E66C
  0
LINE
  8
_0-0_フレ__ム
  6
CENTER1
 62
    7
 10
30.96600091818442
 20
12.097045117367003
 11
30.96600091818442
 21
30.097045117367003
  0
LINE
  8
_0-0_フレ__ム
  6
CENTER1
 62
    7
 10
21.96600091818442
 20
21.097045117367003
 11
39.966000918184363
 21
21.097045117367003
  0
LINE
  8
_0-0_フレ__ム
  6
CENTER1
 62
    7
 10
58.96600091828077
 20
40.097045117463296
 11
58.96600091828077
 21
58.097045117463296
  0
LINE
  8
_0-0_フレ__ム
  6
CENTER1
 62
    7
 10
49.96600091828077
 20
49.097045117463296
 11
67.96600091828077
 21
49.097045117463296
  0
ARC
  8
_0-0_フレ__ム
  6
CONTINUOUS
 62
    7
 10
36.96600091823467
 20
63.097045117406793
 40
0.5
 50
90
 51
180
  0
LINE
  8
_0-0_フレ__ム
  6
CONTINUOUS
 62
    7
 10
72.966000918234897
 20
63.597045117406793
 11
36.96600091823467
 21
63.597045117406793
  0
ARC
  8
_0-0_フレ__ム
  6
CONTINUOUS
 62
    7
 10
72.966000918234897
 20
63.097045117406793
 40
0.5
 50
0
 51
90.000000000000028
  0
LINE
  8
_0-0_フレ__ム
  6
CONTINUOUS
 62
    7
 10
36.46600091823467
 20
44.097045117406793
 11
36.46600091823467
 21
63.097045117406793
  0
ARC
  8
_0-0_フレ__ム
  6
CONTINUOUS
 62
    7
 10
35.96600091823467
 20
44.097045117406793
 40
0.5
 50
270
 51
0
  0
LINE
  8
_0-0_フレ__ム
  6
CONTINUOUS
 62
    7
 10
16.966000918235011
 20
43.597045117406793
 11
35.96600091823467
 21
43.597045117406793
  0
ARC
  8
_0-0_フレ__ム
  6
CONTINUOUS
 62
    7
 10
16.966000918235011
 20
43.097045117406793
 40
0.5
 50
90
 51
180
  0
LINE
  8
_0-0_フレ__ム
  6
CONTINUOUS
 62
    7
 10
16.466000918235011
 20
7.0970451174065659
 11
16.466000918235011
 21
43.097045117406793
  0
ARC
  8
_0-0_フレ__ム
  6
CONTINUOUS
 62
    7
 10
16.966000918235011
 20
7.0970451174065659
 40
0.5
 50
180
 51
270
  0
LINE
  8
_0-0_フレ__ム
  6
CONTINUOUS
 62
    7
 10
72.966000918234897
 20
6.5970451174065659
 11
16.966000918235011
 21
6.5970451174065659
  0
ARC
  8
_0-0_フレ__ム
  6
CONTINUOUS
 62
    7
 10
72.966000918234897
 20
7.0970451174065659
 40
0.5
 50
270
 51
0
  0
LINE
  8
_0-0_フレ__ム
  6
CONTINUOUS
 62
    7
 10
16.466000918235011
 20
5.0970451174065659
 11
73.466000918234897
 21
5.0970451174065659
  0
LINE
  8
_0-0_フレ__ム
  6
CONTINUOUS
 62
    7
 10
74.966000918234897
 20
6.5970451174065659
 11
74.966000918234897
 21
63.597045117406793
  0
LINE
  8
_0-0_フレ__ム
  6
CONTINUOUS
 62
    7
 10
73.466000918234897
 20
65.097045117406793
 11
36.466000918234613
 21
65.097045117406793
  0
LINE
  8
_0-0_フレ__ム
  6
CONTINUOUS
 62
    7
 10
34.96600091823467
 20
63.597045117406793
 11
34.96600091823467
 21
45.597045117406793
  0
LINE
  8
_0-0_フレ__ム
  6
CONTINUOUS
 62
    7
 10
34.46600091823467
 20
45.097045117406793
 11
16.466000918235011
 21
45.097045117406793
  0
LINE
  8
_0-0_フレ__ム
  6
CONTINUOUS
 62
    7
 10
14.966000918235011
 20
43.597045117406793
 11
14.966000918235011
 21
6.5970451174065659
  0
LINE
  8
_0-0_フレ__ム
  6
CONTINUOUS
 62
    7
 10
62.96600091823467
 20
95.618352426095868
 11
62.966000918234442
 21
105.1183524261468
  0
LINE
  8
_0-0_フレ__ム
  6
CONTINUOUS
 62
    7
 10
62.466000918234442
 20
105.6183524261468
 11
55.91719685619853
 21
105.6183524261468
  0
LINE
  8
_0-0_フレ__ム
  6
CONTINUOUS
 62
    7
 10
55.917196856195915
 20
105.6183524261468
 11
55.911465773607347
 21
105.6183222259946
  0
LINE
  8
_0-0_フレ__ム
  6
CONTINUOUS
 62
    7
 10
55.911465773607347
 20
105.6183222259946
 11
55.893050686597576
 21
105.61779782571207
  0
LINE
  8
_0-0_フレ__ム
  6
CONTINUOUS
 62
    7
 10
56.126388055976179
 20
105.6183524261468
 11
56.127457559916365
 21
105.61833909269902
  0
LINE
  8
_0-0_フレ__ム
  6
CONTINUOUS
 62
    7
 10
56.127457559916365
 20
105.61833909269902
 11
56.145146086337661
 21
105.61426266475544
  0
LINE
  8
_0-0_フレ__ム
  6
CONTINUOUS
 62
    7
 10
56.145146086337661
 20
105.61426266475544
 11
56.183457743104555
 21
105.58138001002604
  0
LINE
  8
_0-0_フレ__ム
  6
CONTINUOUS
 62
    7
 10
56.183457743104555
 20
105.58138001002604
 11
56.203994190437299
 21
105.55147172524951
  0
LINE
  8
_0-0_フレ__ム
  6
CONTINUOUS
 62
    7
 10
56.203994190437299
 20
105.55147172524951
 11
56.225740054065398
 21
105.511966887059
  0
LINE
  8
_0-0_フレ__ム
  6
CONTINUOUS
 62
    7
 10
56.225740054065398
 20
105.511966887059
 11
56.258952719020272
 21
105.43952076718361
  0
LINE
  8
_0-0_フレ__ム
  6
CONTINUOUS
 62
    7
 10
56.258952719020272
 20
105.43952076718361
 11
56.297528503427316
 21
105.34372679715912
  0
LINE
  8
_0-0_フレ__ム
  6
CONTINUOUS
 62
    7
 10
56.297528503427145
 20
105.34372679715935
 11
56.195693684229241
 21
105.23419128638162
  0
LINE
  8
_0-0_フレ__ム
  6
CONTINUOUS
 62
    7
 10
56.195693684229241
 20
105.23419128638162
 11
56.108344305497781
 21
105.1183524261468
  0
LINE
  8
_0-0_フレ__ム
  6
CONTINUOUS
 62
    7
 10
56.297528503427316
 20
105.34372679715912
 11
56.337134339283978
 21
105.30704027471032
  0
LINE
  8
_0-0_フレ__ム
  6
CONTINUOUS
 62
    7
 10
56.337134339283978
 20
105.30704027471032
 11
56.450404200906689
 21
105.19334852558953
  0
LINE
  8
_0-0_フレ__ム
  6
CONTINUOUS
 62
    7
 10
56.450404200906689
 20
105.19334852558953
 11
56.557676475544554
 21
105.072375527324
  0
LINE
  8
_0-0_フレ__ム
  6
CONTINUOUS
 62
    7
 10
56.557676475544554
 20
105.072375527324
 11
56.63576054324875
 21
104.97435920515684
  0
LINE
  8
_0-0_フレ__ム
  6
CONTINUOUS
 62
    7
 10
56.63576054324875
 20
104.97435920515684
 11
56.708088395385118
 21
104.87415798433736
  0
LINE
  8
_0-0_フレ__ム
  6
CONTINUOUS
 62
    7
 10
56.708088395385118
 20
104.87415798433736
 11
56.772162962018058
 21
104.77549217292747
  0
LINE
  8
_0-0_フレ__ム
  6
CONTINUOUS
 62
    7
 10
56.772162962018058
 20
104.77549217292747
 11
56.829743269377161
 21
104.67584459104378
  0
LINE
  8
_0-0_フレ__ム
  6
CONTINUOUS
 62
    7
 10
56.829743269377161
 20
104.67584459104378
 11
56.832525771894325
 21
104.67068838238984
  0
LINE
  8
_0-0_フレ__ム
  6
CONTINUOUS
 62
    7
 10
57.112029457966116
 20
104.68147693550182
 11
57.017621105611909
 21
103.40768157413495
  0
LINE
  8
_0-0_フレ__ム
  6
CONTINUOUS
 62
    7
 10
57.016596418639608
 20
103.38924128126146
 11
56.839998290216215
 21
98.623775701104051
  0
LINE
  8
_0-0_フレ__ム
  6
CONTINUOUS
 62
    7
 10
56.839655321505859
 20
98.605259462743817
 11
56.839655321505859
 21
95.618352426095868
  0
LINE
  8
_0-0_フレ__ム
  6
CONTINUOUS
 62
    7
 10
55.496152437251567
 20
95.618352426095868
 11
55.496152437251567
 21
105.1183524261468
  0
LINE
  8
_0-0_フレ__ム
  6
CONTINUOUS
 62
    7
 10
55.641328899411519
 20
105.5357609908863
 11
46.080169675794025
 21
99.230572177210007
  0
LINE
  8
_0-0_フレ__ム
  6
CONTINUOUS
 62
    7
 10
46.081378241878269
 20
99.230572177210007
 11
43.851832160676793
 21
99.230572177210007
  0
LINE
  8
_0-0_フレ__ム
  6
CONTINUOUS
 62
    7
 10
43.852841092346068
 20
99.22990682852938
 11
34.290672937059071
 21
105.5357609908863
  0
LINE
  8
_0-0_フレ__ム
  6
CONTINUOUS
 62
    7
 10
34.164223099639685
 20
105.52466021318347
 11
34.169964761456981
 21
105.56831947209176
  0
LINE
  8
_0-0_フレ__ム
  6
CONTINUOUS
 62
    7
 10
34.169964761456981
 20
105.56831947209176
 11
34.154423132098145
 21
105.58990359758755
  0
LINE
  8
_0-0_フレ__ム
  6
CONTINUOUS
 62
    7
 10
34.154423132098145
 20
105.58990359758755
 11
34.128977371278893
 21
105.6021870196752
  0
LINE
  8
_0-0_フレ__ム
  6
CONTINUOUS
 62
    7
 10
34.128977371278893
 20
105.6021870196752
 11
34.09391133716997
 21
105.61155236971391
  0
LINE
  8
_0-0_フレ__ム
  6
CONTINUOUS
 62
    7
 10
34.09391133716997
 20
105.61155236971391
 11
34.038955498071914
 21
105.61779762123288
  0
LINE
  8
_0-0_フレ__ム
  6
CONTINUOUS
 62
    7
 10
34.038955498071914
 20
105.61779762123288
 11
34.020536062863187
 21
105.6183222259946
  0
LINE
  8
_0-0_フレ__ム
  6
CONTINUOUS
 62
    7
 10
34.020536062863187
 20
105.6183222259946
 11
34.014804980274675
 21
105.6183524261468
  0
LINE
  8
_0-0_フレ__ム
  6
CONTINUOUS
 62
    7
 10
34.014804980272061
 20
105.6183524261468
 11
27.466000918235011
 21
105.6183524261468
  0
LINE
  8
_0-0_フレ__ム
  6
CONTINUOUS
 62
    7
 10
26.966000918235011
 20
105.1183524261468
 11
26.966000918235125
 21
95.618352426095868
  0
LINE
  8
_0-0_フレ__ム
  6
CONTINUOUS
 62
    7
 10
29.298629538905686
 20
95.618622522075071
 11
29.336896549159576
 21
95.668352426166763
  0
LINE
  8
_0-0_フレ__ム
  6
CONTINUOUS
 62
    7
 10
29.336896549159576
 20
95.668352426166763
 11
29.456757553427394
 21
98.605259462855457
  0
LINE
  8
_0-0_フレ__ム
  6
CONTINUOUS
 62
    7
 10
29.456757553427394
 20
98.605259462855457
 11
29.457235440804141
 21
98.61835242617272
  0
LINE
  8
_0-0_フレ__ム
  6
CONTINUOUS
 62
    7
 10
29.45723544080596
 20
98.618352426170901
 11
29.462994599577371
 21
98.631427440976864
  0
LINE
  8
_0-0_フレ__ム
  6
CONTINUOUS
 62
    7
 10
29.462994599577371
 20
98.631427440976864
 11
29.591282827826433
 21
98.920308740963634
  0
LINE
  8
_0-0_フレ__ム
  6
CONTINUOUS
 62
    7
 10
29.591282827826433
 20
98.920308740963634
 11
29.725171378240873
 21
99.20386729342502
  0
LINE
  8
_0-0_フレ__ム
  6
CONTINUOUS
 62
    7
 10
29.725171378240873
 20
99.20386729342502
 11
29.867880843262185
 21
99.478103888663469
  0
LINE
  8
_0-0_フレ__ム
  6
CONTINUOUS
 62
    7
 10
29.867880843262185
 20
99.478103888663469
 11
29.906738390708199
 21
99.546964465927573
  0
LINE
  8
_0-0_フレ__ム
  6
CONTINUOUS
 62
    7
 10
29.906738390708199
 20
99.546964465927573
 11
29.936523924604614
 21
99.597635919835881
  0
LINE
  8
_0-0_フレ__ム
  6
CONTINUOUS
 62
    7
 10
29.900658461996784
 20
98.623775703638472
 11
30.124460766503432
 21
104.66303664262855
  0
LINE
  8
_0-0_フレ__ム
  6
CONTINUOUS
 62
    7
 10
30.124460766503432
 20
104.66303664262855
 11
30.131063171763174
 21
104.75195602887803
  0
LINE
  8
_0-0_フレ__ム
  6
CONTINUOUS
 62
    7
 10
30.131063171763174
 20
104.75195602887803
 11
30.145969937218808
 21
104.84886606419596
  0
LINE
  8
_0-0_フレ__ム
  6
CONTINUOUS
 62
    7
 10
30.145969937218808
 20
104.84886606419596
 11
30.168708704517428
 21
104.94334168215087
  0
LINE
  8
_0-0_フレ__ム
  6
CONTINUOUS
 62
    7
 10
30.168708704517428
 20
104.94334168215087
 11
30.199027416216666
 21
105.03439154735705
  0
LINE
  8
_0-0_フレ__ム
  6
CONTINUOUS
 62
    7
 10
30.199027416216666
 20
105.03439154735705
 11
30.236568712027918
 21
105.12105317185674
  0
LINE
  8
_0-0_フレ__ム
  6
CONTINUOUS
 62
    7
 10
30.236568712027918
 20
105.12105317185674
 11
30.280876777854189
 21
105.2024479063995
  0
LINE
  8
_0-0_フレ__ム
  6
CONTINUOUS
 62
    7
 10
30.280876777854189
 20
105.2024479063995
 11
30.331433411136743
 21
105.27784019721562
  0
LINE
  8
_0-0_フレ__ム
  6
CONTINUOUS
 62
    7
 10
30.331433411136743
 20
105.27784019721562
 11
30.38770540279603
 21
105.34665856607549
  0
LINE
  8
_0-0_フレ__ム
  6
CONTINUOUS
 62
    7
 10
30.38770540279603
 20
105.34665856607549
 11
30.449180980915742
 21
105.40847263412664
  0
LINE
  8
_0-0_フレ__ム
  6
CONTINUOUS
 62
    7
 10
30.449180980915742
 20
105.40847263412664
 11
30.515382400055785
 21
105.46294362963093
  0
LINE
  8
_0-0_フレ__ム
  6
CONTINUOUS
 62
    7
 10
30.515382400055785
 20
105.46294362963093
 11
30.585855865870428
 21
105.50977250850863
  0
LINE
  8
_0-0_フレ__ム
  6
CONTINUOUS
 62
    7
 10
30.585855865870428
 20
105.50977250850863
 11
30.660148133721748
 21
105.54866197351831
  0
LINE
  8
_0-0_フレ__ム
  6
CONTINUOUS
 62
    7
 10
30.660148133721748
 20
105.54866197351831
 11
30.737779670049406
 21
105.57929751588577
  0
LINE
  8
_0-0_フレ__ム
  6
CONTINUOUS
 62
    7
 10
30.737779670049406
 20
105.57929751588577
 11
30.81822100405526
 21
105.60134525914853
  0
LINE
  8
_0-0_フレ__ム
  6
CONTINUOUS
 62
    7
 10
30.81822100405526
 20
105.60134525914853
 11
30.900877920190908
 21
105.61446200509718
  0
LINE
  8
_0-0_フレ__ム
  6
CONTINUOUS
 62
    7
 10
30.900877920190908
 20
105.61446200509718
 11
30.97718665575195
 21
105.6183524261468
  0
LINE
  8
_0-0_フレ__ム
  6
CONTINUOUS
 62
    7
 10
31.82812547840291
 20
105.61834356517912
 11
31.818921618431943
 21
105.5990409416485
  0
LINE
  8
_0-0_フレ__ム
  6
CONTINUOUS
 62
    7
 10
31.818921618431943
 20
105.5990409416485
 11
31.815688362064691
 21
105.56307292201123
  0
LINE
  8
_0-0_フレ__ム
  6
CONTINUOUS
 62
    7
 10
31.815688362064691
 20
105.56307292201123
 11
31.814554007345407
 21
105.50804212253107
  0
LINE
  8
_0-0_フレ__ム
  6
CONTINUOUS
 62
    7
 10
31.814554007345407
 20
105.50804212253107
 11
31.814736031917221
 21
105.45335813809132
  0
LINE
  8
_0-0_フレ__ム
  6
CONTINUOUS
 62
    7
 10
31.814736031917221
 20
105.45335813809132
 11
31.815478332557916
 21
105.38803231570469
  0
LINE
  8
_0-0_フレ__ム
  6
CONTINUOUS
 62
    7
 10
31.815478332557916
 20
105.38803231570469
 11
31.816799338324302
 21
105.28078634854947
  0
LINE
  8
_0-0_フレ__ム
  6
CONTINUOUS
 62
    7
 10
31.816799338324302
 20
105.28078634854947
 11
31.817597917906653
 21
105.17323529001615
  0
LINE
  8
_0-0_フレ__ム
  6
CONTINUOUS
 62
    7
 10
31.817597917906653
 20
105.17323529001615
 11
31.816397543512096
 21
105.1183524261468
  0
LINE
  8
_0-0_フレ__ム
  6
CONTINUOUS
 62
    7
 10
31.816397543512096
 20
105.1183524261468
 11
31.814529055659534
 21
105.03819295642111
  0
LINE
  8
_0-0_フレ__ム
  6
CONTINUOUS
 62
    7
 10
31.814529055659534
 20
105.03819295642111
 11
31.814529055659534
 21
95.618352426095868
  0
LINE
  8
_0-0_フレ__ム
  6
CONTINUOUS
 62
    7
 10
29.9003154932862
 20
95.618352426095868
 11
29.9003154932862
 21
98.605259465278351
  0
LINE
  8
_0-0_フレ__ム
  6
CONTINUOUS
 62
    7
 10
29.900486948308014
 20
98.618352426166581
 11
29.453473588635291
 21
98.618352426166581
  0
LINE
  8
_0-0_フレ__ム
  6
CONTINUOUS
 62
    7
 10
29.33390122295765
 20
95.668352426166763
 11
29.9003154932862
 21
95.668352426166763
  0
LINE
  8
_0-0_フレ__ム
  6
CONTINUOUS
 62
    7
 10
34.96600091823467
 20
95.618352426095868
 11
34.96600091823467
 21
94.118352426095868
  0
LINE
  8
_0-0_フレ__ム
  6
CONTINUOUS
 62
    7
 10
40.011228196760044
 20
95.618352426095868
 11
40.011228196760044
 21
98.230572177210007
  0
LINE
  8
_0-0_フレ__ム
  6
CONTINUOUS
 62
    7
 10
40.011228196760044
 20
98.230572177210007
 11
40.011428274909292
 21
98.252548707918464
  0
LINE
  8
_0-0_フレ__ム
  6
CONTINUOUS
 62
    7
 10
40.011428274909292
 20
98.252548707918464
 11
40.0167988798176
 21
98.346329001526129
  0
LINE
  8
_0-0_フレ__ム
  6
CONTINUOUS
 62
    7
 10
40.0167988798176
 20
98.346329001526129
 11
40.030258675604387
 21
98.443576201444245
  0
LINE
  8
_0-0_フレ__ム
  6
CONTINUOUS
 62
    7
 10
40.030258675604387
 20
98.443576201444245
 11
40.051649512492816
 21
98.538805672207019
  0
LINE
  8
_0-0_フレ__ム
  6
CONTINUOUS
 62
    7
 10
40.051649512492816
 20
98.538805672207019
 11
40.069500833667973
 21
98.598454114588009
  0
LINE
  8
_0-0_フレ__ム
  6
CONTINUOUS
 62
    7
 10
40.069489957418227
 20
98.598421085958677
 11
40.10798014031127
 21
98.694427526219584
  0
LINE
  8
_0-0_フレ__ム
  6
CONTINUOUS
 62
    7
 10
40.10798014031127
 20
98.694427526219584
 11
40.148367472558107
 21
98.769224264878773
  0
LINE
  8
_0-0_フレ__ム
  6
CONTINUOUS
 62
    7
 10
40.148367472558107
 20
98.769224264878773
 11
40.185193650921178
 21
98.824762702638878
  0
LINE
  8
_0-0_フレ__ム
  6
CONTINUOUS
 62
    7
 10
40.185193650921178
 20
98.824762702638878
 11
40.215667372663518
 21
98.864512327861945
  0
LINE
  8
_0-0_フレ__ム
  6
CONTINUOUS
 62
    7
 10
40.215667372663518
 20
98.864512327861945
 11
40.246693341421519
 21
98.900568700377249
  0
LINE
  8
_0-0_フレ__ム
  6
CONTINUOUS
 62
    7
 10
40.246693341421519
 20
98.900568700377249
 11
40.28020272505961
 21
98.935461822185204
  0
LINE
  8
_0-0_フレ__ム
  6
CONTINUOUS
 62
    7
 10
40.28020272505961
 20
98.935461822185204
 11
40.334813497947039
 21
98.985078559946743
  0
LINE
  8
_0-0_フレ__ム
  6
CONTINUOUS
 62
    7
 10
40.334813497947039
 20
98.985078559946743
 11
40.393530226362145
 21
99.030392948362902
  0
LINE
  8
_0-0_フレ__ム
  6
CONTINUOUS
 62
    7
 10
40.393530226362145
 20
99.030392948362902
 11
40.454019200685821
 21
99.070067629840793
  0
LINE
  8
_0-0_フレ__ム
  6
CONTINUOUS
 62
    7
 10
40.454019200685821
 20
99.070067629840793
 11
40.503037934172994
 21
99.097833888779093
  0
LINE
  8
_0-0_フレ__ム
  6
CONTINUOUS
 62
    7
 10
40.503037934172994
 20
99.097833888779093
 11
40.541339578444592
 21
99.117124491568831
  0
LINE
  8
_0-0_フレ__ム
  6
CONTINUOUS
 62
    7
 10
40.541339578444592
 20
99.117124491568831
 11
40.594064460606035
 21
99.140582332818809
  0
LINE
  8
_0-0_フレ__ム
  6
CONTINUOUS
 62
    7
 10
40.594064460606035
 20
99.140582332818809
 11
40.662359707681901
 21
99.166185036492749
  0
LINE
  8
_0-0_フレ__ム
  6
CONTINUOUS
 62
    7
 10
40.662359707681901
 20
99.166185036492749
 11
40.73245170330398
 21
99.18743766207993
  0
LINE
  8
_0-0_フレ__ム
  6
CONTINUOUS
 62
    7
 10
40.73245170330398
 20
99.18743766207993
 11
40.803306163670015
 21
99.204211861847085
  0
LINE
  8
_0-0_フレ__ム
  6
CONTINUOUS
 62
    7
 10
40.803306163670015
 20
99.204211861847085
 11
40.876655153673937
 21
99.216943440243455
  0
LINE
  8
_0-0_フレ__ム
  6
CONTINUOUS
 62
    7
 10
40.876655153673937
 20
99.216943440243455
 11
40.959499447774419
 21
99.226159363867311
  0
LINE
  8
_0-0_フレ__ム
  6
CONTINUOUS
 62
    7
 10
40.959499447774419
 20
99.226159363867311
 11
41.068917033729917
 21
99.230572177210007
  0
LINE
  8
_0-0_フレ__ム
  6
CONTINUOUS
 62
    7
 10
41.068916858581588
 20
99.230572177210007
 11
42.545844335945276
 21
99.230572177210007
  0
LINE
  8
_0-0_フレ__ム
  6
CONTINUOUS
 62
    7
 10
42.545844335945276
 20
99.230572177210007
 11
42.844680574675408
 21
99.20686818432992
  0
LINE
  8
_0-0_フレ__ム
  6
CONTINUOUS
 62
    7
 10
42.844680574675408
 20
99.20686818432992
 11
43.14351681340554
 21
99.136879964246788
  0
LINE
  8
_0-0_フレ__ム
  6
CONTINUOUS
 62
    7
 10
43.850623594592548
 20
99.136879964246788
 11
43.857828274643225
 21
99.202758055952842
  0
LINE
  8
_0-0_フレ__ム
  6
CONTINUOUS
 62
    7
 10
43.857828274643225
 20
99.202758055952842
 11
43.852841092346068
 21
99.22990682852938
  0
LINE
  8
_0-0_フレ__ム
  6
CONTINUOUS
 62
    7
 10
44.328078044387098
 20
99.147647871413739
 11
44.387736885348033
 21
99.181387193794677
  0
LINE
  8
_0-0_フレ__ム
  6
CONTINUOUS
 62
    7
 10
44.387736885348033
 20
99.181387193794677
 11
44.454282545879664
 21
99.207587799091613
  0
LINE
  8
_0-0_フレ__ム
  6
CONTINUOUS
 62
    7
 10
44.454282545879664
 20
99.207587799091613
 11
44.526921351547571
 21
99.224550420808924
  0
LINE
  8
_0-0_フレ__ム
  6
CONTINUOUS
 62
    7
 10
44.526921351547571
 20
99.224550420808924
 11
44.604450698603443
 21
99.230572177210007
  0
LINE
  8
_0-0_フレ__ム
  6
CONTINUOUS
 62
    7
 10
44.328078341895605
 20
99.147648067609254
 11
43.725051340302002
 21
98.749976716691805
  0
LINE
  8
_0-0_フレ__ム
  6
CONTINUOUS
 62
    7
 10
43.725051340302002
 20
98.749976716691805
 11
43.584803086433908
 21
98.637344402938112
  0
LINE
  8
_0-0_フレ__ム
  6
CONTINUOUS
 62
    7
 10
43.584803086433908
 20
98.637344402938112
 11
43.471983590371451
 21
98.503188962591508
  0
LINE
  8
_0-0_フレ__ム
  6
CONTINUOUS
 62
    7
 10
43.471983590371451
 20
98.503188962591508
 11
43.3903873972464
 21
98.352022549054624
  0
LINE
  8
_0-0_フレ__ム
  6
CONTINUOUS
 62
    7
 10
43.3903873972464
 20
98.352022549054624
 11
43.342758894759413
 21
98.188929458912668
  0
LINE
  8
_0-0_フレ__ム
  6
CONTINUOUS
 62
    7
 10
43.288672260948147
 20
98.252603646521521
 11
43.247266543028672
 21
98.140577197463728
  0
LINE
  8
_0-0_フレ__ム
  6
CONTINUOUS
 62
    7
 10
43.247266543026456
 20
98.140577197456338
 11
43.207057565054015
 21
97.957175635980008
  0
LINE
  8
_0-0_フレ__ム
  6
CONTINUOUS
 62
    7
 10
43.207057565054015
 20
97.957175635980008
 11
43.196688331718178
 21
97.861117986837513
  0
LINE
  8
_0-0_フレ__ム
  6
CONTINUOUS
 62
    7
 10
43.196688331718178
 20
97.861117986837513
 11
43.193208712100557
 21
97.764264519055502
  0
LINE
  8
_0-0_フレ__ム
  6
CONTINUOUS
 62
    7
 10
43.193208712100557
 20
97.764264519055502
 11
43.193208712100557
 21
95.618352426095868
  0
LINE
  8
_0-0_フレ__ム
  6
CONTINUOUS
 62
    7
 10
43.288672260948147
 20
98.252603646521521
 11
43.329488861705613
 21
98.334464141755603
  0
LINE
  8
_0-0_フレ__ム
  6
CONTINUOUS
 62
    7
 10
43.329488861705613
 20
98.334464141755603
 11
43.363038883355443
 21
98.390525505603279
  0
LINE
  8
_0-0_フレ__ム
  6
CONTINUOUS
 62
    7
 10
43.363038883355443
 20
98.390525505603279
 11
43.390556124574459
 21
98.431340258359711
  0
LINE
  8
_0-0_フレ__ム
  6
CONTINUOUS
 62
    7
 10
43.390556124574459
 20
98.431340258359711
 11
43.413346681772282
 21
98.462376691153992
  0
LINE
  8
_0-0_フレ__ム
  6
CONTINUOUS
 62
    7
 10
43.413346681772282
 20
98.462376691153992
 11
43.436073141924453
 21
98.491233164105694
  0
LINE
  8
_0-0_フレ__ム
  6
CONTINUOUS
 62
    7
 10
43.436073141924453
 20
98.491233164105694
 11
43.475237580548821
 21
98.536908931843101
  0
LINE
  8
_0-0_フレ__ム
  6
CONTINUOUS
 62
    7
 10
43.475237580548821
 20
98.536908931843101
 11
43.524621554448004
 21
98.588482273606616
  0
LINE
  8
_0-0_フレ__ム
  6
CONTINUOUS
 62
    7
 10
43.524621554448004
 20
98.588482273606616
 11
43.577054912119479
 21
98.637229019937223
  0
LINE
  8
_0-0_フレ__ム
  6
CONTINUOUS
 62
    7
 10
43.577054912119479
 20
98.637229019937223
 11
43.63919625822308
 21
98.688507782571975
  0
LINE
  8
_0-0_フレ__ム
  6
CONTINUOUS
 62
    7
 10
43.63919625822308
 20
98.688507782571975
 11
43.725051515935775
 21
98.749976832514932
  0
LINE
  8
_0-0_フレ__ム
  6
CONTINUOUS
 62
    7
 10
46.258977697238379
 20
98.816001610979953
 11
46.208312659818262
 21
98.957945818783088
  0
LINE
  8
_0-0_フレ__ム
  6
CONTINUOUS
 62
    7
 10
46.208312659818262
 20
98.957945818783088
 11
46.163774866670337
 21
99.07396362302282
  0
LINE
  8
_0-0_フレ__ム
  6
CONTINUOUS
 62
    7
 10
46.163774866670337
 20
99.07396362302282
 11
46.126951816616383
 21
99.159919701436735
  0
LINE
  8
_0-0_フレ__ム
  6
CONTINUOUS
 62
    7
 10
46.126951816616383
 20
99.159919701436735
 11
46.099156025262516
 21
99.212750247680702
  0
LINE
  8
_0-0_フレ__ム
  6
CONTINUOUS
 62
    7
 10
46.099156025262516
 20
99.212750247680702
 11
46.081378241878326
 21
99.230572177210007
  0
LINE
  8
_0-0_フレ__ム
  6
CONTINUOUS
 62
    7
 10
46.258977697238379
 20
98.816001610979953
 11
46.313964081477707
 21
98.653190438950702
  0
LINE
  8
_0-0_フレ__ム
  6
CONTINUOUS
 62
    7
 10
46.313964081477707
 20
98.653190438950702
 11
46.363453226501747
 21
98.447011791148185
  0
LINE
  8
_0-0_フレ__ム
  6
CONTINUOUS
 62
    7
 10
46.363453226501747
 20
98.447011791148185
 11
46.380214480608458
 21
98.230572177210007
  0
LINE
  8
_0-0_フレ__ム
  6
CONTINUOUS
 62
    7
 10
46.380214480608458
 20
98.230572177210007
 11
46.380214480608458
 21
95.618352426095868
  0
LINE
  8
_0-0_フレ__ム
  6
CONTINUOUS
 62
    7
 10
57.112029467408604
 20
104.68147693480196
 11
57.126036112169118
 21
104.78473792285118
  0
LINE
  8
_0-0_フレ__ム
  6
CONTINUOUS
 62
    7
 10
57.126036112169118
 20
104.78473792285118
 11
57.146654539139377
 21
104.86737869482786
  0
LINE
  8
_0-0_フレ__ム
  6
CONTINUOUS
 62
    7
 10
57.146654539139377
 20
104.86737869482786
 11
57.16821113912215
 21
104.93011236300234
  0
LINE
  8
_0-0_フレ__ム
  6
CONTINUOUS
 62
    7
 10
57.16821113912215
 20
104.93011236300234
 11
57.187117434625065
 21
104.97535471700556
  0
LINE
  8
_0-0_フレ__ム
  6
CONTINUOUS
 62
    7
 10
57.187117434625065
 20
104.97535471700556
 11
57.209799975896317
 21
105.02210702608878
  0
LINE
  8
_0-0_フレ__ム
  6
CONTINUOUS
 62
    7
 10
57.209799975896317
 20
105.02210702608878
 11
57.228682662309097
 21
105.05655333807786
  0
LINE
  8
_0-0_フレ__ム
  6
CONTINUOUS
 62
    7
 10
57.228682662309097
 20
105.05655333807786
 11
57.250004487209821
 21
105.09175453345634
  0
LINE
  8
_0-0_フレ__ム
  6
CONTINUOUS
 62
    7
 10
57.250004487209821
 20
105.09175453345634
 11
57.300847859276928
 21
105.1640927220499
  0
LINE
  8
_0-0_フレ__ム
  6
CONTINUOUS
 62
    7
 10
57.300847859276928
 20
105.1640927220499
 11
57.365475156348566
 21
105.23957572559007
  0
LINE
  8
_0-0_フレ__ム
  6
CONTINUOUS
 62
    7
 10
57.365475156348566
 20
105.23957572559007
 11
57.436746338358034
 21
105.30818384534714
  0
LINE
  8
_0-0_フレ__ム
  6
CONTINUOUS
 62
    7
 10
57.436746338358034
 20
105.30818384534714
 11
57.513733804423623
 21
105.36981005520138
  0
LINE
  8
_0-0_フレ__ム
  6
CONTINUOUS
 62
    7
 10
57.513733804423623
 20
105.36981005520138
 11
57.627539777776065
 21
105.44321525034334
  0
LINE
  8
_0-0_フレ__ム
  6
CONTINUOUS
 62
    7
 10
57.627539777776065
 20
105.44321525034334
 11
57.737262072146109
 21
105.49850249983061
  0
LINE
  8
_0-0_フレ__ム
  6
CONTINUOUS
 62
    7
 10
57.737262072146109
 20
105.49850249983061
 11
57.850154990448857
 21
105.5425754957578
  0
LINE
  8
_0-0_フレ__ム
  6
CONTINUOUS
 62
    7
 10
57.850154990448857
 20
105.5425754957578
 11
57.946023032300843
 21
105.57129815358476
  0
LINE
  8
_0-0_フレ__ム
  6
CONTINUOUS
 62
    7
 10
57.946023032300843
 20
105.57129815358476
 11
58.043175151560547
 21
105.59298622593488
  0
LINE
  8
_0-0_フレ__ム
  6
CONTINUOUS
 62
    7
 10
58.043175151560547
 20
105.59298622593488
 11
58.10714590875159
 21
105.60333525206116
  0
LINE
  8
_0-0_フレ__ム
  6
CONTINUOUS
 62
    7
 10
58.10714590875159
 20
105.60333525206116
 11
58.195855520064583
 21
105.61262906639027
  0
LINE
  8
_0-0_フレ__ム
  6
CONTINUOUS
 62
    7
 10
58.195855520064583
 20
105.61262906639027
 11
58.316799518201208
 21
105.61594478948294
  0
LINE
  8
_0-0_フレ__ム
  6
CONTINUOUS
 62
    7
 10
58.316799518201208
 20
105.61682011243298
 11
58.316799518201208
 21
105.6183524261468
  0
LINE
  8
_0-0_フレ__ム
  6
CONTINUOUS
 62
    7
 10
33.457116318453359
 20
105.52466021318347
 11
33.295431987132361
 21
105.56831947209176
  0
LINE
  8
_0-0_フレ__ム
  6
CONTINUOUS
 62
    7
 10
33.295431987132361
 20
105.56831947209176
 11
33.203398001621622
 21
105.59008337694186
  0
LINE
  8
_0-0_フレ__ム
  6
CONTINUOUS
 62
    7
 10
33.203398001621622
 20
105.59008337694186
 11
33.145595850978793
 21
105.60265542349671
  0
LINE
  8
_0-0_フレ__ム
  6
CONTINUOUS
 62
    7
 10
33.145595850978793
 20
105.60265542349671
 11
33.093382195124036
 21
105.61169979443608
  0
LINE
  8
_0-0_フレ__ム
  6
CONTINUOUS
 62
    7
 10
33.093382195124036
 20
105.61169979443608
 11
33.014121727840688
 21
105.6183222259946
  0
LINE
  8
_0-0_フレ__ム
  6
CONTINUOUS
 62
    7
 10
33.014121727840688
 20
105.6183222259946
 11
33.008861960358104
 21
105.6183524261468
  0
LINE
  8
_0-0_フレ__ム
  6
CONTINUOUS
 62
    7
 10
31.828396260079842
 20
105.6183524261468
 11
31.82812547840291
 21
105.61834356517912
  0
LINE
  8
_0-0_フレ__ム
  6
CONTINUOUS
 62
    7
 10
14.966000918235011
 20
95.618352426095868
 11
74.966000918234897
 21
95.618352426095868
  0
LINE
  8
_0-0_フレ__ム
  6
CONTINUOUS
 62
    7
 10
74.966000918234897
 20
95.618352426095868
 11
74.966000918234897
 21
94.118352426095868
  0
LINE
  8
_0-0_フレ__ム
  6
CONTINUOUS
 62
    7
 10
73.466000918234897
 20
92.618352426095868
 11
16.466000918235011
 21
92.618352426095868
  0
LINE
  8
_0-0_フレ__ム
  6
CONTINUOUS
 62
    7
 10
14.966000918235011
 20
94.118352426095868
 11
14.966000918235011
 21
95.618352426095868
  0
CIRCLE
  8
_0-0_フレ__ム
  6
CONTINUOUS
 62
    7
 10
58.96600091828077
 20
49.097045117457839
 40
4
  0
CIRCLE
  8
_0-0_フレ__ム
  6
CONTINUOUS
 62
    7
 10
30.96600091818442
 20
21.097045117361546
 40
4
  0
ARC
  8
_0-0_フレ__ム
  6
CONTINUOUS
 62
    7
 10
16.466000918235011
 20
6.5970451174065659
 40
1.5
 50
180
 51
270
  0
ARC
  8
_0-0_フレ__ム
  6
CONTINUOUS
 62
    7
 10
73.466000918234897
 20
63.597045117406793
 40
1.5
 50
359.99999999999784
 51
90.000000000000028
  0
ARC
  8
_0-0_フレ__ム
  6
CONTINUOUS
 62
    7
 10
36.466000918234613
 20
63.597045117406793
 40
1.5
 50
90
 51
179.99999999999571
  0
ARC
  8
_0-0_フレ__ム
  6
CONTINUOUS
 62
    7
 10
73.466000918234897
 20
6.5970451174065659
 40
1.5
 50
270
 51
0.0000000000021627
  0
ARC
  8
_0-0_フレ__ム
  6
CONTINUOUS
 62
    7
 10
16.466000918235011
 20
43.597045117406793
 40
1.5
 50
90
 51
180
  0
ARC
  8
_0-0_フレ__ム
  6
CONTINUOUS
 62
    7
 10
34.46600091823467
 20
45.597045117406793
 40
0.5
 50
270
 51
0
  0
ARC
  8
_0-0_フレ__ム
  6
CONTINUOUS
 62
    7
 10
57.516253449929195
 20
103.37072504290134
 40
0.5
 50
175.7612279774284
 51
177.87771010412723
  0
ARC
  8
_0-0_フレ__ム
  6
CONTINUOUS
 62
    7
 10
57.339655321505347
 20
98.605259462743817
 40
0.5
 50
177.87771010412899
 51
180
  0
ARC
  8
_0-0_フレ__ム
  6
CONTINUOUS
 62
    7
 10
55.99615243725151
 20
105.1183524261468
 40
0.5
 50
90
 51
180.00000000000159
  0
ARC
  8
_0-0_フレ__ム
  6
CONTINUOUS
 62
    7
 10
55.916592573153821
 20
105.1183524261468
 40
0.5
 50
92.569547575571306
 51
123.40319873424171
  0
ARC
  8
_0-0_フレ__ム
  6
CONTINUOUS
 62
    7
 10
30.400315493286314
 20
98.605259465278351
 40
0.5
 50
177.87771010413061
 51
180
  0
ARC
  8
_0-0_フレ__ム
  6
CONTINUOUS
 62
    7
 10
34.015409263316769
 20
105.1183524261468
 40
0.5
 50
56.596801265757968
 51
87.429090931869013
  0
ARC
  8
_0-0_フレ__ム
  6
CONTINUOUS
 62
    7
 10
36.466000918234613
 20
94.118352426095868
 40
1.5
 50
179.99999999999949
 51
270
  0
ARC
  8
_0-0_フレ__ム
  6
CONTINUOUS
 62
    7
 10
73.466000918234897
 20
94.118352426095868
 40
1.5
 50
270
 51
359.99999999999892
  0
ARC
  8
_0-0_フレ__ム
  6
CONTINUOUS
 62
    7
 10
62.466000918234442
 20
105.1183524261468
 40
0.5
 50
0.0000000000016284
 51
89.999999999999972
  0
ARC
  8
_0-0_フレ__ム
  6
CONTINUOUS
 62
    7
 10
16.466000918235011
 20
94.118352426095868
 40
1.5
 50
179.99999999999949
 51
270
  0
ARC
  8
_0-0_フレ__ム
  6
CONTINUOUS
 62
    7
 10
27.466000918235011
 20
105.1183524261468
 40
0.5
 50
90
 51
180
  0
LINE
  8
_0-0_フレ__ム
  6
CONTINUOUS
 62
    7
 10
62.807607503903057
 20
8.9085786090667227
 11
64.522818835479995
 21
8.9085786090667227
  0
LINE
  8
_0-0_フレ__ム
  6
CONTINUOUS
 62
    7
 10
64.522818835479995
 20
8.9085786090667227
 11
64.522818835479995
 21
9.3453281332025711
  0
LINE
  8
_0-0_フレ__ム
  6
CONTINUOUS
 62
    7
 10
64.522818835479995
 20
9.3453281332025711
 11
63.418534137983045
 21
9.3453281332025711
  0
LINE
  8
_0-0_フレ__ム
  6
CONTINUOUS
 62
    7
 10
63.418534137983045
 20
9.3453281332025711
 11
63.418534137983045
 21
11.358452100186611
  0
LINE
  8
_0-0_フレ__ム
  6
CONTINUOUS
 62
    7
 10
63.418534137983045
 20
11.358452100186611
 11
62.807607503903057
 21
11.358452100186611
  0
LINE
  8
_0-0_フレ__ム
  6
CONTINUOUS
 62
    7
 10
62.807607503903057
 20
11.358452100186611
 11
62.807607503903057
 21
8.9085786090667227
  0
LINE
  8
_0-0_フレ__ム
  6
CONTINUOUS
 62
    7
 10
64.994174402893691
 20
8.9085786090667227
 11
64.994174402893691
 21
11.358452100186611
  0
LINE
  8
_0-0_フレ__ム
  6
CONTINUOUS
 62
    7
 10
64.994174402893691
 20
11.358452100186611
 11
66.709832152747367
 21
11.358452100186611
  0
LINE
  8
_0-0_フレ__ム
  6
CONTINUOUS
 62
    7
 10
66.709832152747367
 20
11.358452100186611
 11
66.709832152747367
 21
10.921702576085096
  0
LINE
  8
_0-0_フレ__ム
  6
CONTINUOUS
 62
    7
 10
66.709832152747367
 20
10.921702576085096
 11
65.602934505422013
 21
10.921702576085096
  0
LINE
  8
_0-0_フレ__ム
  6
CONTINUOUS
 62
    7
 10
65.602934505422013
 20
10.921702576085096
 11
65.602934505422013
 21
10.353569399358463
  0
LINE
  8
_0-0_フレ__ム
  6
CONTINUOUS
 62
    7
 10
65.602934505422013
 20
10.353569399358463
 11
66.604278915394957
 21
10.353569399358463
  0
LINE
  8
_0-0_フレ__ム
  6
CONTINUOUS
 62
    7
 10
66.604278915394957
 20
10.353569399358463
 11
66.604278915394957
 21
9.9435881057824247
  0
LINE
  8
_0-0_フレ__ム
  6
CONTINUOUS
 62
    7
 10
66.604278915394957
 20
9.9435881057824247
 11
65.602934505422013
 21
9.9435881057824247
  0
LINE
  8
_0-0_フレ__ム
  6
CONTINUOUS
 62
    7
 10
65.602934505422013
 20
9.9435881057824247
 11
65.602934505422013
 21
9.3453281332025711
  0
LINE
  8
_0-0_フレ__ム
  6
CONTINUOUS
 62
    7
 10
65.602934505422013
 20
9.3453281332025711
 11
66.709832152747367
 21
9.3453281332025711
  0
LINE
  8
_0-0_フレ__ム
  6
CONTINUOUS
 62
    7
 10
66.709832152747367
 20
9.3453281332025711
 11
66.709832152747367
 21
8.9085786090667227
  0
LINE
  8
_0-0_フレ__ム
  6
CONTINUOUS
 62
    7
 10
66.709832152747367
 20
8.9085786090667227
 11
64.994174402893691
 21
8.9085786090667227
  0
LINE
  8
_0-0_フレ__ム
  6
CONTINUOUS
 62
    7
 10
68.276999481017924
 20
9.7440023083146627
 11
68.91418676757246
 21
9.7440023083146627
  0
LINE
  8
_0-0_フレ__ム
  6
CONTINUOUS
 62
    7
 10
68.898083371890721
 20
10.62679505236261
 11
68.273962596526303
 21
10.62679505236261
  0
ARC
  8
_0-0_フレ__ム
  6
CONTINUOUS
 62
    7
 10
70.036224312794729
 20
10.133515354626667
 40
2.8787836133968563
 50
164.21600247589294
 51
195.78399752410709
  0
ARC
  8
_0-0_フレ__ム
  6
CONTINUOUS
 62
    7
 10
67.91473288933696
 20
9.5753309479950133
 40
0.6866147596063365
 50
199.11812031409383
 51
253.77089632225113
  0
ARC
  8
_0-0_フレ__ム
  6
CONTINUOUS
 62
    7
 10
68.049050334787466
 20
10.198727924709516
 40
1.3234835615556071
 50
255.7307072235771
 51
284.2692927764229
  0
ARC
  8
_0-0_フレ__ム
  6
CONTINUOUS
 62
    7
 10
68.183367780237745
 20
9.5753309479950133
 40
0.6866147596063365
 50
286.22910367774887
 51
340.8818796859062
  0
ARC
  8
_0-0_フレ__ム
  6
CONTINUOUS
 62
    7
 10
66.06187635678009
 20
10.133515354626667
 40
2.8787836133968563
 50
344.21600247589294
 51
352.22375855280194
  0
ARC
  8
_0-0_フレ__ム
  6
CONTINUOUS
 62
    7
 10
68.049050334787466
 20
9.4943339813422938
 40
0.1990355837046196
 50
198.7809348325886
 51
341.21906516741143
  0
ARC
  8
_0-0_フレ__ム
  6
CONTINUOUS
 62
    7
 10
67.165600022861668
 20
9.7246012916904476
 40
1.1115687810639558
 50
344.64474174215434
 51
1.000075600874925
  0
ARC
  8
_0-0_フレ__ム
  6
CONTINUOUS
 62
    7
 10
68.049050334787466
 20
10.772696727910812
 40
0.1990355837046196
 50
18.780934832588589
 51
161.21906516741137
  0
ARC
  8
_0-0_フレ__ム
  6
CONTINUOUS
 62
    7
 10
67.165600022861668
 20
10.542429417562659
 40
1.1115687810639558
 50
4.3528100028009122
 51
15.355258257845675
  0
ARC
  8
_0-0_フレ__ム
  6
CONTINUOUS
 62
    7
 10
68.183367780237745
 20
10.691699761258093
 40
0.6866147596063365
 50
19.118120314093819
 51
73.770896322251133
  0
ARC
  8
_0-0_フレ__ム
  6
CONTINUOUS
 62
    7
 10
66.06187635678009
 20
10.133515354626667
 40
2.8787836133968563
 50
9.8663227198208787
 51
15.783997524107056
  0
ARC
  8
_0-0_フレ__ム
  6
CONTINUOUS
 62
    7
 10
68.049050334787466
 20
10.06830278454359
 40
1.3234835615556071
 50
75.730707223577113
 51
104.2692927764229
  0
ARC
  8
_0-0_フレ__ム
  6
CONTINUOUS
 62
    7
 10
67.91473288933696
 20
10.691699761258093
 40
0.6866147596063365
 50
106.22910367774887
 51
160.88187968590617
  0
ARC
  8
_0-0_フレ__ム
  6
CONTINUOUS
 62
    7
 10
72.183375072830131
 20
10.133515354626667
 40
2.8787836133968563
 50
164.21600247589294
 51
195.78399752410709
  0
ARC
  8
_0-0_フレ__ム
  6
CONTINUOUS
 62
    7
 10
77.2679797903902
 20
10.133515354621437
 40
7.3112867397731955
 50
176.78919008197266
 51
183.21080991802734
  0
ARC
  8
_0-0_フレ__ム
  6
CONTINUOUS
 62
    7
 10
63.124422399255366
 20
10.133515354621437
 40
7.3112867397731955
 50
356.78919008197266
 51
3.2108099180273384
  0
ARC
  8
_0-0_フレ__ム
  6
CONTINUOUS
 62
    7
 10
70.196201094822868
 20
9.4943339813422938
 40
0.1990355837046196
 50
198.7809348325886
 51
341.21906516741143
  0
ARC
  8
_0-0_フレ__ム
  6
CONTINUOUS
 62
    7
 10
70.196201094822868
 20
10.198727924709516
 40
1.3234835615556071
 50
255.7307072235771
 51
284.2692927764229
  0
ARC
  8
_0-0_フレ__ム
  6
CONTINUOUS
 62
    7
 10
70.330518540273147
 20
9.5753309479950133
 40
0.6866147596063365
 50
286.22910367774887
 51
340.8818796859062
  0
ARC
  8
_0-0_フレ__ム
  6
CONTINUOUS
 62
    7
 10
70.061883649372362
 20
9.5753309479950133
 40
0.6866147596063365
 50
199.11812031409383
 51
253.77089632225113
  0
ARC
  8
_0-0_フレ__ム
  6
CONTINUOUS
 62
    7
 10
68.209027116815491
 20
10.133515354626667
 40
2.8787836133968563
 50
344.21600247589294
 51
15.783997524107075
  0
ARC
  8
_0-0_フレ__ム
  6
CONTINUOUS
 62
    7
 10
69.312750782897069
 20
9.7246012916904476
 40
1.1115687810639558
 50
344.64474174215434
 51
0.7192243074051015
  0
ARC
  8
_0-0_フレ__ム
  6
CONTINUOUS
 62
    7
 10
71.079651406748667
 20
9.7246012916904476
 40
1.1115687810639558
 50
179.28077569259483
 51
195.35525825784563
  0
ARC
  8
_0-0_フレ__ム
  6
CONTINUOUS
 62
    7
 10
71.079651406748667
 20
10.542429417562659
 40
1.1115687810639558
 50
164.64474174215434
 51
180.71922430740514
  0
ARC
  8
_0-0_フレ__ム
  6
CONTINUOUS
 62
    7
 10
70.196201094822868
 20
10.772696727910812
 40
0.1990355837046196
 50
18.780934832588589
 51
161.21906516741137
  0
ARC
  8
_0-0_フレ__ム
  6
CONTINUOUS
 62
    7
 10
69.312750782897069
 20
10.542429417562659
 40
1.1115687810639558
 50
359.28077569259489
 51
15.355258257845644
  0
ARC
  8
_0-0_フレ__ム
  6
CONTINUOUS
 62
    7
 10
70.196201094822868
 20
10.06830278454359
 40
1.3234835615556071
 50
75.730707223577113
 51
104.2692927764229
  0
ARC
  8
_0-0_フレ__ム
  6
CONTINUOUS
 62
    7
 10
70.061883649372362
 20
10.691699761258093
 40
0.6866147596063365
 50
106.22910367774887
 51
160.88187968590617
  0
ARC
  8
_0-0_フレ__ム
  6
CONTINUOUS
 62
    7
 10
70.330518540273147
 20
10.691699761258093
 40
0.6866147596063365
 50
19.118120314093819
 51
73.770896322251133
  0
LINE
  8
_0-0_フレ__ム
  6
CONTINUOUS
 62
    7
 10
61.966000918234897
 20
11.697045117412159
 11
61.966000918234897
 21
8.4970451174121138
  0
LINE
  8
_0-0_フレ__ム
  6
CONTINUOUS
 62
    7
 10
62.366000918234988
 20
8.0970451174120228
 11
71.566000918234863
 21
8.0970451174120228
  0
LINE
  8
_0-0_フレ__ム
  6
CONTINUOUS
 62
    7
 10
71.966000918234954
 20
8.4970451174121138
 11
71.966000918234954
 21
11.697045117412159
  0
LINE
  8
_0-0_フレ__ム
  6
CONTINUOUS
 62
    7
 10
71.566000918234863
 20
12.097045117412023
 11
62.366000918234988
 21
12.097045117412023
  0
ARC
  8
_0-0_フレ__ム
  6
CONTINUOUS
 62
    7
 10
62.366000918234988
 20
11.697045117412159
 40
0.4
 50
89.999999999999986
 51
180
  0
ARC
  8
_0-0_フレ__ム
  6
CONTINUOUS
 62
    7
 10
62.366000918234988
 20
8.4970451174121138
 40
0.4
 50
180
 51
270
  0
ARC
  8
_0-0_フレ__ム
  6
CONTINUOUS
 62
    7
 10
71.566000918234863
 20
11.697045117412159
 40
0.4
 50
0
 51
90
  0
ARC
  8
_0-0_フレ__ム
  6
CONTINUOUS
 62
    7
 10
71.566000918234863
 20
8.4970451174121138
 40
0.4
 50
270
 51
0
  0
ARC
  8
_0-0_フレ__ム
  6
CONTINUOUS
 62
    7
 10
68.932500646713265
 20
9.7246012916904476
 40
1.1115687810639558
 50
179.95018777565821
 51
195.35525825784566
  0
ARC
  8
_0-0_フレ__ム
  6
CONTINUOUS
 62
    7
 10
75.120829030354798
 20
10.133515354621437
 40
7.3112867397731955
 50
176.80140769187616
 51
183.19859230812179
  0
ARC
  8
_0-0_フレ__ム
  6
CONTINUOUS
 62
    7
 10
68.932500646713265
 20
10.542429417562659
 40
1.1115687810639558
 50
164.64474174215434
 51
180.04981222485597
  0
LINE
  8
_0-0_フレ__ム
  6
CONTINUOUS
 62
    7
 10
129.42732765028074
 20
47.243195123004426
 11
129.58758131254626
 21
47.270785596189086
  0
LINE
  8
_0-0_フレ__ム
  6
CONTINUOUS
 62
    7
 10
129.58758131254626
 20
47.270785596189086
 11
129.72278331353107
 21
47.319273389012693
  0
LINE
  8
_0-0_フレ__ム
  6
CONTINUOUS
 62
    7
 10
129.72278331353107
 20
47.319273389012693
 11
129.83265581056094
 21
47.378030669810329
  0
LINE
  8
_0-0_フレ__ム
  6
CONTINUOUS
 62
    7
 10
129.83265581056094
 20
47.378030669810329
 11
129.91913212367905
 21
47.439146854624965
  0
LINE
  8
_0-0_フレ__ム
  6
CONTINUOUS
 62
    7
 10
129.91913212367905
 20
47.439146854624965
 11
130.00797172994413
 21
47.518518101509841
  0
LINE
  8
_0-0_フレ__ム
  6
CONTINUOUS
 62
    7
 10
130.00797172994413
 20
47.518518101509841
 11
130.07949929679478
 21
47.597927531707597
  0
LINE
  8
_0-0_フレ__ム
  6
CONTINUOUS
 62
    7
 10
130.07949929679478
 20
47.597927531707597
 11
130.13746868620865
 21
47.675698007848865
  0
LINE
  8
_0-0_フレ__ム
  6
CONTINUOUS
 62
    7
 10
130.13746868620865
 20
47.675698007848865
 11
130.19162545772093
 21
47.763303777419111
  0
LINE
  8
_0-0_フレ__ム
  6
CONTINUOUS
 62
    7
 10
130.19162545772093
 20
47.763303777419111
 11
130.24244387612185
 21
47.865070880868558
  0
LINE
  8
_0-0_フレ__ム
  6
CONTINUOUS
 62
    7
 10
130.24244387612185
 20
47.865070880868558
 11
130.28729865259078
 21
47.981658877121987
  0
LINE
  8
_0-0_フレ__ム
  6
CONTINUOUS
 62
    7
 10
130.28729865259078
 20
47.981658877121987
 11
130.32418582049013
 21
48.117266650182415
  0
LINE
  8
_0-0_フレ__ム
  6
CONTINUOUS
 62
    7
 10
130.32418582049013
 20
48.117266650182415
 11
130.34862357001333
 21
48.273133923693109
  0
LINE
  8
_0-0_フレ__ム
  6
CONTINUOUS
 62
    7
 10
130.34862357001333
 20
48.273133923693109
 11
130.35445890698344
 21
48.447843717372535
  0
LINE
  8
_0-0_フレ__ム
  6
CONTINUOUS
 62
    7
 10
128.15354129143435
 20
47.148665304781758
 11
129.42733665281975
 21
47.24307365713733
  0
ARC
  8
_0-0_フレ__ム
  6
CONTINUOUS
 62
    7
 10
128.11658476025667
 20
47.647297649098761
 40
0.5
 50
272.12228989586441
 51
274.23877201618711
  0
LINE
  8
_0-0_フレ__ム
  6
CONTINUOUS
 62
    7
 10
123.36963541844545
 20
46.971042489388452
 11
128.13510099861674
 21
47.1476406178123
  0
ARC
  8
_0-0_フレ__ム
  6
CONTINUOUS
 62
    7
 10
123.35111918008954
 20
47.47069952067821
 40
0.5
 50
270
 51
272.12228989537601
  0
LINE
  8
_0-0_フレ__ム
  6
CONTINUOUS
 62
    7
 10
123.21657006083097
 20
46.970699520677869
 11
123.35111918008954
 21
46.970699520677869
  0
LINE
  8
_0-0_フレ__ム
  6
CONTINUOUS
 62
    7
 10
130.35955690036764
 20
52.630529435058094
 11
130.34026331997893
 21
52.721666159104558
  0
LINE
  8
_0-0_フレ__ム
  6
CONTINUOUS
 62
    7
 10
130.34026331997893
 20
52.721666159104558
 11
130.31033590542694
 21
52.794836536989266
  0
LINE
  8
_0-0_フレ__ム
  6
CONTINUOUS
 62
    7
 10
130.31033590542694
 20
52.794836536989266
 11
130.27718700387004
 21
52.85174526576148
  0
LINE
  8
_0-0_フレ__ム
  6
CONTINUOUS
 62
    7
 10
130.27718700387004
 20
52.85174526576148
 11
130.24572056516246
 21
52.894696628483217
  0
LINE
  8
_0-0_フレ__ム
  6
CONTINUOUS
 62
    7
 10
130.24572056516246
 20
52.894696628483217
 11
130.21906068187116
 21
52.925980557198187
  0
LINE
  8
_0-0_フレ__ム
  6
CONTINUOUS
 62
    7
 10
130.21906068187116
 20
52.925980557198187
 11
130.19911399001415
 21
52.947560570499633
  0
LINE
  8
_0-0_フレ__ム
  6
CONTINUOUS
 62
    7
 10
130.19911399001415
 20
52.947560570499633
 11
130.19202312280765
 21
52.955197763643156
  0
LINE
  8
_0-0_フレ__ム
  6
CONTINUOUS
 62
    7
 10
130.19202312280765
 20
52.955197763643156
 11
130.17748333977647
 21
52.971748782970877
  0
LINE
  8
_0-0_フレ__ム
  6
CONTINUOUS
 62
    7
 10
130.17748333977647
 20
52.971748782970877
 11
130.15016028822498
 21
52.998376547133859
  0
LINE
  8
_0-0_フレ__ム
  6
CONTINUOUS
 62
    7
 10
130.15016028822498
 20
52.998376547133859
 11
130.10774072794163
 21
53.029819038189345
  0
LINE
  8
_0-0_フレ__ム
  6
CONTINUOUS
 62
    7
 10
130.10774072794163
 20
53.029819038189345
 11
130.04447176184397
 21
53.062256591228135
  0
LINE
  8
_0-0_フレ__ム
  6
CONTINUOUS
 62
    7
 10
130.04447176184397
 20
53.062256591228135
 11
129.95426002446465
 21
53.08862201922264
  0
LINE
  8
_0-0_フレ__ム
  6
CONTINUOUS
 62
    7
 10
120.36421214341374
 20
44.566976812967511
 11
122.86421214341055
 21
44.566976812967511
  0
ARC
  8
_0-0_フレ__ム
  6
CONTINUOUS
 62
    7
 10
122.86421214341055
 20
45.066976812967511
 40
0.5
 50
270
 51
359.99999999998698
  0
LINE
  8
_0-0_フレ__ム
  6
CONTINUOUS
 62
    7
 10
123.36421214341055
 20
45.627196636423292
 11
129.86421214346467
 21
45.627196636423292
  0
ARC
  8
_0-0_フレ__ム
  6
CONTINUOUS
 62
    7
 10
129.86421214346467
 20
46.127196636423292
 40
0.5
 50
270
 51
0
  0
LINE
  8
_0-0_フレ__ム
  6
CONTINUOUS
 62
    7
 10
130.28143665428234
 20
45.772232039217585
 11
130.32363264425857
 21
45.850435336184347
  0
LINE
  8
_0-0_フレ__ム
  6
CONTINUOUS
 62
    7
 10
130.32363264425857
 20
45.850435336184347
 11
130.35079705732926
 21
45.932682733870053
  0
LINE
  8
_0-0_フレ__ム
  6
CONTINUOUS
 62
    7
 10
130.35079705732926
 20
45.932682733870053
 11
130.35962268851495
 21
45.980190228323551
  0
LINE
  8
_0-0_フレ__ム
  6
CONTINUOUS
 62
    7
 10
130.35962268851495
 20
45.980190228323551
 11
130.36237407808068
 21
46.004957553680157
  0
LINE
  8
_0-0_フレ__ム
  6
CONTINUOUS
 62
    7
 10
130.36237407808068
 20
46.004957553680157
 11
130.36373878174624
 21
46.026009976311144
  0
LINE
  8
_0-0_フレ__ム
  6
CONTINUOUS
 62
    7
 10
123.97643189452788
 20
36.211213874965352
 11
130.28323256866457
 21
45.77481731634785
  0
LINE
  8
_0-0_フレ__ム
  6
CONTINUOUS
 62
    7
 10
123.89118276058673
 20
34.457442853085382
 11
123.92689296066726
 21
34.517584202768518
  0
LINE
  8
_0-0_フレ__ム
  6
CONTINUOUS
 62
    7
 10
123.92689296066726
 20
34.517584202768518
 11
123.95419113731015
 21
34.585681494260967
  0
LINE
  8
_0-0_フレ__ム
  6
CONTINUOUS
 62
    7
 10
123.95419113731015
 20
34.585681494260967
 11
123.97099097522647
 21
34.660545453370929
  0
LINE
  8
_0-0_フレ__ム
  6
CONTINUOUS
 62
    7
 10
123.97099097522647
 20
34.660545453370929
 11
123.97541443862337
 21
34.740449534800206
  0
LINE
  8
_0-0_フレ__ム
  6
CONTINUOUS
 62
    7
 10
123.97643189452788
 20
34.737437774515826
 11
123.97643189452788
 21
36.212422441049654
  0
LINE
  8
_0-0_フレ__ム
  6
CONTINUOUS
 62
    7
 10
123.49587217054318
 20
33.856149730187695
 11
123.89258902614938
 21
34.457729339495614
  0
LINE
  8
_0-0_フレ__ム
  6
CONTINUOUS
 62
    7
 10
120.36421214341374
 20
33.324252911271884
 11
122.51012423637337
 21
33.324252911271884
  0
LINE
  8
_0-0_フレ__ム
  6
CONTINUOUS
 62
    7
 10
122.51012423637337
 20
33.324252911271884
 11
122.60689677651527
 21
33.327813203074726
  0
LINE
  8
_0-0_フレ__ム
  6
CONTINUOUS
 62
    7
 10
122.60689677651527
 20
33.327813203074726
 11
122.70288231726784
 21
33.338262921392385
  0
LINE
  8
_0-0_フレ__ム
  6
CONTINUOUS
 62
    7
 10
122.70288231726784
 20
33.338262921392385
 11
122.88643711533564
 21
33.378427076696113
  0
LINE
  8
_0-0_フレ__ム
  6
CONTINUOUS
 62
    7
 10
122.88643416005186
 20
33.378426160124064
 11
123.02507561100515
 21
33.432116207976293
  0
LINE
  8
_0-0_フレ__ム
  6
CONTINUOUS
 62
    7
 10
123.02507561100515
 20
33.432116207976293
 11
123.13212572545308
 21
33.491533818706699
  0
LINE
  8
_0-0_フレ__ム
  6
CONTINUOUS
 62
    7
 10
123.13212572545308
 20
33.491533818706699
 11
123.21330904707423
 21
33.548377057791214
  0
LINE
  8
_0-0_フレ__ム
  6
CONTINUOUS
 62
    7
 10
123.21330904707423
 20
33.548377057791214
 11
123.27156996774698
 21
33.596394396770648
  0
LINE
  8
_0-0_フレ__ム
  6
CONTINUOUS
 62
    7
 10
123.27156996774698
 20
33.596394396770648
 11
123.34169261607553
 21
33.663386674561622
  0
LINE
  8
_0-0_フレ__ム
  6
CONTINUOUS
 62
    7
 10
123.34169261607553
 20
33.663386674561622
 11
123.41900196037324
 21
33.750929547111724
  0
LINE
  8
_0-0_フレ__ム
  6
CONTINUOUS
 62
    7
 10
123.41900196037324
 20
33.750929547111724
 11
123.44347339539468
 21
33.782224046426478
  0
LINE
  8
_0-0_フレ__ム
  6
CONTINUOUS
 62
    7
 10
123.44347339539468
 20
33.782224046426478
 11
123.49869692154664
 21
33.860809277304753
  0
LINE
  8
_0-0_フレ__ム
  6
CONTINUOUS
 62
    7
 10
123.97643189452788
 20
31.201548876874909
 11
123.97643189452788
 21
32.676888535116547
  0
LINE
  8
_0-0_フレ__ム
  6
CONTINUOUS
 62
    7
 10
123.34434560893527
 20
30.200583121247888
 11
123.45884835534895
 21
30.24852301844831
  0
LINE
  8
_0-0_フレ__ム
  6
CONTINUOUS
 62
    7
 10
123.45884835534895
 20
30.24852301844831
 11
123.55593582880596
 21
30.3065855584845
  0
LINE
  8
_0-0_フレ__ム
  6
CONTINUOUS
 62
    7
 10
123.55593582880596
 20
30.3065855584845
 11
123.63627089086424
 21
30.369274628532509
  0
LINE
  8
_0-0_フレ__ム
  6
CONTINUOUS
 62
    7
 10
123.63627089086424
 20
30.369274628532509
 11
123.70120121110125
 21
30.432443950698968
  0
LINE
  8
_0-0_フレ__ム
  6
CONTINUOUS
 62
    7
 10
123.70120121110125
 20
30.432443950698968
 11
123.76707246256103
 21
30.512271766334294
  0
LINE
  8
_0-0_フレ__ム
  6
CONTINUOUS
 62
    7
 10
123.76707246256103
 20
30.512271766334294
 11
123.81449010524148
 21
30.583134544374303
  0
LINE
  8
_0-0_フレ__ム
  6
CONTINUOUS
 62
    7
 10
123.81449010524148
 20
30.583134544374303
 11
123.85234418307277
 21
30.651237185485485
  0
LINE
  8
_0-0_フレ__ム
  6
CONTINUOUS
 62
    7
 10
123.85234418307277
 20
30.651237185485485
 11
123.88411271072545
 21
30.719905854698965
  0
LINE
  8
_0-0_フレ__ム
  6
CONTINUOUS
 62
    7
 10
123.88411271072545
 20
30.719905854698965
 11
123.91034671061345
 21
30.788703402509014
  0
LINE
  8
_0-0_フレ__ム
  6
CONTINUOUS
 62
    7
 10
123.91034671061345
 20
30.788703402509014
 11
123.93328135160698
 21
30.863719019646311
  0
LINE
  8
_0-0_フレ__ム
  6
CONTINUOUS
 62
    7
 10
123.93328135160698
 20
30.863719019646311
 11
123.95552984024926
 21
30.962779845681922
  0
LINE
  8
_0-0_フレ__ム
  6
CONTINUOUS
 62
    7
 10
123.95552984024926
 20
30.962779845681922
 11
123.97151373132994
 21
31.086486864479099
  0
LINE
  8
_0-0_フレ__ム
  6
CONTINUOUS
 62
    7
 10
123.97151373132994
 20
31.086486864479099
 11
123.97554391089756
 21
31.20384934230222
  0
LINE
  8
_0-0_フレ__ム
  6
CONTINUOUS
 62
    7
 10
123.97554391089756
 20
31.20384934230222
 11
123.97490097301477
 21
31.234296745957437
  0
LINE
  8
_0-0_フレ__ム
  6
CONTINUOUS
 62
    7
 10
122.97643189452788
 20
30.142272395931201
 11
123.03865918626656
 21
30.143878021579582
  0
LINE
  8
_0-0_フレ__ム
  6
CONTINUOUS
 62
    7
 10
123.03865918626656
 20
30.143878021579582
 11
123.13856174997147
 21
30.153239343734214
  0
LINE
  8
_0-0_フレ__ム
  6
CONTINUOUS
 62
    7
 10
123.13856174997147
 20
30.153239343734214
 11
123.23741975215137
 21
30.171027568558117
  0
LINE
  8
_0-0_フレ__ム
  6
CONTINUOUS
 62
    7
 10
123.23741975215137
 20
30.171027568558117
 11
123.32828991266098
 21
30.195394997236377
  0
LINE
  8
_0-0_フレ__ム
  6
CONTINUOUS
 62
    7
 10
123.32828991266098
 20
30.195394997236377
 11
123.34431383190577
 21
30.200545032839187
  0
LINE
  8
_0-0_フレ__ム
  6
CONTINUOUS
 62
    7
 10
120.36421214341374
 20
30.142272395931201
 11
122.97643189452788
 21
30.142272395931201
  0
LINE
  8
_0-0_フレ__ム
  6
CONTINUOUS
 62
    7
 10
123.97643189452788
 20
33.98287635984812
 11
123.97643189452788
 21
34.703844690168722
  0
LINE
  8
_0-0_フレ__ム
  6
CONTINUOUS
 62
    7
 10
123.97643189452788
 20
34.703844690168722
 11
123.97643189452788
 21
34.737437774515826
  0
LINE
  8
_0-0_フレ__ム
  6
CONTINUOUS
 62
    7
 10
130.28465566678483
 20
24.417114939043046
 11
123.97576654584725
 21
33.983885291517396
  0
LINE
  8
_0-0_フレ__ム
  6
CONTINUOUS
 62
    7
 10
129.40889635994637
 20
20.255504965674419
 11
129.47104622033464
 21
20.259419863105592
  0
LINE
  8
_0-0_フレ__ム
  6
CONTINUOUS
 62
    7
 10
129.47104622033464
 20
20.259419863105592
 11
129.57055161339105
 21
20.272521692835568
  0
LINE
  8
_0-0_フレ__ム
  6
CONTINUOUS
 62
    7
 10
129.57055161339105
 20
20.272521692835568
 11
129.66864823341245
 21
20.294082186428483
  0
LINE
  8
_0-0_フレ__ム
  6
CONTINUOUS
 62
    7
 10
129.66864823341245
 20
20.294082186428483
 11
129.76436422752727
 21
20.324144195499599
  0
LINE
  8
_0-0_フレ__ム
  6
CONTINUOUS
 62
    7
 10
129.76436422752727
 20
20.324144195499599
 11
129.85666986785765
 21
20.362690903228582
  0
LINE
  8
_0-0_フレ__ム
  6
CONTINUOUS
 62
    7
 10
129.85666986785765
 20
20.362690903228582
 11
129.94438540362944
 21
20.409558957678229
  0
LINE
  8
_0-0_フレ__ム
  6
CONTINUOUS
 62
    7
 10
129.94438540362944
 20
20.409558957678229
 11
130.02626799799674
 21
20.464387689223059
  0
LINE
  8
_0-0_フレ__ム
  6
CONTINUOUS
 62
    7
 10
130.02626799799674
 20
20.464387689223059
 11
130.10107994387494
 21
20.526570402084559
  0
LINE
  8
_0-0_フレ__ム
  6
CONTINUOUS
 62
    7
 10
130.10107994387494
 20
20.526570402084559
 11
130.16771145321007
 21
20.595267679286309
  0
LINE
  8
_0-0_フレ__ム
  6
CONTINUOUS
 62
    7
 10
130.16771145321007
 20
20.595267679286309
 11
130.22528350211974
 21
20.669475297076161
  0
LINE
  8
_0-0_フレ__ム
  6
CONTINUOUS
 62
    7
 10
130.22528350211974
 20
20.669475297076161
 11
130.27318877880435
 21
20.748110833037259
  0
LINE
  8
_0-0_フレ__ム
  6
CONTINUOUS
 62
    7
 10
130.27318877880435
 20
20.748110833037259
 11
130.31107305240283
 21
20.830082317677153
  0
LINE
  8
_0-0_フレ__ム
  6
CONTINUOUS
 62
    7
 10
130.31107305240283
 20
20.830082317677153
 11
130.33878829136506
 21
20.914327910882122
  0
LINE
  8
_0-0_フレ__ム
  6
CONTINUOUS
 62
    7
 10
130.33878829136506
 20
20.914327910882122
 11
130.35634478206998
 21
20.99983575040838
  0
LINE
  8
_0-0_フレ__ム
  6
CONTINUOUS
 62
    7
 10
130.35634478206998
 20
20.99983575040838
 11
130.36387231961714
 21
21.085655657457579
  0
LINE
  8
_0-0_フレ__ム
  6
CONTINUOUS
 62
    7
 10
130.36387231961714
 20
21.085655657457579
 11
130.36421214346467
 21
21.108230854923164
  0
LINE
  8
_0-0_フレ__ム
  6
CONTINUOUS
 62
    7
 10
123.36963542095936
 20
20.031702661167998
 11
129.40889635994637
 21
20.255504965674533
  0
ARC
  8
_0-0_フレ__ム
  6
CONTINUOUS
 62
    7
 10
123.35111918259923
 20
20.531359692457414
 40
0.5
 50
271.50051430939351
 51
272.1222898958772
  0
LINE
  8
_0-0_フレ__ム
  6
CONTINUOUS
 62
    7
 10
130.36260448242717
 20
24.186082730682443
 11
130.36188200943326
 21
24.194495531163199
  0
LINE
  8
_0-0_フレ__ム
  6
CONTINUOUS
 62
    7
 10
130.36188200943326
 20
24.194495531163199
 11
130.36088841563503
 21
24.203857048610786
  0
LINE
  8
_0-0_フレ__ム
  6
CONTINUOUS
 62
    7
 10
130.36088841563503
 20
24.203857048610786
 11
130.35962496215456
 21
24.213825925250632
  0
LINE
  8
_0-0_フレ__ム
  6
CONTINUOUS
 62
    7
 10
130.35962496215456
 20
24.213825925250632
 11
130.35808678181598
 21
24.224254249926759
  0
LINE
  8
_0-0_フレ__ム
  6
CONTINUOUS
 62
    7
 10
130.35808678181598
 20
24.224254249926759
 11
130.34946867859946
 21
24.266892518120045
  0
LINE
  8
_0-0_フレ__ム
  6
CONTINUOUS
 62
    7
 10
130.34946867859946
 20
24.266892518120045
 11
130.33750665205457
 21
24.307579962705319
  0
LINE
  8
_0-0_フレ__ム
  6
CONTINUOUS
 62
    7
 10
130.33750665205457
 20
24.307579962705319
 11
130.32205711187817
 21
24.347281804516825
  0
LINE
  8
_0-0_フレ__ム
  6
CONTINUOUS
 62
    7
 10
130.32205711187817
 20
24.347281804516825
 11
130.28143665428274
 21
24.421858195595775
  0
LINE
  8
_0-0_フレ__ム
  6
CONTINUOUS
 62
    7
 10
130.36178740614065
 20
17.548039600791896
 11
130.35955690036764
 21
17.630529435059231
  0
LINE
  8
_0-0_フレ__ム
  6
CONTINUOUS
 62
    7
 10
130.35757378692824
 20
17.517740318138891
 11
130.36168402847437
 21
17.547754622025451
  0
LINE
  8
_0-0_フレ__ム
  6
CONTINUOUS
 62
    7
 10
120.36421214341374
 20
6.5970451174065659
 11
120.36421214341374
 21
63.597045117406793
  0
ARC
  8
_0-0_フレ__ム
  6
CONTINUOUS
 62
    7
 10
118.86421214341374
 20
63.597045117406793
 40
1.5
 50
90
 51
180
  0
LINE
  8
_0-0_フレ__ム
  6
CONTINUOUS
 62
    7
 10
120.36421214341374
 20
6.5970451174065659
 11
120.36421214341374
 21
5.0970451174065659
  0
LINE
  8
_0-0_フレ__ム
  6
CONTINUOUS
 62
    7
 10
120.36421214341374
 20
5.0970451174065659
 11
118.86421214341374
 21
5.0970451174065659
  0
LINE
  8
_0-0_フレ__ム
  6
CONTINUOUS
 62
    7
 10
120.36421214341374
 20
65.097045117406793
 11
120.36421214341374
 21
63.597045117406793
  0
LINE
  8
_0-0_フレ__ム
  6
CONTINUOUS
 62
    7
 10
118.86421214341374
 20
65.097045117406793
 11
120.36421214341374
 21
65.097045117406793
  0
LINE
  8
_0-0_フレ__ム
  6
CONTINUOUS
 62
    7
 10
117.36421214341374
 20
6.5970451174065659
 11
117.36421214341374
 21
63.597045117406793
  0
ARC
  8
_0-0_フレ__ム
  6
CONTINUOUS
 62
    7
 10
118.86421214341374
 20
6.5970451174065659
 40
1.5
 50
180
 51
270
  0
LINE
  8
_0-0_フレ__ム
  6
CONTINUOUS
 62
    7
 10
129.41654809970765
 20
50.45225683444292
 11
129.60853064375345
 21
50.420408785419028
  0
LINE
  8
_0-0_フレ__ム
  6
CONTINUOUS
 62
    7
 10
129.60853064375345
 20
50.420408785419028
 11
129.79238094308175
 21
50.35053960797805
  0
LINE
  8
_0-0_フレ__ム
  6
CONTINUOUS
 62
    7
 10
129.79238094308175
 20
50.35053960797805
 11
129.96085060076274
 21
50.24397117553454
  0
LINE
  8
_0-0_フレ__ム
  6
CONTINUOUS
 62
    7
 10
129.96085060076274
 20
50.24397117553454
 11
130.01238611417875
 21
50.200669293210154
  0
LINE
  8
_0-0_フレ__ム
  6
CONTINUOUS
 62
    7
 10
130.01238611417875
 20
50.200669293210154
 11
130.06120455934297
 21
50.153653410340581
  0
LINE
  8
_0-0_フレ__ム
  6
CONTINUOUS
 62
    7
 10
130.06120455934297
 20
50.153653410340581
 11
130.10707567369548
 21
50.103046631467492
  0
LINE
  8
_0-0_フレ__ム
  6
CONTINUOUS
 62
    7
 10
130.10707567369548
 20
50.103046631467492
 11
130.19077578892825
 21
49.989037733918082
  0
LINE
  8
_0-0_フレ__ム
  6
CONTINUOUS
 62
    7
 10
130.19077578892825
 20
49.989037733918082
 11
130.27302515616367
 21
49.833739671746713
  0
LINE
  8
_0-0_フレ__ム
  6
CONTINUOUS
 62
    7
 10
130.27302515616367
 20
49.833739671746713
 11
130.33762892404508
 21
49.634689492533795
  0
LINE
  8
_0-0_フレ__ム
  6
CONTINUOUS
 62
    7
 10
130.33762892404508
 20
49.634689492533795
 11
130.36421214346467
 21
49.393050260565616
  0
LINE
  8
_0-0_フレ__ム
  6
CONTINUOUS
 62
    7
 10
130.36421214346467
 20
52.597045117407021
 11
130.36421214346467
 21
49.393050260565616
  0
LINE
  8
_0-0_フレ__ム
  6
CONTINUOUS
 62
    7
 10
130.36421214346467
 20
49.393050260565616
 11
130.36421214346467
 21
48.447843717372535
  0
LINE
  8
_0-0_フレ__ム
  6
CONTINUOUS
 62
    7
 10
130.36421214346467
 20
48.447843717354004
 11
130.35460478366736
 21
48.447843717354687
  0
LINE
  8
_0-0_フレ__ム
  6
CONTINUOUS
 62
    7
 10
130.35460478366736
 20
48.447843717354687
 11
130.35448902346758
 21
48.447843717354687
  0
LINE
  8
_0-0_フレ__ム
  6
CONTINUOUS
 62
    7
 10
122.86421214341055
 20
47.099946201215886
 11
122.87556987924205
 21
47.098546711765408
  0
LINE
  8
_0-0_フレ__ム
  6
CONTINUOUS
 62
    7
 10
122.87556987924205
 20
47.098546711765408
 11
122.88746622973156
 21
47.094444328834726
  0
LINE
  8
_0-0_フレ__ム
  6
CONTINUOUS
 62
    7
 10
122.88746622973156
 20
47.094444328834726
 11
122.92407823465328
 21
47.074303978948961
  0
LINE
  8
_0-0_フレ__ム
  6
CONTINUOUS
 62
    7
 10
122.92407823465328
 20
47.074303978948961
 11
122.96252543246464
 21
47.052817687814724
  0
LINE
  8
_0-0_フレ__ム
  6
CONTINUOUS
 62
    7
 10
122.96252543246464
 20
47.052817687814724
 11
123.01868789400896
 21
47.024305854497157
  0
LINE
  8
_0-0_フレ__ム
  6
CONTINUOUS
 62
    7
 10
123.01868789400896
 20
47.024305854497157
 11
123.06884108578237
 21
47.002878356585967
  0
LINE
  8
_0-0_フレ__ム
  6
CONTINUOUS
 62
    7
 10
123.06884108578237
 20
47.002878356585967
 11
123.11431662272395
 21
46.987383869112506
  0
LINE
  8
_0-0_フレ__ム
  6
CONTINUOUS
 62
    7
 10
123.11431662272395
 20
46.987383869112506
 11
123.15511450483365
 21
46.97727159179172
  0
LINE
  8
_0-0_フレ__ム
  6
CONTINUOUS
 62
    7
 10
123.15511450483365
 20
46.97727159179172
 11
123.20047118408803
 21
46.971225718720945
  0
LINE
  8
_0-0_フレ__ム
  6
CONTINUOUS
 62
    7
 10
123.20047118408803
 20
46.971225718720945
 11
123.21728212413785
 21
46.970699577254123
  0
LINE
  8
_0-0_フレ__ム
  6
CONTINUOUS
 62
    7
 10
120.36421214341374
 20
47.099946201215886
 11
122.86421214341055
 21
47.099946201215886
  0
LINE
  8
_0-0_フレ__ム
  6
CONTINUOUS
 62
    7
 10
123.36421214341055
 20
46.970870975763461
 11
123.36421214341055
 21
45.066976812967511
  0
LINE
  8
_0-0_フレ__ム
  6
CONTINUOUS
 62
    7
 10
123.35111917972768
 20
53.097045117407134
 11
120.36421214341374
 21
53.097045117407134
  0
LINE
  8
_0-0_フレ__ム
  6
CONTINUOUS
 62
    7
 10
123.35111917972745
 20
53.097045117407134
 11
129.39038012158613
 21
53.097045117407021
  0
LINE
  8
_0-0_フレ__ム
  6
CONTINUOUS
 62
    7
 10
130.35956537155158
 20
52.631396204135427
 11
130.33850249800264
 21
52.67767530527945
  0
LINE
  8
_0-0_フレ__ム
  6
CONTINUOUS
 62
    7
 10
130.33850249800264
 20
52.67767530527945
 11
130.27521505205607
 21
52.744352538300546
  0
LINE
  8
_0-0_フレ__ム
  6
CONTINUOUS
 62
    7
 10
130.27521505205607
 20
52.744352538300546
 11
130.23549835441986
 21
52.771854521669098
  0
LINE
  8
_0-0_フレ__ム
  6
CONTINUOUS
 62
    7
 10
130.23549835441986
 20
52.771854521669098
 11
130.19318928755138
 21
52.795641965500664
  0
LINE
  8
_0-0_フレ__ム
  6
CONTINUOUS
 62
    7
 10
130.19318928755138
 20
52.795641965500664
 11
130.15007323546558
 21
52.816055280362917
  0
LINE
  8
_0-0_フレ__ム
  6
CONTINUOUS
 62
    7
 10
130.15007323546558
 20
52.816055280362917
 11
130.10768611568085
 21
52.833538455479271
  0
LINE
  8
_0-0_フレ__ム
  6
CONTINUOUS
 62
    7
 10
130.10768611568085
 20
52.833538455479271
 11
129.96633239501358
 21
52.879972594818952
  0
LINE
  8
_0-0_フレ__ム
  6
CONTINUOUS
 62
    7
 10
129.96633239501358
 20
52.879972594818952
 11
129.80020422993994
 21
52.917251621695328
  0
LINE
  8
_0-0_フレ__ム
  6
CONTINUOUS
 62
    7
 10
129.80020422993994
 20
52.917251621695328
 11
129.61472403028347
 21
52.941637340634003
  0
LINE
  8
_0-0_フレ__ム
  6
CONTINUOUS
 62
    7
 10
129.61472403028347
 20
52.941637340634003
 11
129.41654809970765
 21
52.950113975366122
  0
LINE
  8
_0-0_フレ__ム
  6
CONTINUOUS
 62
    7
 10
129.86421214346467
 20
53.097045117407021
 11
129.95445885866366
 21
53.08883321241936
  0
LINE
  8
_0-0_フレ__ム
  6
CONTINUOUS
 62
    7
 10
129.39038012158613
 20
53.097045117407021
 11
129.86421214346467
 21
53.097045117407021
  0
LINE
  8
_0-0_フレ__ム
  6
CONTINUOUS
 62
    7
 10
130.08958651447693
 20
46.428572702598018
 11
130.02906481619186
 21
46.492451740049688
  0
LINE
  8
_0-0_フレ__ム
  6
CONTINUOUS
 62
    7
 10
130.02906481619186
 20
46.492451740049688
 11
129.96750776407077
 21
46.554279358462878
  0
LINE
  8
_0-0_フレ__ム
  6
CONTINUOUS
 62
    7
 10
129.96750776407077
 20
46.554279358462878
 11
129.91312481706717
 21
46.605560692125806
  0
LINE
  8
_0-0_フレ__ム
  6
CONTINUOUS
 62
    7
 10
129.91312481706717
 20
46.605560692125806
 11
129.86646874165768
 21
46.646876395763826
  0
LINE
  8
_0-0_フレ__ム
  6
CONTINUOUS
 62
    7
 10
129.86646874165768
 20
46.646876395763826
 11
129.81184514844654
 21
46.692870655354596
  0
LINE
  8
_0-0_フレ__ム
  6
CONTINUOUS
 62
    7
 10
129.81184514844654
 20
46.692870655354596
 11
129.70291832454268
 21
46.778322188310227
  0
LINE
  8
_0-0_フレ__ム
  6
CONTINUOUS
 62
    7
 10
129.70291832454268
 20
46.778322188310227
 11
129.57130227880907
 21
46.870862612168281
  0
LINE
  8
_0-0_フレ__ム
  6
CONTINUOUS
 62
    7
 10
129.57130227880907
 20
46.870862612168281
 11
129.41654809970765
 21
46.963569971065368
  0
LINE
  8
_0-0_フレ__ム
  6
CONTINUOUS
 62
    7
 10
129.86421214346467
 20
46.239388504668824
 11
129.98005100369937
 21
46.32673788340017
  0
LINE
  8
_0-0_フレ__ム
  6
CONTINUOUS
 62
    7
 10
129.98005100369937
 20
46.32673788340017
 11
130.08958651447693
 21
46.428572702598018
  0
LINE
  8
_0-0_フレ__ム
  6
CONTINUOUS
 62
    7
 10
130.36421214346467
 20
48.447843717372649
 11
130.36421214346467
 21
46.257432255147165
  0
LINE
  8
_0-0_フレ__ム
  6
CONTINUOUS
 62
    7
 10
130.08958651447693
 20
46.428572702598018
 11
130.20776794552847
 21
46.381059098134216
  0
LINE
  8
_0-0_フレ__ム
  6
CONTINUOUS
 62
    7
 10
130.20776794552847
 20
46.381059098134216
 11
130.23330932543064
 21
46.369232032560063
  0
LINE
  8
_0-0_フレ__ム
  6
CONTINUOUS
 62
    7
 10
130.23330932543064
 20
46.369232032560063
 11
130.25697929590086
 21
46.357500403267551
  0
LINE
  8
_0-0_フレ__ム
  6
CONTINUOUS
 62
    7
 10
130.25697929590086
 20
46.357500403267551
 11
130.27864280525216
 21
46.345913732287414
  0
LINE
  8
_0-0_フレ__ム
  6
CONTINUOUS
 62
    7
 10
130.27864280525216
 20
46.345913732287414
 11
130.29816575082987
 21
46.334528772058917
  0
LINE
  8
_0-0_フレ__ム
  6
CONTINUOUS
 62
    7
 10
130.29816575082987
 20
46.334528772058917
 11
130.32604641987518
 21
46.315884163627317
  0
LINE
  8
_0-0_フレ__ム
  6
CONTINUOUS
 62
    7
 10
130.32604641987518
 20
46.315884163627317
 11
130.35217076600748
 21
46.290338837984024
  0
LINE
  8
_0-0_フレ__ム
  6
CONTINUOUS
 62
    7
 10
130.35217076600748
 20
46.290338837984024
 11
130.36421214346467
 21
46.257432255147165
  0
LINE
  8
_0-0_フレ__ム
  6
CONTINUOUS
 62
    7
 10
130.36421214346467
 20
46.257432255147165
 11
130.36421214346467
 21
46.127196636423292
  0
LINE
  8
_0-0_フレ__ム
  6
CONTINUOUS
 62
    7
 10
130.36421214346467
 20
46.048241055367527
 11
130.36369732618175
 21
46.025415239748355
  0
LINE
  8
_0-0_フレ__ム
  6
CONTINUOUS
 62
    7
 10
130.36421214346467
 20
46.127196636423292
 11
130.36421214346467
 21
46.048241055367527
  0
LINE
  8
_0-0_フレ__ム
  6
CONTINUOUS
 62
    7
 10
123.97643189452788
 20
36.212422441049654
 11
123.95860996499835
 21
36.230200224433844
  0
LINE
  8
_0-0_フレ__ム
  6
CONTINUOUS
 62
    7
 10
123.95860996499835
 20
36.230200224433844
 11
123.90577941875455
 21
36.257996015787654
  0
LINE
  8
_0-0_フレ__ム
  6
CONTINUOUS
 62
    7
 10
123.90577941875455
 20
36.257996015787654
 11
123.81982334034058
 21
36.294819065841722
  0
LINE
  8
_0-0_フレ__ム
  6
CONTINUOUS
 62
    7
 10
123.81982334034058
 20
36.294819065841722
 11
123.70380553610073
 21
36.339356858989646
  0
LINE
  8
_0-0_フレ__ム
  6
CONTINUOUS
 62
    7
 10
123.70380553610073
 20
36.339356858989646
 11
123.56186132829765
 21
36.390021896409763
  0
LINE
  8
_0-0_フレ__ム
  6
CONTINUOUS
 62
    7
 10
123.56186132829765
 20
36.390021896409763
 11
123.39905015626857
 21
36.445008280648977
  0
LINE
  8
_0-0_フレ__ム
  6
CONTINUOUS
 62
    7
 10
122.97643189452788
 20
36.511258679779672
 11
120.36421214341374
 21
36.511258679779672
  0
LINE
  8
_0-0_フレ__ム
  6
CONTINUOUS
 62
    7
 10
123.39905015626857
 20
36.445008280648977
 11
123.19287150846594
 21
36.494497425673018
  0
LINE
  8
_0-0_フレ__ム
  6
CONTINUOUS
 62
    7
 10
123.19287150846594
 20
36.494497425673018
 11
122.97643189452788
 21
36.511258679779672
  0
LINE
  8
_0-0_フレ__ム
  6
CONTINUOUS
 62
    7
 10
123.89105316212135
 20
34.455489421804401
 11
123.89251594387343
 21
34.457619372034202
  0
LINE
  8
_0-0_フレ__ム
  6
CONTINUOUS
 62
    7
 10
123.39905015626857
 20
35.172216074513386
 11
123.57229260753866
 21
35.107677305677413
  0
LINE
  8
_0-0_フレ__ム
  6
CONTINUOUS
 62
    7
 10
123.57229260753866
 20
35.107677305677413
 11
123.72184823177946
 21
35.032413623544727
  0
LINE
  8
_0-0_フレ__ム
  6
CONTINUOUS
 62
    7
 10
123.72184823177946
 20
35.032413623544727
 11
123.84125551103347
 21
34.950125904865587
  0
LINE
  8
_0-0_フレ__ム
  6
CONTINUOUS
 62
    7
 10
123.84125551103347
 20
34.950125904865587
 11
123.86102696398967
 21
34.933216475688965
  0
LINE
  8
_0-0_フレ__ム
  6
CONTINUOUS
 62
    7
 10
123.86102696398967
 20
34.933216475688965
 11
123.87933826480133
 21
34.916248582852546
  0
LINE
  8
_0-0_フレ__ム
  6
CONTINUOUS
 62
    7
 10
123.87933826480133
 20
34.916248582852546
 11
123.89615526700925
 21
34.899264064735377
  0
LINE
  8
_0-0_フレ__ム
  6
CONTINUOUS
 62
    7
 10
123.89615526700925
 20
34.899264064735377
 11
123.91144620020623
 21
34.882305816112563
  0
LINE
  8
_0-0_フレ__ム
  6
CONTINUOUS
 62
    7
 10
123.91144620020623
 20
34.882305816112563
 11
123.92518173714188
 21
34.865417721410182
  0
LINE
  8
_0-0_フレ__ム
  6
CONTINUOUS
 62
    7
 10
123.92518173714188
 20
34.865417721410182
 11
123.94994434431123
 21
34.828515159766226
  0
LINE
  8
_0-0_フレ__ム
  6
CONTINUOUS
 62
    7
 10
123.94994434431123
 20
34.828515159766226
 11
123.96855081820513
 21
34.786580859830707
  0
LINE
  8
_0-0_フレ__ム
  6
CONTINUOUS
 62
    7
 10
123.96855081820513
 20
34.786580859830707
 11
123.97636226900084
 21
34.741970773493364
  0
LINE
  8
_0-0_フレ__ム
  6
CONTINUOUS
 62
    7
 10
123.18774102539828
 20
34.498234492892294
 11
123.35351889299614
 21
34.44892967917886
  0
LINE
  8
_0-0_フレ__ム
  6
CONTINUOUS
 62
    7
 10
123.35351889299614
 20
34.44892967917886
 11
123.43337907064017
 21
34.429588170349831
  0
LINE
  8
_0-0_フレ__ム
  6
CONTINUOUS
 62
    7
 10
123.43337907064017
 20
34.429588170349831
 11
123.51008444806217
 21
34.414340546287264
  0
LINE
  8
_0-0_フレ__ム
  6
CONTINUOUS
 62
    7
 10
123.51008444806217
 20
34.414340546287264
 11
123.58272584570807
 21
34.403533874270948
  0
LINE
  8
_0-0_フレ__ム
  6
CONTINUOUS
 62
    7
 10
123.58272584570807
 20
34.403533874270948
 11
123.65035859669183
 21
34.397449147049798
  0
LINE
  8
_0-0_フレ__ム
  6
CONTINUOUS
 62
    7
 10
123.65035859669183
 20
34.397449147049798
 11
123.71201302381303
 21
34.39629153614797
  0
LINE
  8
_0-0_フレ__ム
  6
CONTINUOUS
 62
    7
 10
123.71201302381303
 20
34.39629153614797
 11
123.76670639594875
 21
34.400180898939567
  0
LINE
  8
_0-0_フレ__ム
  6
CONTINUOUS
 62
    7
 10
123.76670639594875
 20
34.400180898939567
 11
123.79287241748654
 21
34.404276521069647
  0
LINE
  8
_0-0_フレ__ム
  6
CONTINUOUS
 62
    7
 10
123.79287241748654
 20
34.404276521069647
 11
123.81835636684877
 21
34.410283386105021
  0
LINE
  8
_0-0_フレ__ム
  6
CONTINUOUS
 62
    7
 10
123.81835636684877
 20
34.410283386105021
 11
123.84238906310725
 21
34.418747889381535
  0
LINE
  8
_0-0_フレ__ム
  6
CONTINUOUS
 62
    7
 10
123.84238906310725
 20
34.418747889381535
 11
123.86409159355338
 21
34.430210832176186
  0
LINE
  8
_0-0_フレ__ム
  6
CONTINUOUS
 62
    7
 10
123.86409159355338
 20
34.430210832176186
 11
123.88247329783775
 21
34.445188611128657
  0
LINE
  8
_0-0_フレ__ム
  6
CONTINUOUS
 62
    7
 10
123.88247329783775
 20
34.445188611128657
 11
123.88436195915625
 21
34.447198091654769
  0
LINE
  8
_0-0_フレ__ム
  6
CONTINUOUS
 62
    7
 10
123.88436195915625
 20
34.447198091654769
 11
123.89105316212135
 21
34.455489421804401
  0
LINE
  8
_0-0_フレ__ム
  6
CONTINUOUS
 62
    7
 10
123.49580993058055
 20
33.856055358122518
 11
123.49321624080358
 21
33.852143368695721
  0
LINE
  8
_0-0_フレ__ム
  6
CONTINUOUS
 62
    7
 10
123.49321624080358
 20
33.852143368695721
 11
123.46076248700854
 21
33.80634814505143
  0
LINE
  8
_0-0_フレ__ム
  6
CONTINUOUS
 62
    7
 10
123.46076248700854
 20
33.80634814505143
 11
123.42759594110265
 21
33.764766237071996
  0
LINE
  8
_0-0_フレ__ム
  6
CONTINUOUS
 62
    7
 10
123.42759594110265
 20
33.764766237071996
 11
123.39411398705414
 21
33.727229626874561
  0
LINE
  8
_0-0_フレ__ム
  6
CONTINUOUS
 62
    7
 10
123.39411398705414
 20
33.727229626874561
 11
123.32368027661755
 21
33.660117590559281
  0
LINE
  8
_0-0_フレ__ム
  6
CONTINUOUS
 62
    7
 10
123.32368027661755
 20
33.660117590559281
 11
123.24938854685615
 21
33.603325711765507
  0
LINE
  8
_0-0_フレ__ム
  6
CONTINUOUS
 62
    7
 10
123.24938854685615
 20
33.603325711765507
 11
123.17233631225145
 21
33.556641062668319
  0
LINE
  8
_0-0_フレ__ム
  6
CONTINUOUS
 62
    7
 10
123.17233631225145
 20
33.556641062668319
 11
123.05386032694406
 21
33.504873932047332
  0
LINE
  8
_0-0_フレ__ム
  6
CONTINUOUS
 62
    7
 10
123.05386032694406
 20
33.504873932047332
 11
122.93478917622673
 21
33.47380309389851
  0
LINE
  8
_0-0_フレ__ム
  6
CONTINUOUS
 62
    7
 10
122.93478928224317
 20
33.473803112953789
 11
122.93422691533596
 21
33.469310531196726
  0
LINE
  8
_0-0_フレ__ム
  6
CONTINUOUS
 62
    7
 10
122.93422691533596
 20
33.469310531196726
 11
122.93359615224546
 21
33.464694792683673
  0
LINE
  8
_0-0_フレ__ム
  6
CONTINUOUS
 62
    7
 10
122.93359615224546
 20
33.464694792683673
 11
122.93288910560176
 21
33.459978842833635
  0
LINE
  8
_0-0_フレ__ム
  6
CONTINUOUS
 62
    7
 10
122.93288910560176
 20
33.459978842833635
 11
122.93209788803483
 21
33.455185627065617
  0
LINE
  8
_0-0_フレ__ム
  6
CONTINUOUS
 62
    7
 10
122.93209788803483
 20
33.455185627065617
 11
122.93121461217487
 21
33.450338090798056
  0
LINE
  8
_0-0_フレ__ム
  6
CONTINUOUS
 62
    7
 10
122.93121461217487
 20
33.450338090798056
 11
122.93023139065184
 21
33.44545917945041
  0
LINE
  8
_0-0_フレ__ム
  6
CONTINUOUS
 62
    7
 10
122.93023139065184
 20
33.44545917945041
 11
122.92914033609588
 21
33.440571838441343
  0
LINE
  8
_0-0_フレ__ム
  6
CONTINUOUS
 62
    7
 10
122.92914033609588
 20
33.440571838441343
 11
122.92793356113708
 21
33.435699013189748
  0
LINE
  8
_0-0_フレ__ム
  6
CONTINUOUS
 62
    7
 10
122.92793356113708
 20
33.435699013189748
 11
122.92660317840534
 21
33.430863649114514
  0
LINE
  8
_0-0_フレ__ム
  6
CONTINUOUS
 62
    7
 10
122.92660317840534
 20
33.430863649114514
 11
122.92514130053098
 21
33.426088691634646
  0
LINE
  8
_0-0_フレ__ム
  6
CONTINUOUS
 62
    7
 10
122.92514130053098
 20
33.426088691634646
 11
122.92354004014385
 21
33.421397086168923
  0
LINE
  8
_0-0_フレ__ム
  6
CONTINUOUS
 62
    7
 10
122.92354004014385
 20
33.421397086168923
 11
122.92179150987425
 21
33.416811778136349
  0
LINE
  8
_0-0_フレ__ム
  6
CONTINUOUS
 62
    7
 10
122.92179150987425
 20
33.416811778136349
 11
122.91988782235194
 21
33.412355712955929
  0
LINE
  8
_0-0_フレ__ム
  6
CONTINUOUS
 62
    7
 10
122.91988782235194
 20
33.412355712955929
 11
122.91782109020727
 21
33.40805183604644
  0
LINE
  8
_0-0_フレ__ム
  6
CONTINUOUS
 62
    7
 10
122.91782109020727
 20
33.40805183604644
 11
122.91558342607027
 21
33.403923092826659
  0
LINE
  8
_0-0_フレ__ム
  6
CONTINUOUS
 62
    7
 10
122.91558342607027
 20
33.403923092826659
 11
122.91316694257074
 21
33.399992428715819
  0
LINE
  8
_0-0_フレ__ム
  6
CONTINUOUS
 62
    7
 10
122.91316694257074
 20
33.399992428715819
 11
122.91056375233916
 21
33.396282789132471
  0
LINE
  8
_0-0_フレ__ム
  6
CONTINUOUS
 62
    7
 10
122.91056375233916
 20
33.396282789132471
 11
122.90776596800538
 21
33.392817119495845
  0
LINE
  8
_0-0_フレ__ム
  6
CONTINUOUS
 62
    7
 10
122.90776596800538
 20
33.392817119495845
 11
122.90476570219937
 21
33.38961836522472
  0
LINE
  8
_0-0_フレ__ム
  6
CONTINUOUS
 62
    7
 10
122.90476570219937
 20
33.38961836522472
 11
122.90155506755133
 21
33.38670947173776
  0
LINE
  8
_0-0_フレ__ム
  6
CONTINUOUS
 62
    7
 10
122.90155506755133
 20
33.38670947173776
 11
122.89812617669133
 21
33.384113384454309
  0
LINE
  8
_0-0_フレ__ム
  6
CONTINUOUS
 62
    7
 10
122.89812617669133
 20
33.384113384454309
 11
122.89447114224953
 21
33.381853048792806
  0
LINE
  8
_0-0_フレ__ム
  6
CONTINUOUS
 62
    7
 10
122.89447114224953
 20
33.381853048792806
 11
122.89058207685576
 21
33.379951410172595
  0
LINE
  8
_0-0_フレ__ム
  6
CONTINUOUS
 62
    7
 10
122.89058207685576
 20
33.379951410172595
 11
122.88645109314035
 21
33.378431414012454
  0
LINE
  8
_0-0_フレ__ム
  6
CONTINUOUS
 62
    7
 10
122.93478917622997
 20
31.478776402127465
 11
123.05387148578325
 21
31.538239006846794
  0
LINE
  8
_0-0_フレ__ム
  6
CONTINUOUS
 62
    7
 10
123.05387148578325
 20
31.538239006846794
 11
123.17234988269036
 21
31.603443113457757
  0
LINE
  8
_0-0_フレ__ム
  6
CONTINUOUS
 62
    7
 10
123.17234988269036
 20
31.603443113457757
 11
123.28695608281123
 21
31.673568772261802
  0
LINE
  8
_0-0_フレ__ム
  6
CONTINUOUS
 62
    7
 10
123.28695608281123
 20
31.673568772261802
 11
123.39411398705374
 21
31.747206240106863
  0
LINE
  8
_0-0_フレ__ム
  6
CONTINUOUS
 62
    7
 10
123.39411398705374
 20
31.747206240106863
 11
123.44978885374655
 21
31.789558712890454
  0
LINE
  8
_0-0_フレ__ム
  6
CONTINUOUS
 62
    7
 10
123.44978885374655
 20
31.789558712890454
 11
123.50382315689234
 21
31.834558530068449
  0
LINE
  8
_0-0_フレ__ム
  6
CONTINUOUS
 62
    7
 10
123.50382315689234
 20
31.834558530068449
 11
123.55426415463666
 21
31.881602322653549
  0
LINE
  8
_0-0_フレ__ム
  6
CONTINUOUS
 62
    7
 10
123.55426415463666
 20
31.881602322653549
 11
123.57276531204957
 21
31.900565707774291
  0
LINE
  8
_0-0_フレ__ム
  6
CONTINUOUS
 62
    7
 10
123.57276531204957
 20
31.900565707774291
 11
123.59260887176913
 21
31.922371253332955
  0
LINE
  8
_0-0_フレ__ム
  6
CONTINUOUS
 62
    7
 10
123.59260887176913
 20
31.922371253332955
 11
123.61281162153546
 21
31.94677358026857
  0
LINE
  8
_0-0_フレ__ム
  6
CONTINUOUS
 62
    7
 10
123.61281162153546
 20
31.94677358026857
 11
123.63223400976176
 21
31.973409844245822
  0
LINE
  8
_0-0_フレ__ム
  6
CONTINUOUS
 62
    7
 10
123.63223400976176
 20
31.973409844245822
 11
123.64958585248684
 21
32.001768806441561
  0
LINE
  8
_0-0_フレ__ム
  6
CONTINUOUS
 62
    7
 10
123.18774102539828
 20
30.321844204903329
 11
123.36452724462197
 21
30.403836072445671
  0
LINE
  8
_0-0_フレ__ム
  6
CONTINUOUS
 62
    7
 10
123.36452724462197
 20
30.403836072445671
 11
123.52694993094468
 21
30.52361348983041
  0
LINE
  8
_0-0_フレ__ム
  6
CONTINUOUS
 62
    7
 10
123.52694993094468
 20
30.52361348983041
 11
123.66769696031633
 21
30.67734223776543
  0
LINE
  8
_0-0_フレ__ム
  6
CONTINUOUS
 62
    7
 10
123.66769696031633
 20
30.67734223776543
 11
123.70858920855085
 21
30.735318427275303
  0
LINE
  8
_0-0_フレ__ム
  6
CONTINUOUS
 62
    7
 10
123.70858920855085
 20
30.735318427275303
 11
123.74606446482466
 21
30.796333816140447
  0
LINE
  8
_0-0_フレ__ム
  6
CONTINUOUS
 62
    7
 10
123.74606446482466
 20
30.796333816140447
 11
123.77989443853966
 21
30.860177145383915
  0
LINE
  8
_0-0_フレ__ム
  6
CONTINUOUS
 62
    7
 10
123.77989443853966
 20
30.860177145383915
 11
123.83751685196927
 21
31.000313168832719
  0
LINE
  8
_0-0_フレ__ム
  6
CONTINUOUS
 62
    7
 10
123.83751685196927
 20
31.000313168832719
 11
123.88474198974217
 21
31.180919469708925
  0
LINE
  8
_0-0_フレ__ム
  6
CONTINUOUS
 62
    7
 10
123.88474198974217
 20
31.180919469708925
 11
123.90622617715115
 21
31.399464111943786
  0
LINE
  8
_0-0_フレ__ム
  6
CONTINUOUS
 62
    7
 10
123.90622617715115
 20
31.399464111943786
 11
123.88273968156454
 21
31.648215415847886
  0
LINE
  8
_0-0_フレ__ム
  6
CONTINUOUS
 62
    7
 10
122.51012423637314
 20
32.056485958304421
 11
122.62953158177697
 21
32.064866585357919
  0
LINE
  8
_0-0_フレ__ム
  6
CONTINUOUS
 62
    7
 10
122.62953158177697
 20
32.064866585357919
 11
122.74327806545028
 21
32.089611157869882
  0
LINE
  8
_0-0_フレ__ム
  6
CONTINUOUS
 62
    7
 10
122.74327818185833
 20
32.089611175263514
 11
122.75346881043265
 21
32.072245305908979
  0
LINE
  8
_0-0_フレ__ム
  6
CONTINUOUS
 62
    7
 10
122.75346881043265
 20
32.072245305908979
 11
122.76338442658613
 21
32.054713090861156
  0
LINE
  8
_0-0_フレ__ム
  6
CONTINUOUS
 62
    7
 10
122.76338442658613
 20
32.054713090861156
 11
122.77302536517186
 21
32.037020291001596
  0
LINE
  8
_0-0_フレ__ム
  6
CONTINUOUS
 62
    7
 10
122.77302536517186
 20
32.037020291001596
 11
122.78239196104283
 21
32.019172667211848
  0
LINE
  8
_0-0_フレ__ム
  6
CONTINUOUS
 62
    7
 10
122.78239196104283
 20
32.019172667211848
 11
122.79148454905226
 21
32.001175980373233
  0
LINE
  8
_0-0_フレ__ム
  6
CONTINUOUS
 62
    7
 10
122.79148454905226
 20
32.001175980373233
 11
122.80030346405294
 21
31.983035991367302
  0
LINE
  8
_0-0_フレ__ム
  6
CONTINUOUS
 62
    7
 10
122.80030346405294
 20
31.983035991367302
 11
122.80884904089828
 21
31.964758461075718
  0
LINE
  8
_0-0_フレ__ム
  6
CONTINUOUS
 62
    7
 10
122.80884904089828
 20
31.964758461075718
 11
122.81712161444108
 21
31.946349150380257
  0
LINE
  8
_0-0_フレ__ム
  6
CONTINUOUS
 62
    7
 10
122.81712161444108
 20
31.946349150380257
 11
122.82512151953443
 21
31.927813820161788
  0
LINE
  8
_0-0_フレ__ム
  6
CONTINUOUS
 62
    7
 10
122.82512151953443
 20
31.927813820161788
 11
122.83284909103156
 21
31.909158231302428
  0
LINE
  8
_0-0_フレ__ム
  6
CONTINUOUS
 62
    7
 10
122.83284909103156
 20
31.909158231302428
 11
122.84030466378533
 21
31.890388144683499
  0
LINE
  8
_0-0_フレ__ム
  6
CONTINUOUS
 62
    7
 10
122.84030466378533
 20
31.890388144683499
 11
122.84748857264884
 21
31.871509321186551
  0
LINE
  8
_0-0_フレ__ム
  6
CONTINUOUS
 62
    7
 10
122.84748857264884
 20
31.871509321186551
 11
122.85440115247525
 21
31.85252752169302
  0
LINE
  8
_0-0_フレ__ム
  6
CONTINUOUS
 62
    7
 10
122.85440115247525
 20
31.85252752169302
 11
122.86104273811753
 21
31.833448507084682
  0
LINE
  8
_0-0_フレ__ム
  6
CONTINUOUS
 62
    7
 10
122.86104273811753
 20
31.833448507084682
 11
122.86741366442874
 21
31.814278038242747
  0
LINE
  8
_0-0_フレ__ム
  6
CONTINUOUS
 62
    7
 10
122.86741366442874
 20
31.814278038242747
 11
122.87351426699985
 21
31.79502187041399
  0
LINE
  8
_0-0_フレ__ム
  6
CONTINUOUS
 62
    7
 10
122.87351426699985
 20
31.79502187041399
 11
122.87934495328318
 21
31.775685210070861
  0
LINE
  8
_0-0_フレ__ム
  6
CONTINUOUS
 62
    7
 10
122.87934495328318
 20
31.775685210070861
 11
122.88490626178714
 21
31.756272262859426
  0
LINE
  8
_0-0_フレ__ム
  6
CONTINUOUS
 62
    7
 10
122.88490626178714
 20
31.756272262859426
 11
122.89019874495546
 21
31.73678712801555
  0
LINE
  8
_0-0_フレ__ム
  6
CONTINUOUS
 62
    7
 10
122.89019874495546
 20
31.73678712801555
 11
122.89522295523108
 21
31.717233904774872
  0
LINE
  8
_0-0_フレ__ム
  6
CONTINUOUS
 62
    7
 10
122.89522295523108
 20
31.717233904774872
 11
122.89997944505717
 21
31.697616692372691
  0
LINE
  8
_0-0_フレ__ム
  6
CONTINUOUS
 62
    7
 10
122.89997944505717
 20
31.697616692372691
 11
122.90446876687713
 21
31.677939590044758
  0
LINE
  8
_0-0_フレ__ム
  6
CONTINUOUS
 62
    7
 10
122.90446876687713
 20
31.677939590044758
 11
122.90869147313418
 21
31.658206697026714
  0
LINE
  8
_0-0_フレ__ム
  6
CONTINUOUS
 62
    7
 10
122.90869147313418
 20
31.658206697026714
 11
122.91264811627127
 21
31.638422112553968
  0
LINE
  8
_0-0_フレ__ム
  6
CONTINUOUS
 62
    7
 10
122.91264811627127
 20
31.638422112553968
 11
122.91633924873184
 21
31.618589935862389
  0
LINE
  8
_0-0_フレ__ム
  6
CONTINUOUS
 62
    7
 10
122.91633924873184
 20
31.618589935862389
 11
122.91976542295913
 21
31.598714266187159
  0
LINE
  8
_0-0_フレ__ム
  6
CONTINUOUS
 62
    7
 10
122.91976542295913
 20
31.598714266187159
 11
122.92292719139624
 21
31.578799202764372
  0
LINE
  8
_0-0_フレ__ム
  6
CONTINUOUS
 62
    7
 10
122.92292719139624
 20
31.578799202764372
 11
122.92582510648646
 21
31.558848844829214
  0
LINE
  8
_0-0_フレ__ム
  6
CONTINUOUS
 62
    7
 10
122.92582510648646
 20
31.558848844829214
 11
122.92845972067306
 21
31.538867291617549
  0
LINE
  8
_0-0_フレ__ム
  6
CONTINUOUS
 62
    7
 10
122.92845972067306
 20
31.538867291617549
 11
122.93083158639905
 21
31.518858642364791
  0
LINE
  8
_0-0_フレ__ム
  6
CONTINUOUS
 62
    7
 10
122.93083158639905
 20
31.518858642364791
 11
122.93294125610777
 21
31.498826996306462
  0
LINE
  8
_0-0_フレ__ム
  6
CONTINUOUS
 62
    7
 10
122.93294125610777
 20
31.498826996306462
 11
122.93478928224243
 21
31.478776452678318
  0
LINE
  8
_0-0_フレ__ム
  6
CONTINUOUS
 62
    7
 10
122.74327806545028
 20
32.089611157869882
 11
122.88466596769126
 21
32.107606020373765
  0
LINE
  8
_0-0_フレ__ム
  6
CONTINUOUS
 62
    7
 10
122.88466596769126
 20
32.107606020373765
 11
123.02539886151288
 21
32.116789002250613
  0
LINE
  8
_0-0_フレ__ム
  6
CONTINUOUS
 62
    7
 10
123.02539886151288
 20
32.116789002250613
 11
123.07162882650545
 21
32.117842946990919
  0
LINE
  8
_0-0_フレ__ム
  6
CONTINUOUS
 62
    7
 10
123.07162882650545
 20
32.117842946990919
 11
123.11731958611517
 21
32.117889648736224
  0
LINE
  8
_0-0_フレ__ム
  6
CONTINUOUS
 62
    7
 10
123.11731958611517
 20
32.117889648736224
 11
123.16234931617777
 21
32.116933471786552
  0
LINE
  8
_0-0_フレ__ム
  6
CONTINUOUS
 62
    7
 10
123.16234931617777
 20
32.116933471786552
 11
123.20659489645914
 21
32.114983373971114
  0
LINE
  8
_0-0_フレ__ム
  6
CONTINUOUS
 62
    7
 10
123.20659489645914
 20
32.114983373971114
 11
123.24993224668788
 21
32.112053033907415
  0
LINE
  8
_0-0_フレ__ム
  6
CONTINUOUS
 62
    7
 10
123.24993224668788
 20
32.112053033907415
 11
123.29223667950174
 21
32.108160967133159
  0
LINE
  8
_0-0_フレ__ム
  6
CONTINUOUS
 62
    7
 10
123.29223667950174
 20
32.108160967133159
 11
123.37475100361684
 21
32.097404784329143
  0
LINE
  8
_0-0_フレ__ム
  6
CONTINUOUS
 62
    7
 10
123.37475100361684
 20
32.097404784329143
 11
123.46741827066126
 21
32.078404753969409
  0
LINE
  8
_0-0_フレ__ム
  6
CONTINUOUS
 62
    7
 10
123.46741827066126
 20
32.078404753969409
 11
123.53114954059316
 21
32.059321294724583
  0
LINE
  8
_0-0_フレ__ム
  6
CONTINUOUS
 62
    7
 10
123.53114954059316
 20
32.059321294724583
 11
123.59305960874866
 21
32.033992936854048
  0
LINE
  8
_0-0_フレ__ム
  6
CONTINUOUS
 62
    7
 10
123.59305960874866
 20
32.033992936854048
 11
123.64958585248684
 21
32.001768806441561
  0
LINE
  8
_0-0_フレ__ム
  6
CONTINUOUS
 62
    7
 10
123.97643189452788
 20
32.676888535116547
 11
123.95272790164785
 21
32.975724773846565
  0
LINE
  8
_0-0_フレ__ム
  6
CONTINUOUS
 62
    7
 10
123.95272790164785
 20
32.975724773846565
 11
123.88273968156454
 21
33.274561012576811
  0
LINE
  8
_0-0_フレ__ム
  6
CONTINUOUS
 62
    7
 10
123.97633257646947
 20
31.21587661739423
 11
123.95786909430194
 21
31.400682545219667
  0
LINE
  8
_0-0_フレ__ム
  6
CONTINUOUS
 62
    7
 10
123.95786909430194
 20
31.400682545219667
 11
123.92853980189028
 21
31.521614233276551
  0
LINE
  8
_0-0_フレ__ム
  6
CONTINUOUS
 62
    7
 10
123.92853980189028
 20
31.521614233276551
 11
123.88273968156454
 21
31.648215415847886
  0
LINE
  8
_0-0_フレ__ム
  6
CONTINUOUS
 62
    7
 10
129.78405267373927
 20
21.945573254830862
 11
129.86421214346467
 21
21.94744174268331
  0
LINE
  8
_0-0_フレ__ム
  6
CONTINUOUS
 62
    7
 10
130.31417918940963
 20
23.426476186304086
 11
130.27051993050134
 21
23.588160517624971
  0
LINE
  8
_0-0_フレ__ム
  6
CONTINUOUS
 62
    7
 10
129.86421214346467
 20
21.94744174268331
 11
129.86649712549854
 21
21.947546135076578
  0
LINE
  8
_0-0_フレ__ム
  6
CONTINUOUS
 62
    7
 10
129.86649712549854
 20
21.947546135076578
 11
129.86878237225437
 21
21.94764597818326
  0
LINE
  8
_0-0_フレ__ム
  6
CONTINUOUS
 62
    7
 10
129.86878237225437
 20
21.94764597818326
 11
129.87106786902427
 21
21.947741247576602
  0
LINE
  8
_0-0_フレ__ム
  6
CONTINUOUS
 62
    7
 10
129.87106786902427
 20
21.947741247576602
 11
129.87335360110075
 21
21.947831918829621
  0
LINE
  8
_0-0_フレ__ム
  6
CONTINUOUS
 62
    7
 10
129.87335360110075
 20
21.947831918829621
 11
129.87563955377635
 21
21.947917967515565
  0
LINE
  8
_0-0_フレ__ム
  6
CONTINUOUS
 62
    7
 10
129.87563955377635
 20
21.947917967515565
 11
129.87792571234337
 21
21.947999369207338
  0
LINE
  8
_0-0_フレ__ム
  6
CONTINUOUS
 62
    7
 10
129.87792571234337
 20
21.947999369207338
 11
129.88021206209413
 21
21.948076099478413
  0
LINE
  8
_0-0_フレ__ム
  6
CONTINUOUS
 62
    7
 10
129.88021206209413
 20
21.948076099478413
 11
129.88249858832125
 21
21.94814813390181
  0
LINE
  8
_0-0_フレ__ム
  6
CONTINUOUS
 62
    7
 10
129.88249858832125
 20
21.94814813390181
 11
129.88478527631707
 21
21.948215448050661
  0
LINE
  8
_0-0_フレ__ム
  6
CONTINUOUS
 62
    7
 10
129.88478527631707
 20
21.948215448050661
 11
129.88707211137398
 21
21.948278017498211
  0
LINE
  8
_0-0_フレ__ム
  6
CONTINUOUS
 62
    7
 10
129.88707211137398
 20
21.948278017498211
 11
129.88935907878425
 21
21.948335817817366
  0
LINE
  8
_0-0_フレ__ム
  6
CONTINUOUS
 62
    7
 10
129.88935907878425
 20
21.948335817817366
 11
129.89164616384056
 21
21.948388824581258
  0
LINE
  8
_0-0_フレ__ム
  6
CONTINUOUS
 62
    7
 10
129.89164616384056
 20
21.948388824581258
 11
129.89393335183507
 21
21.94843701336336
  0
LINE
  8
_0-0_フレ__ム
  6
CONTINUOUS
 62
    7
 10
129.89393335183507
 20
21.94843701336336
 11
129.89622062806035
 21
21.948480359736919
  0
LINE
  8
_0-0_フレ__ム
  6
CONTINUOUS
 62
    7
 10
129.89622062806035
 20
21.948480359736919
 11
129.89850797780878
 21
21.948518839274499
  0
LINE
  8
_0-0_フレ__ム
  6
CONTINUOUS
 62
    7
 10
129.89850797780878
 20
21.948518839274499
 11
129.90079538637275
 21
21.948552427549799
  0
LINE
  8
_0-0_フレ__ム
  6
CONTINUOUS
 62
    7
 10
129.90079538637275
 20
21.948552427549799
 11
129.90308283904477
 21
21.948581100135613
  0
LINE
  8
_0-0_フレ__ム
  6
CONTINUOUS
 62
    7
 10
129.90308283904477
 20
21.948581100135613
 11
129.90537032111706
 21
21.948604832604957
  0
LINE
  8
_0-0_フレ__ム
  6
CONTINUOUS
 62
    7
 10
129.90537032111706
 20
21.948604832604957
 11
129.90765781788207
 21
21.94862360053142
  0
LINE
  8
_0-0_フレ__ム
  6
CONTINUOUS
 62
    7
 10
129.90765781788207
 20
21.94862360053142
 11
129.90994531463247
 21
21.948637379487906
  0
LINE
  8
_0-0_フレ__ム
  6
CONTINUOUS
 62
    7
 10
129.90994531463247
 20
21.948637379487906
 11
129.91223279666025
 21
21.948646145047775
  0
LINE
  8
_0-0_フレ__ム
  6
CONTINUOUS
 62
    7
 10
129.91223279666025
 20
21.948646145047775
 11
129.91452024925815
 21
21.948649872783818
  0
LINE
  8
_0-0_フレ__ム
  6
CONTINUOUS
 62
    7
 10
129.91452024925815
 20
21.948649872783818
 11
129.91680765771855
 21
21.948648538269509
  0
LINE
  8
_0-0_フレ__ム
  6
CONTINUOUS
 62
    7
 10
129.91680765771855
 20
21.948648538269509
 11
129.91909500733374
 21
21.948642117077753
  0
LINE
  8
_0-0_フレ__ム
  6
CONTINUOUS
 62
    7
 10
129.78405267373915
 20
21.945573254830862
 11
120.36421214341374
 21
21.945573254830862
  0
LINE
  8
_0-0_フレ__ム
  6
CONTINUOUS
 62
    7
 10
123.97576654584725
 20
33.983885291517396
 11
123.94861777327066
 21
33.98887247381461
  0
LINE
  8
_0-0_フレ__ム
  6
CONTINUOUS
 62
    7
 10
123.94861777327066
 20
33.98887247381461
 11
123.88273968156454
 21
33.981667793763819
  0
LINE
  8
_0-0_フレ__ム
  6
CONTINUOUS
 62
    7
 10
130.31417918940957
 20
24.301008960628593
 11
130.27051993050134
 21
24.29526729881141
  0
LINE
  8
_0-0_フレ__ム
  6
CONTINUOUS
 62
    7
 10
120.36421214341374
 20
17.433966527752688
 11
122.86421214341078
 21
17.433966527752688
  0
LINE
  8
_0-0_フレ__ム
  6
CONTINUOUS
 62
    7
 10
122.88936077023146
 20
17.434414023061578
 11
122.90247769834855
 21
17.445724504600918
  0
LINE
  8
_0-0_フレ__ム
  6
CONTINUOUS
 62
    7
 10
122.90247769834855
 20
17.445724504600918
 11
122.92675347044178
 21
17.465564569423151
  0
LINE
  8
_0-0_フレ__ム
  6
CONTINUOUS
 62
    7
 10
122.92675347044178
 20
17.465564569423151
 11
122.96483557701583
 21
17.49748176618246
  0
LINE
  8
_0-0_フレ__ム
  6
CONTINUOUS
 62
    7
 10
122.96483557701583
 20
17.49748176618246
 11
123.01350287472144
 21
17.541073746906847
  0
LINE
  8
_0-0_フレ__ム
  6
CONTINUOUS
 62
    7
 10
123.01350287472144
 20
17.541073746906847
 11
123.10404579724894
 21
17.632543044006894
  0
LINE
  8
_0-0_フレ__ム
  6
CONTINUOUS
 62
    7
 10
123.10404579724894
 20
17.632543044006894
 11
123.18900793127955
 21
17.734142124349688
  0
LINE
  8
_0-0_フレ__ム
  6
CONTINUOUS
 62
    7
 10
123.18900793127955
 20
17.734142124349688
 11
123.24476128257743
 21
17.813112428295568
  0
LINE
  8
_0-0_フレ__ム
  6
CONTINUOUS
 62
    7
 10
123.24476128257743
 20
17.813112428295568
 11
123.29336667335917
 21
17.895412225983506
  0
LINE
  8
_0-0_フレ__ム
  6
CONTINUOUS
 62
    7
 10
123.29336667335917
 20
17.895412225983506
 11
123.34087319483723
 21
18.00371440791335
  0
LINE
  8
_0-0_フレ__ム
  6
CONTINUOUS
 62
    7
 10
123.34087319483723
 20
18.00371440791335
 11
123.35111918015747
 21
18.037351833954887
  0
LINE
  8
_0-0_フレ__ム
  6
CONTINUOUS
 62
    7
 10
122.86421214341078
 20
17.433966527752688
 11
122.88936077023146
 21
17.434414023061578
  0
LINE
  8
_0-0_フレ__ム
  6
CONTINUOUS
 62
    7
 10
123.36421214341078
 20
18.126906948045558
 11
123.36421214341078
 21
20.177637890663306
  0
LINE
  8
_0-0_フレ__ム
  6
CONTINUOUS
 62
    7
 10
123.35111918015747
 20
18.037351833954887
 11
123.35877245342084
 21
18.07110472299965
  0
LINE
  8
_0-0_フレ__ム
  6
CONTINUOUS
 62
    7
 10
123.35877245342084
 20
18.07110472299965
 11
123.36421214341078
 21
18.126906948045558
  0
LINE
  8
_0-0_フレ__ム
  6
CONTINUOUS
 62
    7
 10
123.36421214341078
 20
20.884913083050975
 11
123.35460478361233
 21
20.960681357134405
  0
LINE
  8
_0-0_フレ__ム
  6
CONTINUOUS
 62
    7
 10
123.35460478361233
 20
20.960681357134405
 11
123.32615190966635
 21
21.047124757461603
  0
LINE
  8
_0-0_フレ__ム
  6
CONTINUOUS
 62
    7
 10
123.32615190966635
 20
21.047124757461603
 11
123.27994694956203
 21
21.140921312636152
  0
LINE
  8
_0-0_フレ__ム
  6
CONTINUOUS
 62
    7
 10
123.27994694956203
 20
21.140921312636152
 11
123.21776553400406
 21
21.238466473644309
  0
LINE
  8
_0-0_フレ__ム
  6
CONTINUOUS
 62
    7
 10
123.21776553400406
 20
21.238466473644309
 11
123.14199725992057
 21
21.336011634652237
  0
LINE
  8
_0-0_フレ__ム
  6
CONTINUOUS
 62
    7
 10
123.14199725992057
 20
21.336011634652237
 11
123.05555385959326
 21
21.429808189826787
  0
LINE
  8
_0-0_フレ__ム
  6
CONTINUOUS
 62
    7
 10
123.05555385959326
 20
21.429808189826787
 11
122.96175730441888
 21
21.516251590153985
  0
LINE
  8
_0-0_フレ__ム
  6
CONTINUOUS
 62
    7
 10
122.96175730441888
 20
21.516251590153985
 11
122.86421214341078
 21
21.592019864237415
  0
LINE
  8
_0-0_フレ__ム
  6
CONTINUOUS
 62
    7
 10
123.36421214341078
 20
20.177637890663306
 11
123.36421214341078
 21
20.884913083050975
  0
LINE
  8
_0-0_フレ__ム
  6
CONTINUOUS
 62
    7
 10
130.36421214346467
 20
23.139906159532444
 11
130.36421214346467
 21
21.959440459251169
  0
LINE
  8
_0-0_フレ__ム
  6
CONTINUOUS
 62
    7
 10
130.36421214346467
 20
21.959440459251169
 11
130.35560467765947
 21
21.953223746037821
  0
LINE
  8
_0-0_フレ__ム
  6
CONTINUOUS
 62
    7
 10
130.35560467765947
 20
21.953223746037821
 11
130.33295844453585
 21
21.949321996281384
  0
LINE
  8
_0-0_フレ__ム
  6
CONTINUOUS
 62
    7
 10
130.33295844453585
 20
21.949321996281384
 11
130.31781989409535
 21
21.947920019130066
  0
LINE
  8
_0-0_フレ__ム
  6
CONTINUOUS
 62
    7
 10
130.31781989409535
 20
21.947920019130066
 11
130.30086063870044
 21
21.946826685608954
  0
LINE
  8
_0-0_フレ__ム
  6
CONTINUOUS
 62
    7
 10
130.30086063870044
 20
21.946826685608954
 11
130.28257896575946
 21
21.946055695202091
  0
LINE
  8
_0-0_フレ__ム
  6
CONTINUOUS
 62
    7
 10
130.28257896575946
 20
21.946055695202091
 11
130.26343290705364
 21
21.945656755227589
  0
LINE
  8
_0-0_フレ__ム
  6
CONTINUOUS
 62
    7
 10
130.26343290705364
 20
21.945656755227589
 11
130.19999332492284
 21
21.945924847126349
  0
LINE
  8
_0-0_フレ__ム
  6
CONTINUOUS
 62
    7
 10
130.19999332492284
 20
21.945924847126349
 11
130.12399810255636
 21
21.947245330844595
  0
LINE
  8
_0-0_フレ__ム
  6
CONTINUOUS
 62
    7
 10
130.12399810255636
 20
21.947245330844595
 11
130.02984506359013
 21
21.949604607885618
  0
LINE
  8
_0-0_フレ__ム
  6
CONTINUOUS
 62
    7
 10
130.02984506359013
 20
21.949604607885618
 11
129.91909500733374
 21
21.948642117077753
  0
LINE
  8
_0-0_フレ__ム
  6
CONTINUOUS
 62
    7
 10
130.31417918940957
 20
23.426476186304086
 11
130.33367371459786
 21
23.344059256465385
  0
LINE
  8
_0-0_フレ__ム
  6
CONTINUOUS
 62
    7
 10
130.33367371459786
 20
23.344059256465385
 11
130.33936619560376
 21
23.319424203557588
  0
LINE
  8
_0-0_フレ__ム
  6
CONTINUOUS
 62
    7
 10
130.33936619560376
 20
23.319424203557588
 11
130.34486706670225
 21
23.294384705515
  0
LINE
  8
_0-0_フレ__ム
  6
CONTINUOUS
 62
    7
 10
130.34486706670225
 20
23.294384705515
 11
130.34997572696585
 21
23.269157319406673
  0
LINE
  8
_0-0_フレ__ム
  6
CONTINUOUS
 62
    7
 10
130.34997572696585
 20
23.269157319406673
 11
130.35970268692216
 21
23.209104556401286
  0
LINE
  8
_0-0_フレ__ム
  6
CONTINUOUS
 62
    7
 10
130.35970268692216
 20
23.209104556401286
 11
130.36421214346467
 21
23.139906159529829
  0
LINE
  8
_0-0_フレ__ム
  6
CONTINUOUS
 62
    7
 10
130.36421214346467
 20
21.238466473644081
 11
130.36421214346467
 21
21.108230854923164
  0
LINE
  8
_0-0_フレ__ム
  6
CONTINUOUS
 62
    7
 10
130.36421214346467
 20
21.959440459251169
 11
130.36421214346467
 21
21.238466473644081
  0
LINE
  8
_0-0_フレ__ム
  6
CONTINUOUS
 62
    7
 10
130.36421214346467
 20
24.145849179446401
 11
130.36254081413904
 21
24.186408106784398
  0
LINE
  8
_0-0_フレ__ム
  6
CONTINUOUS
 62
    7
 10
130.36421214346467
 20
24.145849179446401
 11
130.36421214346467
 21
23.139906159532444
  0
LINE
  8
_0-0_フレ__ム
  6
CONTINUOUS
 62
    7
 10
130.36254081413904
 20
24.186408106784398
 11
130.36221377132517
 21
24.190060173384865
  0
LINE
  8
_0-0_フレ__ム
  6
CONTINUOUS
 62
    7
 10
130.36221377132517
 20
24.190060173384865
 11
130.35708528886823
 21
24.22621053773392
  0
LINE
  8
_0-0_フレ__ム
  6
CONTINUOUS
 62
    7
 10
130.35708528886823
 20
24.22621053773392
 11
130.35001790682298
 21
24.254248307448648
  0
LINE
  8
_0-0_フレ__ム
  6
CONTINUOUS
 62
    7
 10
130.35001790682298
 20
24.254248307448648
 11
130.34178540229215
 21
24.275250741862152
  0
LINE
  8
_0-0_フレ__ム
  6
CONTINUOUS
 62
    7
 10
130.34178540229215
 20
24.275250741862152
 11
130.33347543215575
 21
24.288958595360128
  0
LINE
  8
_0-0_フレ__ム
  6
CONTINUOUS
 62
    7
 10
130.33347543215575
 20
24.288958595360128
 11
130.32572251699634
 21
24.295844091633313
  0
LINE
  8
_0-0_フレ__ム
  6
CONTINUOUS
 62
    7
 10
130.32572251699634
 20
24.295844091633313
 11
130.31417918940957
 21
24.301008960628593
  0
LINE
  8
_0-0_フレ__ム
  6
CONTINUOUS
 62
    7
 10
123.36421214340476
 20
19.588279639976605
 11
123.36475686373427
 21
19.588296836364435
  0
LINE
  8
_0-0_フレ__ム
  6
CONTINUOUS
 62
    7
 10
123.36475686373427
 20
19.588296836364435
 11
123.36530159124806
 21
19.588313818527723
  0
LINE
  8
_0-0_フレ__ム
  6
CONTINUOUS
 62
    7
 10
123.36530159124806
 20
19.588313818527723
 11
123.36584632581986
 21
19.588330586465787
  0
LINE
  8
_0-0_フレ__ム
  6
CONTINUOUS
 62
    7
 10
123.36584632581986
 20
19.588330586465787
 11
123.36639106732304
 21
19.588347140177945
  0
LINE
  8
_0-0_フレ__ム
  6
CONTINUOUS
 62
    7
 10
123.36639106732304
 20
19.588347140177945
 11
123.36693581563134
 21
19.588363479662831
  0
LINE
  8
_0-0_フレ__ム
  6
CONTINUOUS
 62
    7
 10
123.36693581563134
 20
19.588363479662831
 11
123.36748057061817
 21
19.588379604920107
  0
LINE
  8
_0-0_フレ__ム
  6
CONTINUOUS
 62
    7
 10
123.36748057061817
 20
19.588379604920107
 11
123.36802533215723
 21
19.588395515948861
  0
LINE
  8
_0-0_フレ__ム
  6
CONTINUOUS
 62
    7
 10
123.36802533215723
 20
19.588395515948861
 11
123.36857010012193
 21
19.588411212748184
  0
LINE
  8
_0-0_フレ__ム
  6
CONTINUOUS
 62
    7
 10
123.36857010012193
 20
19.588411212748184
 11
123.36911487438607
 21
19.588426695317509
  0
LINE
  8
_0-0_フレ__ム
  6
CONTINUOUS
 62
    7
 10
123.36911487438607
 20
19.588426695317509
 11
123.36965965482284
 21
19.588441963655811
  0
LINE
  8
_0-0_フレ__ム
  6
CONTINUOUS
 62
    7
 10
123.36965965482284
 20
19.588441963655811
 11
123.37020444130616
 21
19.588457017762408
  0
LINE
  8
_0-0_フレ__ム
  6
CONTINUOUS
 62
    7
 10
123.37020444130616
 20
19.588457017762408
 11
123.37074923370943
 21
19.588471857636165
  0
LINE
  8
_0-0_フレ__ム
  6
CONTINUOUS
 62
    7
 10
123.37074923370943
 20
19.588471857636165
 11
123.37129403190625
 21
19.588486483276853
  0
LINE
  8
_0-0_フレ__ム
  6
CONTINUOUS
 62
    7
 10
123.37129403190625
 20
19.588486483276853
 11
123.37183883577018
 21
19.588500894683108
  0
LINE
  8
_0-0_フレ__ム
  6
CONTINUOUS
 62
    7
 10
123.37183883577018
 20
19.588500894683108
 11
123.37238364517464
 21
19.588515091854475
  0
LINE
  8
_0-0_フレ__ム
  6
CONTINUOUS
 62
    7
 10
123.37238364517464
 20
19.588515091854475
 11
123.37292845999343
 21
19.588529074790159
  0
LINE
  8
_0-0_フレ__ム
  6
CONTINUOUS
 62
    7
 10
123.37292845999343
 20
19.588529074790159
 11
123.37347328009997
 21
19.588542843489023
  0
LINE
  8
_0-0_フレ__ム
  6
CONTINUOUS
 62
    7
 10
123.37347328009997
 20
19.588542843489023
 11
123.37401810536784
 21
19.588556397950612
  0
LINE
  8
_0-0_フレ__ム
  6
CONTINUOUS
 62
    7
 10
123.37401810536784
 20
19.588556397950612
 11
123.37456293567067
 21
19.588569738174016
  0
LINE
  8
_0-0_フレ__ム
  6
CONTINUOUS
 62
    7
 10
123.37456293567067
 20
19.588569738174016
 11
123.37510777088187
 21
19.588582864158212
  0
LINE
  8
_0-0_フレ__ム
  6
CONTINUOUS
 62
    7
 10
123.37510777088187
 20
19.588582864158212
 11
123.37565261087508
 21
19.58859577590286
  0
LINE
  8
_0-0_フレ__ム
  6
CONTINUOUS
 62
    7
 10
123.37565261087508
 20
19.58859577590286
 11
123.37619745552394
 21
19.588608473406708
  0
LINE
  8
_0-0_フレ__ム
  6
CONTINUOUS
 62
    7
 10
123.37619745552394
 20
19.588608473406708
 11
123.37674230470185
 21
19.588620956669189
  0
LINE
  8
_0-0_フレ__ム
  6
CONTINUOUS
 62
    7
 10
123.37674230470185
 20
19.588620956669189
 11
123.37728715828268
 21
19.588633225689165
  0
LINE
  8
_0-0_フレ__ム
  6
CONTINUOUS
 62
    7
 10
123.56421214348438
 20
19.592867124844503
 11
123.56421214348438
 21
20.038913265138405
  0
LINE
  8
_0-0_フレ__ム
  6
CONTINUOUS
 62
    7
 10
123.37728715828234
 20
19.588633225691325
 11
123.38507575457174
 21
19.588807183043315
  0
LINE
  8
_0-0_フレ__ム
  6
CONTINUOUS
 62
    7
 10
123.38507575457174
 20
19.588807183043315
 11
123.39286434617213
 21
19.588981351708327
  0
LINE
  8
_0-0_フレ__ム
  6
CONTINUOUS
 62
    7
 10
123.39286434617213
 20
19.588981351708327
 11
123.40065293306776
 21
19.589155731983425
  0
LINE
  8
_0-0_フレ__ム
  6
CONTINUOUS
 62
    7
 10
123.40065293306776
 20
19.589155731983425
 11
123.40844151524317
 21
19.589330324164763
  0
LINE
  8
_0-0_フレ__ム
  6
CONTINUOUS
 62
    7
 10
123.40844151524317
 20
19.589330324164763
 11
123.41623009268267
 21
19.589505128549177
  0
LINE
  8
_0-0_フレ__ム
  6
CONTINUOUS
 62
    7
 10
123.41623009268267
 20
19.589505128549177
 11
123.42401866537068
 21
19.58968014543305
  0
LINE
  8
_0-0_フレ__ム
  6
CONTINUOUS
 62
    7
 10
123.42401866537068
 20
19.58968014543305
 11
123.43180723329164
 21
19.58985537511299
  0
LINE
  8
_0-0_フレ__ム
  6
CONTINUOUS
 62
    7
 10
123.43180723329164
 20
19.58985537511299
 11
123.43959579643007
 21
19.590030817885605
  0
LINE
  8
_0-0_フレ__ム
  6
CONTINUOUS
 62
    7
 10
123.43959579643007
 20
19.590030817885605
 11
123.44738435477018
 21
19.590206474047278
  0
LINE
  8
_0-0_フレ__ム
  6
CONTINUOUS
 62
    7
 10
123.44738435477018
 20
19.590206474047278
 11
123.45517290829645
 21
19.590382343894959
  0
LINE
  8
_0-0_フレ__ム
  6
CONTINUOUS
 62
    7
 10
123.45517290829645
 20
19.590382343894959
 11
123.46296145699336
 21
19.590558427724915
  0
LINE
  8
_0-0_フレ__ム
  6
CONTINUOUS
 62
    7
 10
123.46296145699336
 20
19.590558427724915
 11
123.47075000084538
 21
19.590734725833755
  0
LINE
  8
_0-0_フレ__ム
  6
CONTINUOUS
 62
    7
 10
123.47075000084538
 20
19.590734725833755
 11
123.47853853983668
 21
19.590911238518089
  0
LINE
  8
_0-0_フレ__ム
  6
CONTINUOUS
 62
    7
 10
123.47853853983668
 20
19.590911238518089
 11
123.48632707395188
 21
19.591087966074298
  0
LINE
  8
_0-0_フレ__ム
  6
CONTINUOUS
 62
    7
 10
123.48632707395188
 20
19.591087966074298
 11
123.49411560317526
 21
19.591264908799445
  0
LINE
  8
_0-0_フレ__ム
  6
CONTINUOUS
 62
    7
 10
123.49411560317526
 20
19.591264908799445
 11
123.50190412749134
 21
19.591442066989572
  0
LINE
  8
_0-0_フレ__ム
  6
CONTINUOUS
 62
    7
 10
123.50190412749134
 20
19.591442066989572
 11
123.50969264688445
 21
19.5916194409414
  0
LINE
  8
_0-0_フレ__ム
  6
CONTINUOUS
 62
    7
 10
123.50969264688445
 20
19.5916194409414
 11
123.51748116133905
 21
19.591797030951653
  0
LINE
  8
_0-0_フレ__ム
  6
CONTINUOUS
 62
    7
 10
123.51748116133905
 20
19.591797030951653
 11
123.52526967083946
 21
19.591974837316599
  0
LINE
  8
_0-0_フレ__ム
  6
CONTINUOUS
 62
    7
 10
123.52526967083946
 20
19.591974837316599
 11
123.53305817537023
 21
19.592152860332959
  0
LINE
  8
_0-0_フレ__ム
  6
CONTINUOUS
 62
    7
 10
123.53305817537023
 20
19.592152860332959
 11
123.54084667491566
 21
19.592331100297457
  0
LINE
  8
_0-0_フレ__ム
  6
CONTINUOUS
 62
    7
 10
123.54084667491566
 20
19.592331100297457
 11
123.54863516946028
 21
19.592509557506588
  0
LINE
  8
_0-0_フレ__ム
  6
CONTINUOUS
 62
    7
 10
123.54863516946028
 20
19.592509557506588
 11
123.55642365898836
 21
19.59268823225662
  0
LINE
  8
_0-0_フレ__ム
  6
CONTINUOUS
 62
    7
 10
123.55642365898836
 20
19.59268823225662
 11
123.56421214348438
 21
19.592867124844503
  0
LINE
  8
_0-0_フレ__ム
  6
CONTINUOUS
 62
    7
 10
129.39038012158613
 20
17.097045117408157
 11
128.11658476032386
 21
17.097045117408385
  0
LINE
  8
_0-0_フレ__ム
  6
CONTINUOUS
 62
    7
 10
130.36084738734985
 20
17.626404761403847
 11
130.36264637341935
 21
17.617061155642119
  0
LINE
  8
_0-0_フレ__ム
  6
CONTINUOUS
 62
    7
 10
130.36264637341935
 20
17.617061155642119
 11
130.36421214346467
 21
17.597045117408157
  0
LINE
  8
_0-0_フレ__ム
  6
CONTINUOUS
 62
    7
 10
130.21776553406357
 20
17.243491726820508
 11
130.27994694962143
 21
17.319260000906667
  0
LINE
  8
_0-0_フレ__ム
  6
CONTINUOUS
 62
    7
 10
130.27994694962143
 20
17.319260000906667
 11
130.32615190972484
 21
17.405703401236593
  0
LINE
  8
_0-0_フレ__ム
  6
CONTINUOUS
 62
    7
 10
130.32615190972484
 20
17.405703401236593
 11
130.35460478366895
 21
17.499499956413757
  0
LINE
  8
_0-0_フレ__ム
  6
CONTINUOUS
 62
    7
 10
130.35460478366895
 20
17.499499956413757
 11
130.36182401813505
 21
17.548235055054562
  0
LINE
  8
_0-0_フレ__ム
  6
CONTINUOUS
 62
    7
 10
130.05555385964726
 20
17.135105351152475
 11
130.14199725997946
 21
17.181310311260319
  0
LINE
  8
_0-0_フレ__ム
  6
CONTINUOUS
 62
    7
 10
130.14199725997946
 20
17.181310311260319
 11
130.21776553406357
 21
17.243491726820508
  0
LINE
  8
_0-0_フレ__ム
  6
CONTINUOUS
 62
    7
 10
129.86421214346467
 20
17.097045117408157
 11
129.39038012158613
 21
17.097045117408157
  0
LINE
  8
_0-0_フレ__ム
  6
CONTINUOUS
 62
    7
 10
129.86421214346467
 20
17.097045117408157
 11
129.96175730447465
 21
17.10665247720695
  0
LINE
  8
_0-0_フレ__ム
  6
CONTINUOUS
 62
    7
 10
129.96175730447465
 20
17.10665247720695
 11
130.05555385964726
 21
17.135105351152475
  0
LINE
  8
_0-0_フレ__ム
  6
CONTINUOUS
 62
    7
 10
128.11658476032426
 20
17.097045117408385
 11
120.36421214341374
 21
17.097045117408385
  0
LINE
  8
_0-0_フレ__ム
  6
CONTINUOUS
 62
    7
 10
130.36421214346467
 20
21.108230854922141
 11
130.36421214346467
 21
17.597045117408157
  0
LINE
  8
_0-0_フレ__ム
  6
CONTINUOUS
 62
    7
 10
73.466000918234897
 20
7.0970451174065659
 11
73.466000918234897
 21
63.097045117406793
  0
CIRCLE
  8
_0-0_フレ__ム
  6
CONTINUOUS
 62
    7
 10
30.96600091818442
 20
21.097045117361503
 40
4
  0
LINE
  8
_0-0_フレ__ム
  6
CONTINUOUS
 62
    7
 10
31.46600091818442
 20
23.597045117361503
 11
30.46600091818442
 21
23.597045117361503
  0
LINE
  8
_0-0_フレ__ム
  6
CONTINUOUS
 62
    7
 10
31.46600091818442
 20
18.597045117361503
 11
30.46600091818442
 21
18.597045117361503
  0
LINE
  8
_0-0_フレ__ム
  6
CONTINUOUS
 62
    7
 10
28.46600091818442
 20
21.597045117361503
 11
28.46600091818442
 21
20.597045117361503
  0
LINE
  8
_0-0_フレ__ム
  6
CONTINUOUS
 62
    7
 10
33.46600091818442
 20
21.597045117361503
 11
33.46600091818442
 21
20.597045117361503
  0
LINE
  8
_0-0_フレ__ム
  6
CONTINUOUS
 62
    7
 10
29.46600091818442
 20
21.597045117361503
 11
28.46600091818442
 21
21.597045117361503
  0
LINE
  8
_0-0_フレ__ム
  6
CONTINUOUS
 62
    7
 10
30.46600091818442
 20
22.597045117361503
 11
30.46600091818442
 21
23.597045117361503
  0
ARC
  8
_0-0_フレ__ム
  6
CONTINUOUS
 62
    7
 10
29.46600091818442
 20
22.597045117361503
 40
1
 50
270
 51
0
  0
LINE
  8
_0-0_フレ__ム
  6
CONTINUOUS
 62
    7
 10
31.46600091818442
 20
22.597045117361503
 11
31.46600091818442
 21
23.597045117361503
  0
LINE
  8
_0-0_フレ__ム
  6
CONTINUOUS
 62
    7
 10
32.46600091818442
 20
21.597045117361503
 11
33.46600091818442
 21
21.597045117361503
  0
ARC
  8
_0-0_フレ__ム
  6
CONTINUOUS
 62
    7
 10
32.46600091818442
 20
22.597045117361503
 40
1
 50
180
 51
270
  0
LINE
  8
_0-0_フレ__ム
  6
CONTINUOUS
 62
    7
 10
32.46600091818442
 20
20.597045117361503
 11
33.46600091818442
 21
20.597045117361503
  0
LINE
  8
_0-0_フレ__ム
  6
CONTINUOUS
 62
    7
 10
31.46600091818442
 20
19.597045117361503
 11
31.46600091818442
 21
18.597045117361503
  0
ARC
  8
_0-0_フレ__ム
  6
CONTINUOUS
 62
    7
 10
32.46600091818442
 20
19.597045117361503
 40
1
 50
90
 51
180
  0
LINE
  8
_0-0_フレ__ム
  6
CONTINUOUS
 62
    7
 10
30.46600091818442
 20
19.597045117361503
 11
30.46600091818442
 21
18.597045117361503
  0
LINE
  8
_0-0_フレ__ム
  6
CONTINUOUS
 62
    7
 10
29.46600091818442
 20
20.597045117361503
 11
28.46600091818442
 21
20.597045117361503
  0
ARC
  8
_0-0_フレ__ム
  6
CONTINUOUS
 62
    7
 10
29.46600091818442
 20
19.597045117361503
 40
1
 50
0
 51
90.000000000000028
  0
CIRCLE
  8
_0-0_フレ__ム
  6
CONTINUOUS
 62
    7
 10
58.96600091828077
 20
49.097045117463296
 40
4
  0
LINE
  8
_0-0_フレ__ム
  6
CONTINUOUS
 62
    7
 10
59.46600091828077
 20
51.597045117463296
 11
58.46600091828077
 21
51.597045117463296
  0
LINE
  8
_0-0_フレ__ム
  6
CONTINUOUS
 62
    7
 10
59.46600091828077
 20
46.597045117463296
 11
58.46600091828077
 21
46.597045117463296
  0
LINE
  8
_0-0_フレ__ム
  6
CONTINUOUS
 62
    7
 10
56.46600091828077
 20
49.597045117463296
 11
56.46600091828077
 21
48.597045117463296
  0
LINE
  8
_0-0_フレ__ム
  6
CONTINUOUS
 62
    7
 10
61.46600091828077
 20
49.597045117463296
 11
61.46600091828077
 21
48.597045117463296
  0
LINE
  8
_0-0_フレ__ム
  6
CONTINUOUS
 62
    7
 10
57.46600091828077
 20
49.597045117463296
 11
56.46600091828077
 21
49.597045117463296
  0
LINE
  8
_0-0_フレ__ム
  6
CONTINUOUS
 62
    7
 10
58.46600091828077
 20
50.597045117463296
 11
58.46600091828077
 21
51.597045117463296
  0
ARC
  8
_0-0_フレ__ム
  6
CONTINUOUS
 62
    7
 10
57.46600091828077
 20
50.597045117463296
 40
1
 50
270
 51
0
  0
LINE
  8
_0-0_フレ__ム
  6
CONTINUOUS
 62
    7
 10
59.46600091828077
 20
50.597045117463296
 11
59.46600091828077
 21
51.597045117463296
  0
LINE
  8
_0-0_フレ__ム
  6
CONTINUOUS
 62
    7
 10
60.46600091828077
 20
49.597045117463296
 11
61.46600091828077
 21
49.597045117463296
  0
ARC
  8
_0-0_フレ__ム
  6
CONTINUOUS
 62
    7
 10
60.46600091828077
 20
50.597045117463296
 40
1
 50
180
 51
270
  0
LINE
  8
_0-0_フレ__ム
  6
CONTINUOUS
 62
    7
 10
60.46600091828077
 20
48.597045117463296
 11
61.46600091828077
 21
48.597045117463296
  0
LINE
  8
_0-0_フレ__ム
  6
CONTINUOUS
 62
    7
 10
59.46600091828077
 20
47.597045117463296
 11
59.46600091828077
 21
46.597045117463296
  0
ARC
  8
_0-0_フレ__ム
  6
CONTINUOUS
 62
    7
 10
60.46600091828077
 20
47.597045117463296
 40
1
 50
90
 51
180
  0
LINE
  8
_0-0_フレ__ム
  6
CONTINUOUS
 62
    7
 10
58.46600091828077
 20
47.597045117463296
 11
58.46600091828077
 21
46.597045117463296
  0
LINE
  8
_0-0_フレ__ム
  6
CONTINUOUS
 62
    7
 10
57.46600091828077
 20
48.597045117463296
 11
56.46600091828077
 21
48.597045117463296
  0
ARC
  8
_0-0_フレ__ム
  6
CONTINUOUS
 62
    7
 10
57.46600091828077
 20
47.597045117463296
 40
1
 50
0
 51
90.000000000000028
  0
LINE
  8
ADD_LINE
  6
DOT
 62
  152
 10
14.966000918235011
 20
5.0970451174120228
 11
74.966000918234954
 21
65.09704511741225
  0
LINE
  8
ADD_LINE
  6
DOT
 62
  152
 10
74.966000918234954
 20
5.0970451174120228
 11
14.96600091823467
 21
65.09704511741225
  0
LINE
  8
_0-1_その他LF______
  6
CENTER1
 62
  152
 10
49.96600091828077
 20
49.097045117463296
 11
67.96600091828077
 21
49.097045117463296
  0
LINE
  8
_0-1_その他LF______
  6
CENTER1
 62
  152
 10
58.96600091828077
 20
40.097045117463296
 11
58.96600091828077
 21
58.097045117463296
  0
LINE
  8
_0-1_その他LF______
  6
CENTER1
 62
  152
 10
21.96600091818442
 20
21.097045117367003
 11
39.966000918184363
 21
21.097045117367003
  0
LINE
  8
_0-1_その他LF______
  6
CENTER1
 62
  152
 10
30.96600091818442
 20
12.097045117367003
 11
30.96600091818442
 21
30.097045117367003
  0
ENDSEC
  0
EOF
