  0
SECTION
  2
HEADER
  9
$ACADVER
  1
AC1009
  9
$INSBASE
 10
0
 20
0
 30
0
  9
$EXTMIN
 10
0
 20
0
  9
$EXTMAX
 10
1189
 20
841
  9
$LIMMIN
 10
0
 20
0
  9
$LIMMAX
 10
1189
 20
841
  9
$LTSCALE
 40
1
  0
ENDSEC
  0
SECTION
  2
TABLES
  0
TABLE
  2
LTYPE
 70
     9
  0
LTYPE
  2
CONTINUOUS
 70
    64
  3
実線
 72
    65
 73
     0
 40
0.0
  0
LTYPE
  2
DASHED1
 70
    64
  3
--  --  --  --  --  --  --  --  
 72
    65
 73
     2
 40
2.5
 49
1.25
 49
-1.25
  0
LTYPE
  2
DASHED2
 70
    64
  3
----    ----    ----    ----    
 72
    65
 73
     2
 40
5.0
 49
2.5
 49
-2.5
  0
LTYPE
  2
DASHED3
 70
    64
  3
------  ------  ------  ------  
 72
    65
 73
     2
 40
5.0
 49
3.75
 49
-1.25
  0
LTYPE
  2
CENTER1
 70
    64
  3
----- - ----- - ----- - ----- - 
 72
    65
 73
     4
 40
10.0
 49
6.25
 49
-1.25
 49
1.25
 49
-1.25
  0
LTYPE
  2
CENTER2
 70
    64
  3
----------  --  ----------  --  
 72
    65
 73
     4
 40
20.0
 49
12.5
 49
-2.5
 49
2.5
 49
-2.5
  0
LTYPE
  2
PHANTOM1
 70
    64
  3
--- - - --- - - --- - - --- - - 
 72
    65
 73
     6
 40
10.0
 49
3.25
 49
-1.25
 49
1.25
 49
-1.25
 49
1.25
 49
-1.25
  0
LTYPE
  2
PHANTOM2
 70
    64
  3
--------  -  -  --------  -  -  
 72
    65
 73
     6
 40
20.0
 49
10.0
 49
-2.5
 49
1.25
 49
-2.5
 49
1.25
 49
-2.5
  0
LTYPE
  2
DOT
 70
    64
  3
-   -   -   -   -   -   -   -   
 72
    65
 73
     2
 40
2.5
 49
0.625
 49
-1.875
  0
LTYPE
  2
DUMMY
 70
    64
  3
ダミー
 72
    65
 73
     0
 40
0.0
  0
LTYPE
  2
RAND1
 70
    64
  3
ランダム線1
 72
    65
 73
     4
 40
10.0
 49
1.0
 49
-2.0
 49
3.0
 49
-4.0
  0
LTYPE
  2
RAND2
 70
    64
  3
ランダム線2
 72
    65
 73
     4
 40
14.0
 49
2.0
 49
-3.0
 49
4.0
 49
-5.0
  0
LTYPE
  2
RAND3
 70
    64
  3
ランダム線3
 72
    65
 73
     4
 40
18.0
 49
3.0
 49
-4.0
 49
5.0
 49
-6.0
  0
LTYPE
  2
RAND4
 70
    64
  3
ランダム線4
 72
    65
 73
     4
 40
22.0
 49
4.0
 49
-5.0
 49
6.0
 49
-7.0
  0
LTYPE
  2
RAND5
 70
    64
  3
ランダム線5
 72
    65
 73
     4
 40
26.0
 49
5.0
 49
-6.0
 49
7.0
 49
-8.0
  0
LTYPE
  2
LONG1
 70
    64
  3
----------  --  ----------  --  
 72
    65
 73
     4
 40
40.0
 49
32.5
 49
-2.5
 49
2.5
 49
-2.5
  0
LTYPE
  2
LONG2
 70
    64
  3
--------  -  -  --------  -  -  
 72
    65
 73
     6
 40
40.0
 49
30.0
 49
-2.5
 49
1.25
 49
-2.5
 49
1.25
 49
-2.5
  0
LTYPE
  2
LONG3
 70
    64
  3
+++++++++++++++..+++++++++++++++
 72
    65
 73
     2
 40
40.0
 49
37.5
 49
-2.5
  0
LTYPE
  2
LONG4
 70
    64
  3
+++++++++++++++..+++++++++++++++
 72
    65
 73
     2
 40
80.0
 49
75.0
 49
-5.0
  0
LTYPE
  2
LONG5
 70
    64
  3
----------  --  ----------  --  
 72
    65
 73
     4
 40
60.0
 49
37.5
 49
-7.5
 49
7.5
 49
-7.5
  0
LTYPE
  2
dashed
 70
   64
  3
-------   -------------   ------
 72
   65
 73
    2
 40
7.5
 49
6
 49
-1.5
  0
LTYPE
  2
dashed_spaced
 70
   64
  3
----        --------        ----
 72
   65
 73
    2
 40
12
 49
6
 49
-6
  0
LTYPE
  2
long_dashed_dotted
 70
   64
  3
------------- --- --------------
 72
   65
 73
    4
 40
15.25
 49
12
 49
-1.5
 49
0.25
 49
-1.5
  0
LTYPE
  2
long_dashed_double-dotted
 70
   64
  3
----------- --- --- ------------
 72
   65
 73
    6
 40
17
 49
12
 49
-1.5
 49
0.25
 49
-1.5
 49
0.25
 49
-1.5
  0
LTYPE
  2
long_dashed_triplicate-dotted
 70
   64
  3
--------- --- --- --- ----------
 72
   65
 73
    8
 40
18.75
 49
12
 49
-1.5
 49
0.25
 49
-1.5
 49
0.25
 49
-1.5
 49
0.25
 49
-1.5
  0
LTYPE
  2
dotted
 70
   64
  3
   -       -       -       -    
 72
   65
 73
    2
 40
1.75
 49
0.25
 49
-1.5
  0
LTYPE
  2
chain
 70
   64
  3
-------------- -- --------------
 72
   65
 73
    4
 40
18.5
 49
12
 49
-1.5
 49
3.5
 49
-1.5
  0
LTYPE
  2
chain_double_dash
 70
   64
  3
------------ -- -- -------------
 72
   65
 73
    6
 40
23.5
 49
12
 49
-1.5
 49
3.5
 49
-1.5
 49
3.5
 49
-1.5
  0
LTYPE
  2
dashed_dotted
 70
   64
  3
-----------     -     ----------
 72
   65
 73
    4
 40
9.25
 49
6
 49
-1.5
 49
0.25
 49
-1.5
  0
LTYPE
  2
double-dashed_dotted
 70
   64
  3
------   -----------   -   -----
 72
   65
 73
    6
 40
16.75
 49
6
 49
-1.5
 49
6
 49
-1.5
 49
0.25
 49
-1.5
  0
LTYPE
  2
dashed_double-dotted
 70
   64
  3
---------    -    -    ---------
 72
   65
 73
    6
 40
11
 49
6
 49
-1.5
 49
0.25
 49
-1.5
 49
0.25
 49
-1.5
  0
LTYPE
  2
double-dashed_double-dotted
 70
   64
  3
-----   ---------   -   -   ----
 72
   65
 73
    8
 40
18.5
 49
6
 49
-1.5
 49
6
 49
-1.5
 49
0.25
 49
-1.5
 49
0.25
 49
-1.5
  0
LTYPE
  2
dashed_triplicate-dotted
 70
   64
  3
-------    -    -    -    ------
 72
   65
 73
    8
 40
12.75
 49
6
 49
-1.5
 49
0.25
 49
-1.5
 49
0.25
 49
-1.5
 49
0.25
 49
-1.5
  0
LTYPE
  2
double-dashed_triplicate-dotted
 70
   64
  3
-----  ---------  -  -  -  -----
 72
   65
 73
   10
 40
20.25
 49
6
 49
-1.5
 49
6
 49
-1.5
 49
0.25
 49
-1.5
 49
0.25
 49
-1.5
 49
0.25
 49
-1.5
  0
LTYPE
  2
undefined
 70
   64
  3
--------------------------------
 72
   65
 73
    0
 40
0
  0
ENDTAB
  0
TABLE
  2
STYLE
  5
3
100
AcDbSymbolTable
 70
     1
  0
STYLE
  5
10
100
AcDbSymbolTableRecord
100
AcDbTextStyleTableRecord
  2
STANDARD
 70
     0
 40
0.0
 41
1.0
 50
0.0
 71
     0
 42
0.2
  3
txt
  4
bigfont.shx
  0
STYLE
  5
26
100
AcDbSymbolTableRecord
100
AcDbTextStyleTableRecord
  2
TATEGAKI
 70
    68
 40
0.0
 41
1.0
 50
0.0
 71
     0
 42
1.0
  3
txt
  4
bigfont.shx
  0
ENDTAB
  0
TABLE
  2
LAYER
 70
    4
  0
LAYER
  2
_0-0_
 70
   64
 62
    7
  6
CONTINUOUS
  0
LAYER
  2
_0-1_
 70
   64
 62
    7
  6
CONTINUOUS
  0
LAYER
  2
_0-f_
 70
   64
 62
    7
  6
CONTINUOUS
  0
LAYER
  2
ADD_LINE
 70
   64
 62
    7
  6
CONTINUOUS
  0
ENDTAB
  0
ENDSEC
  0
SECTION
  2
BLOCKS
  0
ENDSEC
  0
SECTION
  2
ENTITIES
  0
TEXT
  8
_0-f_
 62
    7
 10
2.392712213943696
 20
2.1115287386908221
 40
4.2999999999999998
 41
0.744186046511628
 50
0
  1
E44R-3
  0
LINE
  8
_0-0_
  6
CONTINUOUS
 62
    7
 10
70.662866811665481
 20
69.123642150771786
 11
107.66286681166554
 21
69.12364215077173
  0
LINE
  8
_0-0_
  6
CONTINUOUS
 62
    7
 10
107.66286681166554
 20
109.12364215077173
 11
79.162866811665481
 21
109.12364215077173
  0
LINE
  8
_0-0_
  6
CONTINUOUS
 62
    7
 10
69.162866811665481
 20
99.12364215077173
 11
69.162866811665481
 21
70.623642150771786
  0
LINE
  8
_0-0_
  6
CONTINUOUS
 62
    7
 10
109.16286681166554
 20
70.62364215077173
 11
109.16286681166554
 21
107.62364215077173
  0
CIRCLE
  8
_0-0_
  6
CONTINUOUS
 62
    7
 10
89.162866811665538
 20
89.12364215077173
 40
4
  0
ARC
  8
_0-0_
  6
CONTINUOUS
 62
    7
 10
79.162866811665481
 20
99.12364215077173
 40
10
 50
90
 51
180
  0
ARC
  8
_0-0_
  6
CONTINUOUS
 62
    7
 10
107.66286681166554
 20
107.62364215077173
 40
1.5
 50
0
 51
90.000000000001094
  0
ARC
  8
_0-0_
  6
CONTINUOUS
 62
    7
 10
70.662866811665481
 20
70.623642150771786
 40
1.5
 50
180
 51
270.00000000000028
  0
ARC
  8
_0-0_
  6
CONTINUOUS
 62
    7
 10
107.66286681166554
 20
70.62364215077173
 40
1.5
 50
269.99999999999932
 51
359.99999999999994
  0
LINE
  8
_0-1_
  6
CONTINUOUS
 62
  152
 10
99.206644494788691
 20
72.997211330597111
 11
99.206644494788691
 21
74.674814636417068
  0
LINE
  8
_0-1_
  6
CONTINUOUS
 62
  152
 10
99.206644494788691
 20
74.674814636417068
 11
98.697538966389004
 21
74.674814636417068
  0
LINE
  8
_0-1_
  6
CONTINUOUS
 62
  152
 10
98.697538966389004
 20
74.674814636417068
 11
98.697538966389004
 21
72.633253393817085
  0
LINE
  8
_0-1_
  6
CONTINUOUS
 62
  152
 10
98.697538966389004
 20
72.633253393817085
 11
100.12688174270312
 21
72.633253393817085
  0
LINE
  8
_0-1_
  6
CONTINUOUS
 62
  152
 10
100.12688174270312
 20
72.633253393817085
 11
100.12688174270312
 21
72.997211330597111
  0
LINE
  8
_0-1_
  6
CONTINUOUS
 62
  152
 10
100.12688174270312
 20
72.997211330597111
 11
99.206644494788691
 21
72.997211330597111
  0
LINE
  8
_0-0_
  6
CONTINUOUS
 62
    7
 10
98.46286681166572
 20
72.12364215077173
 11
105.86286681166581
 21
72.12364215077173
  0
LINE
  8
_0-0_
  6
CONTINUOUS
 62
    7
 10
105.86286681166581
 20
75.12364215077173
 11
98.46286681166572
 21
75.12364215077173
  0
LINE
  8
_0-0_
  6
CONTINUOUS
 62
    7
 10
98.162866811665538
 20
74.823642150771775
 11
98.162866811665538
 21
72.423642150771684
  0
LINE
  8
_0-0_
  6
CONTINUOUS
 62
    7
 10
106.16286681166554
 20
72.423642150771684
 11
106.16286681166554
 21
74.823642150771775
  0
LINE
  8
_0-1_
  6
CONTINUOUS
 62
  152
 10
103.77293552304542
 20
74.065100429897029
 11
103.25283487690837
 21
74.065100429897029
  0
LINE
  8
_0-1_
  6
CONTINUOUS
 62
  152
 10
103.25536561398445
 20
73.329439809857149
 11
103.7863550194466
 21
73.329439809857149
  0
LINE
  8
_0-1_
  6
CONTINUOUS
 62
  152
 10
101.86143180929872
 20
73.495761307746989
 11
101.86143180929872
 21
73.837412385727021
  0
LINE
  8
_0-1_
  6
CONTINUOUS
 62
  152
 10
101.86143180929872
 20
73.837412385727021
 11
101.02697813432138
 21
73.837412385727021
  0
LINE
  8
_0-1_
  6
CONTINUOUS
 62
  152
 10
101.02697813432138
 20
73.837412385727021
 11
101.02697813432138
 21
74.310856699665919
  0
LINE
  8
_0-1_
  6
CONTINUOUS
 62
  152
 10
101.02697813432138
 20
74.310856699665919
 11
101.9493928404259
 21
74.310856699665919
  0
LINE
  8
_0-1_
  6
CONTINUOUS
 62
  152
 10
101.9493928404259
 20
74.310856699665919
 11
101.9493928404259
 21
74.674814636417068
  0
LINE
  8
_0-1_
  6
CONTINUOUS
 62
  152
 10
101.9493928404259
 20
74.674814636417068
 11
100.51967804888142
 21
74.674814636417068
  0
LINE
  8
_0-1_
  6
CONTINUOUS
 62
  152
 10
100.51967804888142
 20
74.674814636417068
 11
100.51967804888142
 21
72.633253393817085
  0
LINE
  8
_0-1_
  6
CONTINUOUS
 62
  152
 10
100.51967804888142
 20
72.633253393817085
 11
101.9493928404259
 21
72.633253393817085
  0
LINE
  8
_0-1_
  6
CONTINUOUS
 62
  152
 10
101.9493928404259
 20
72.633253393817085
 11
101.9493928404259
 21
72.997211330597111
  0
LINE
  8
_0-1_
  6
CONTINUOUS
 62
  152
 10
101.9493928404259
 20
72.997211330597111
 11
101.02697813432138
 21
72.997211330597111
  0
LINE
  8
_0-1_
  6
CONTINUOUS
 62
  152
 10
101.02697813432138
 20
72.997211330597111
 11
101.02697813432138
 21
73.495761307746989
  0
LINE
  8
_0-1_
  6
CONTINUOUS
 62
  152
 10
101.02697813432138
 20
73.495761307746989
 11
101.86143180929872
 21
73.495761307746989
  0
ARC
  8
_0-0_
  6
CONTINUOUS
 62
    7
 10
98.46286681166572
 20
72.423642150771684
 40
0.2999999999999999
 50
180
 51
270
  0
ARC
  8
_0-0_
  6
CONTINUOUS
 62
    7
 10
98.46286681166572
 20
74.823642150771775
 40
0.2999999999999999
 50
90
 51
180
  0
ARC
  8
_0-0_
  6
CONTINUOUS
 62
    7
 10
105.86286681166581
 20
74.823642150771775
 40
0.2999999999999999
 50
0
 51
90
  0
ARC
  8
_0-0_
  6
CONTINUOUS
 62
    7
 10
105.86286681166581
 20
72.423642150771684
 40
0.2999999999999999
 50
270
 51
0
  0
ARC
  8
_0-1_
  6
CONTINUOUS
 62
  152
 10
104.72138630713204
 20
73.654034015117077
 40
2.3989863444973807
 50
164.21600247589294
 51
195.78399752410709
  0
ARC
  8
_0-1_
  6
CONTINUOUS
 62
  152
 10
108.95855690509876
 20
73.654034015112757
 40
6.0927389498109967
 50
176.78919008197266
 51
183.21080991802734
  0
ARC
  8
_0-1_
  6
CONTINUOUS
 62
  152
 10
102.95347678758395
 20
73.188880342924222
 40
0.5721789663386137
 50
199.11812031409383
 51
253.77089632225113
  0
ARC
  8
_0-1_
  6
CONTINUOUS
 62
  152
 10
103.06540799212604
 20
73.708377823519641
 40
1.102902967963006
 50
255.7307072235771
 51
284.2692927764229
  0
ARC
  8
_0-1_
  6
CONTINUOUS
 62
  152
 10
103.17733919666767
 20
73.188880342924222
 40
0.5721789663386137
 50
286.22910367774887
 51
340.8818796859062
  0
ARC
  8
_0-1_
  6
CONTINUOUS
 62
  152
 10
101.40942967711959
 20
73.654034015117077
 40
2.3989863444973807
 50
344.21600247589294
 51
352.22375855280194
  0
ARC
  8
_0-1_
  6
CONTINUOUS
 62
  152
 10
103.06540799212604
 20
73.12138287071366
 40
0.1658629864205162
 50
198.7809348325886
 51
341.21906516741143
  0
ARC
  8
_0-1_
  6
CONTINUOUS
 62
  152
 10
102.3291993988542
 20
73.313272296003561
 40
0.9263073175532966
 50
344.64474174215434
 51
1.000075600874925
  0
ARC
  8
_0-1_
  6
CONTINUOUS
 62
  152
 10
103.80161658539743
 20
73.313272296003561
 40
0.9263073175532966
 50
179.28077569259483
 51
195.35525825784563
  0
ARC
  8
_0-1_
  6
CONTINUOUS
 62
  152
 10
103.06540799212604
 20
74.186685159520721
 40
0.1658629864205162
 50
18.780934832588589
 51
161.21906516741137
  0
ARC
  8
_0-1_
  6
CONTINUOUS
 62
  152
 10
103.80161658539743
 20
73.994795734230593
 40
0.9263073175532966
 50
164.64474174215434
 51
180.71922430740514
  0
ARC
  8
_0-1_
  6
CONTINUOUS
 62
  152
 10
102.3291993988542
 20
73.994795734230593
 40
0.9263073175532966
 50
4.3528100028009122
 51
15.355258257845675
  0
ARC
  8
_0-1_
  6
CONTINUOUS
 62
  152
 10
103.17733919666767
 20
74.119187687310159
 40
0.5721789663386137
 50
19.118120314093819
 51
73.770896322251133
  0
ARC
  8
_0-1_
  6
CONTINUOUS
 62
  152
 10
101.40942967711959
 20
73.654034015117077
 40
2.3989863444973807
 50
9.8663227198208787
 51
15.783997524107056
  0
ARC
  8
_0-1_
  6
CONTINUOUS
 62
  152
 10
103.06540799212604
 20
73.599690206714513
 40
1.102902967963006
 50
75.730707223577113
 51
104.2692927764229
  0
ARC
  8
_0-1_
  6
CONTINUOUS
 62
  152
 10
102.95347678758395
 20
74.119187687310159
 40
0.5721789663386137
 50
106.22910367774887
 51
160.88187968590617
  0
ARC
  8
_0-1_
  6
CONTINUOUS
 62
  152
 10
106.51067860716154
 20
73.654034015117077
 40
2.3989863444973807
 50
164.21600247589294
 51
195.78399752410709
  0
ARC
  8
_0-1_
  6
CONTINUOUS
 62
  152
 10
110.74784920512826
 20
73.654034015112757
 40
6.0927389498109967
 50
176.78919008197266
 51
183.21080991802734
  0
ARC
  8
_0-1_
  6
CONTINUOUS
 62
  152
 10
98.961551379182822
 20
73.654034015112757
 40
6.0927389498109967
 50
356.78919008197266
 51
3.2108099180273384
  0
ARC
  8
_0-1_
  6
CONTINUOUS
 62
  152
 10
104.85470029215554
 20
73.12138287071366
 40
0.1658629864205162
 50
198.7809348325886
 51
341.21906516741143
  0
ARC
  8
_0-1_
  6
CONTINUOUS
 62
  152
 10
104.85470029215554
 20
73.708377823519641
 40
1.102902967963006
 50
255.7307072235771
 51
284.2692927764229
  0
ARC
  8
_0-1_
  6
CONTINUOUS
 62
  152
 10
104.96663149669718
 20
73.188880342924222
 40
0.5721789663386137
 50
286.22910367774887
 51
340.8818796859062
  0
ARC
  8
_0-1_
  6
CONTINUOUS
 62
  152
 10
104.74276908761345
 20
73.188880342924222
 40
0.5721789663386137
 50
199.11812031409383
 51
253.77089632225113
  0
ARC
  8
_0-1_
  6
CONTINUOUS
 62
  152
 10
103.19872197714909
 20
73.654034015117077
 40
2.3989863444973807
 50
344.21600247589294
 51
15.783997524107075
  0
ARC
  8
_0-1_
  6
CONTINUOUS
 62
  152
 10
104.1184916988837
 20
73.313272296003561
 40
0.9263073175532966
 50
344.64474174215434
 51
0.7192243074051015
  0
ARC
  8
_0-1_
  6
CONTINUOUS
 62
  152
 10
105.59090888542693
 20
73.313272296003561
 40
0.9263073175532966
 50
179.28077569259483
 51
195.35525825784563
  0
ARC
  8
_0-1_
  6
CONTINUOUS
 62
  152
 10
105.59090888542693
 20
73.994795734230593
 40
0.9263073175532966
 50
164.64474174215434
 51
180.71922430740514
  0
ARC
  8
_0-1_
  6
CONTINUOUS
 62
  152
 10
104.85470029215554
 20
74.186685159520721
 40
0.1658629864205162
 50
18.780934832588589
 51
161.21906516741137
  0
ARC
  8
_0-1_
  6
CONTINUOUS
 62
  152
 10
104.1184916988837
 20
73.994795734230593
 40
0.9263073175532966
 50
359.28077569259489
 51
15.355258257845644
  0
ARC
  8
_0-1_
  6
CONTINUOUS
 62
  152
 10
104.85470029215554
 20
73.599690206714513
 40
1.102902967963006
 50
75.730707223577113
 51
104.2692927764229
  0
ARC
  8
_0-1_
  6
CONTINUOUS
 62
  152
 10
104.74276908761345
 20
74.119187687310159
 40
0.5721789663386137
 50
106.22910367774887
 51
160.88187968590617
  0
ARC
  8
_0-1_
  6
CONTINUOUS
 62
  152
 10
104.96663149669718
 20
74.119187687310159
 40
0.5721789663386137
 50
19.118120314093819
 51
73.770896322251133
  0
LINE
  8
_0-1_
  6
CENTER1
 62
  152
 10
98.162866811665538
 20
89.12364215077173
 11
80.162866811665481
 21
89.12364215077173
  0
LINE
  8
_0-1_
  6
CENTER1
 62
  152
 10
89.162866811665538
 20
80.12364215077173
 11
89.162866811665538
 21
98.12364215077173
  0
LINE
  8
_0-0_
  6
CONTINUOUS
 62
    7
 10
89.662866811665538
 20
91.62364215077173
 11
88.662866811665538
 21
91.62364215077173
  0
LINE
  8
_0-0_
  6
CONTINUOUS
 62
    7
 10
89.662866811665538
 20
86.62364215077173
 11
88.662866811665538
 21
86.62364215077173
  0
LINE
  8
_0-0_
  6
CONTINUOUS
 62
    7
 10
86.662866811665538
 20
89.62364215077173
 11
86.662866811665538
 21
88.62364215077173
  0
LINE
  8
_0-0_
  6
CONTINUOUS
 62
    7
 10
91.662866811665538
 20
89.62364215077173
 11
91.662866811665538
 21
88.62364215077173
  0
LINE
  8
_0-0_
  6
CONTINUOUS
 62
    7
 10
87.662866811665538
 20
89.62364215077173
 11
86.662866811665538
 21
89.62364215077173
  0
LINE
  8
_0-0_
  6
CONTINUOUS
 62
    7
 10
88.662866811665538
 20
90.62364215077173
 11
88.662866811665538
 21
91.62364215077173
  0
ARC
  8
_0-0_
  6
CONTINUOUS
 62
    7
 10
87.662866811665538
 20
90.62364215077173
 40
1
 50
270
 51
0
  0
LINE
  8
_0-0_
  6
CONTINUOUS
 62
    7
 10
89.662866811665538
 20
90.62364215077173
 11
89.662866811665538
 21
91.62364215077173
  0
LINE
  8
_0-0_
  6
CONTINUOUS
 62
    7
 10
90.662866811665538
 20
89.62364215077173
 11
91.662866811665538
 21
89.62364215077173
  0
ARC
  8
_0-0_
  6
CONTINUOUS
 62
    7
 10
90.662866811665538
 20
90.62364215077173
 40
1
 50
180
 51
270
  0
LINE
  8
_0-0_
  6
CONTINUOUS
 62
    7
 10
90.662866811665538
 20
88.62364215077173
 11
91.662866811665538
 21
88.62364215077173
  0
LINE
  8
_0-0_
  6
CONTINUOUS
 62
    7
 10
89.662866811665538
 20
87.62364215077173
 11
89.662866811665538
 21
86.62364215077173
  0
ARC
  8
_0-0_
  6
CONTINUOUS
 62
    7
 10
90.662866811665538
 20
87.62364215077173
 40
1
 50
90
 51
180
  0
LINE
  8
_0-0_
  6
CONTINUOUS
 62
    7
 10
88.662866811665538
 20
87.62364215077173
 11
88.662866811665538
 21
86.62364215077173
  0
LINE
  8
_0-0_
  6
CONTINUOUS
 62
    7
 10
87.662866811665538
 20
88.62364215077173
 11
86.662866811665538
 21
88.62364215077173
  0
ARC
  8
_0-0_
  6
CONTINUOUS
 62
    7
 10
87.662866811665538
 20
87.62364215077173
 40
1
 50
0
 51
90.000000000000028
  0
LINE
  8
_0-0_
  6
CONTINUOUS
 62
    7
 10
13.738780976158978
 20
98.623642150772525
 11
12.738780976133967
 21
98.623642150772525
  0
LINE
  8
_0-0_
  6
CONTINUOUS
 62
    7
 10
12.738780976133967
 20
98.623642150772525
 11
11.738780976133967
 21
99.623642150772525
  0
LINE
  8
_0-0_
  6
CONTINUOUS
 62
    7
 10
11.738780976133967
 20
99.623642150772525
 11
11.738780976133967
 21
100.62364215077253
  0
LINE
  8
_0-0_
  6
CONTINUOUS
 62
    7
 10
11.738780976133967
 20
100.62364215077253
 11
13.738780976158978
 21
100.62364215077253
  0
LINE
  8
_0-0_
  6
CONTINUOUS
 62
    7
 10
13.738780976158978
 20
103.62364215077218
 11
11.738780976133967
 21
103.62364215077218
  0
LINE
  8
_0-0_
  6
CONTINUOUS
 62
    7
 10
11.738780976133967
 20
103.62364215077218
 11
11.738780976133967
 21
106.62364215077218
  0
LINE
  8
_0-0_
  6
CONTINUOUS
 62
    7
 10
11.738780976133967
 20
106.62364215077218
 11
13.738780976158978
 21
106.62364215077173
  0
LINE
  8
_0-0_
  6
CONTINUOUS
 62
    7
 10
12.738780976133967
 20
106.62364215077218
 11
12.738780976133967
 21
103.62364215077218
  0
LINE
  8
_0-0_
  6
CONTINUOUS
 62
    7
 10
10.738780976158523
 20
93.223642150771752
 11
10.738780976158523
 21
85.023642150771821
  0
LINE
  8
_0-0_
  6
CONTINUOUS
 62
    7
 10
10.738780976158523
 20
85.023642150771821
 11
13.73878097615875
 21
85.023642150771821
  0
LINE
  8
_0-0_
  6
CONTINUOUS
 62
    7
 10
10.738780976158523
 20
85.023642150771821
 11
4.0230801892857926
 21
85.375597115341179
  0
LINE
  8
_0-0_
  6
CONTINUOUS
 62
    7
 10
13.738780976158978
 20
69.12364215077173
 11
13.738780976158978
 21
109.12364215077173
  0
LINE
  8
_0-0_
  6
CONTINUOUS
 62
    7
 10
13.73878097615875
 20
93.223642150771752
 11
10.738780976158523
 21
93.223642150771752
  0
LINE
  8
_0-0_
  6
CONTINUOUS
 62
    7
 10
10.738780976158523
 20
93.223642150771752
 11
4.0230801892857926
 21
92.871687186202394
  0
LINE
  8
_0-0_
  6
CONTINUOUS
 62
    7
 10
3.7387809761587505
 20
92.572098325775983
 11
3.7387809761587505
 21
85.67518597576759
  0
LINE
  8
_0-0_
  6
CONTINUOUS
 62
    7
 10
4.001124117533891
 20
86.723244940094105
 11
10.73878097615875
 21
85.870772530671616
  0
LINE
  8
_0-0_
  6
CONTINUOUS
 62
    7
 10
11.738780976133967
 20
78.623642150771389
 11
12.738780976133967
 21
79.623642150771389
  0
LINE
  8
_0-0_
  6
CONTINUOUS
 62
    7
 10
12.738780976133967
 20
79.623642150771389
 11
13.738780976158978
 21
79.623642150771389
  0
LINE
  8
_0-0_
  6
CONTINUOUS
 62
    7
 10
13.738780976158978
 20
77.623642150771389
 11
11.738780976133967
 21
77.623642150771389
  0
LINE
  8
_0-0_
  6
CONTINUOUS
 62
    7
 10
11.738780976133967
 20
77.623642150771389
 11
11.738780976133967
 21
78.623642150771389
  0
LINE
  8
_0-0_
  6
CONTINUOUS
 62
    7
 10
13.73878097615875
 20
71.62364215077173
 11
11.738780976133967
 21
71.62364215077173
  0
LINE
  8
_0-0_
  6
CONTINUOUS
 62
    7
 10
11.738780976133967
 20
71.62364215077173
 11
11.738780976133967
 21
74.62364215077173
  0
LINE
  8
_0-0_
  6
CONTINUOUS
 62
    7
 10
11.738780976133967
 20
74.62364215077173
 11
13.738780976158978
 21
74.62364215077173
  0
LINE
  8
_0-0_
  6
CONTINUOUS
 62
    7
 10
4.001124117533891
 20
91.524039361449582
 11
10.73878097615875
 21
92.376511770872071
  0
ARC
  8
_0-0_
  6
CONTINUOUS
 62
    7
 10
4.038780976158705
 20
91.226412143274729
 40
0.3
 50
97.210951400068609
 51
180
  0
ARC
  8
_0-0_
  6
CONTINUOUS
 62
    7
 10
4.038780976158705
 20
87.020872158268958
 40
0.3
 50
180
 51
262.78904859993139
  0
ARC
  8
_0-0_
  6
CONTINUOUS
 62
    7
 10
4.038780976158705
 20
85.67518597576759
 40
0.3
 50
180
 51
266.99999999999977
  0
ARC
  8
_0-0_
  6
CONTINUOUS
 62
    7
 10
4.038780976158705
 20
92.572098325775983
 40
0.3
 50
93.000000000000284
 51
180
  0
LINE
  8
_0-0_
  6
CONTINUOUS
 62
    7
 10
15.238780976158978
 20
109.12364215077173
 11
13.738780976158978
 21
109.12364215077173
  0
ARC
  8
_0-0_
  6
CONTINUOUS
 62
    7
 10
15.238780976158978
 20
107.62364215077173
 40
1.5
 50
0
 51
90
  0
LINE
  8
_0-0_
  6
CONTINUOUS
 62
    7
 10
16.738780976158978
 20
70.62364215077173
 11
16.738780976158978
 21
107.62364215077173
  0
LINE
  8
_0-0_
  6
CONTINUOUS
 62
    7
 10
15.238780976158978
 20
69.12364215077173
 11
13.738780976158978
 21
69.12364215077173
  0
ARC
  8
_0-0_
  6
CONTINUOUS
 62
    7
 10
15.238780976158978
 20
70.62364215077173
 40
1.5
 50
270
 51
0
  0
LINE
  8
_0-0_
  6
CONTINUOUS
 62
    7
 10
109.16286681166559
 20
12.429654605631697
 11
69.162866811665481
 21
12.429654605631697
  0
LINE
  8
_0-0_
  6
CONTINUOUS
 62
    7
 10
71.662866811665481
 20
12.429654605631697
 11
71.662866811665481
 21
10.4296546056068
  0
LINE
  8
_0-0_
  6
CONTINUOUS
 62
    7
 10
71.662866811665481
 20
10.4296546056068
 11
74.662866811665594
 21
10.4296546056068
  0
LINE
  8
_0-0_
  6
CONTINUOUS
 62
    7
 10
74.662866811665594
 20
10.4296546056068
 11
74.662866811665594
 21
12.429654605631697
  0
LINE
  8
_0-0_
  6
CONTINUOUS
 62
    7
 10
77.66286681166514
 20
12.42965460563147
 11
77.66286681166514
 21
10.4296546056068
  0
LINE
  8
_0-0_
  6
CONTINUOUS
 62
    7
 10
77.66286681166514
 20
10.4296546056068
 11
78.66286681166514
 21
10.4296546056068
  0
LINE
  8
_0-0_
  6
CONTINUOUS
 62
    7
 10
78.66286681166514
 20
10.4296546056068
 11
79.66286681166514
 21
11.429654605606686
  0
LINE
  8
_0-0_
  6
CONTINUOUS
 62
    7
 10
79.66286681166514
 20
11.429654605606686
 11
79.66286681166514
 21
12.42965460563147
  0
LINE
  8
_0-0_
  6
CONTINUOUS
 62
    7
 10
106.66286681166559
 20
12.429654605631697
 11
106.66286681166559
 21
10.429654605606686
  0
LINE
  8
_0-0_
  6
CONTINUOUS
 62
    7
 10
106.66286681166559
 20
10.429654605606686
 11
103.66286681166554
 21
10.429654605606686
  0
LINE
  8
_0-0_
  6
CONTINUOUS
 62
    7
 10
103.66286681166554
 20
10.429654605606686
 11
103.66286681166559
 21
12.429654605631697
  0
LINE
  8
_0-0_
  6
CONTINUOUS
 62
    7
 10
103.66286681166554
 20
11.429654605606686
 11
106.66286681166559
 21
11.429654605606686
  0
LINE
  8
_0-0_
  6
CONTINUOUS
 62
    7
 10
100.66286681166599
 20
10.429654605606686
 11
99.662866811665992
 21
10.429654605606686
  0
LINE
  8
_0-0_
  6
CONTINUOUS
 62
    7
 10
99.662866811665992
 20
10.429654605606686
 11
98.662866811665992
 21
11.429654605606686
  0
LINE
  8
_0-0_
  6
CONTINUOUS
 62
    7
 10
98.662866811665992
 20
11.429654605606686
 11
98.662866811665992
 21
12.429654605631697
  0
LINE
  8
_0-0_
  6
CONTINUOUS
 62
    7
 10
100.66286681166599
 20
12.429654605631697
 11
100.66286681166599
 21
10.429654605606686
  0
LINE
  8
_0-0_
  6
CONTINUOUS
 62
    7
 10
93.262866811665617
 20
9.4296546056312422
 11
92.910911847096202
 21
2.7139538187585686
  0
LINE
  8
_0-0_
  6
CONTINUOUS
 62
    7
 10
92.611322986669848
 20
2.4296546056314696
 11
85.714410636661341
 21
2.4296546056314696
  0
LINE
  8
_0-0_
  6
CONTINUOUS
 62
    7
 10
85.414821776234987
 20
2.7139538187585686
 11
85.062866811665572
 21
9.4296546056312422
  0
LINE
  8
_0-0_
  6
CONTINUOUS
 62
    7
 10
85.062866811665572
 20
9.4296546056312422
 11
85.062866811665572
 21
12.42965460563147
  0
LINE
  8
_0-0_
  6
CONTINUOUS
 62
    7
 10
85.062866811665572
 20
9.4296546056312422
 11
93.26286681166556
 21
9.4296546056312422
  0
LINE
  8
_0-0_
  6
CONTINUOUS
 62
    7
 10
93.26286681166556
 20
9.4296546056312422
 11
93.26286681166556
 21
12.42965460563147
  0
LINE
  8
_0-0_
  6
CONTINUOUS
 62
    7
 10
92.415736431765879
 20
9.4296546056314696
 11
91.563264022343333
 21
2.6919977470067238
  0
LINE
  8
_0-0_
  6
CONTINUOUS
 62
    7
 10
86.762469600987856
 20
2.6919977470067238
 11
85.90999719156531
 21
9.4296546056314696
  0
ARC
  8
_0-0_
  6
CONTINUOUS
 62
    7
 10
91.26563680416848
 20
2.729654605631481
 40
0.3
 50
270
 51
352.78904859993139
  0
ARC
  8
_0-0_
  6
CONTINUOUS
 62
    7
 10
92.611322986669848
 20
2.729654605631481
 40
0.3
 50
270
 51
357
  0
ARC
  8
_0-0_
  6
CONTINUOUS
 62
    7
 10
87.060096819162709
 20
2.729654605631481
 40
0.3
 50
187.21095140006884
 51
270
  0
ARC
  8
_0-0_
  6
CONTINUOUS
 62
    7
 10
85.714410636661341
 20
2.729654605631481
 40
0.3
 50
183.00000000000003
 51
270
  0
LINE
  8
_0-0_
  6
CONTINUOUS
 62
    7
 10
69.162866811665594
 20
13.929654605631697
 11
69.162866811665594
 21
12.429654605631697
  0
ARC
  8
_0-0_
  6
CONTINUOUS
 62
    7
 10
70.662866811665594
 20
13.929654605631697
 40
1.5
 50
90
 51
180
  0
LINE
  8
_0-0_
  6
CONTINUOUS
 62
    7
 10
107.66286681166559
 20
15.429654605631697
 11
70.662866811665594
 21
15.429654605631697
  0
LINE
  8
_0-0_
  6
CONTINUOUS
 62
    7
 10
109.16286681166559
 20
13.929654605631697
 11
109.16286681166559
 21
12.429654605631697
  0
ARC
  8
_0-0_
  6
CONTINUOUS
 62
    7
 10
107.66286681166559
 20
13.929654605631697
 40
1.5
 50
0
 51
90
  0
ENDSEC
  0
EOF
