  0
SECTION
  2
HEADER
  9
$ACADVER
  1
AC1009
  9
$INSBASE
 10
0
 20
0
 30
0
  9
$EXTMIN
 10
0
 20
0
  9
$EXTMAX
 10
1189
 20
841
  9
$LIMMIN
 10
0
 20
0
  9
$LIMMAX
 10
1189
 20
841
  9
$LTSCALE
 40
1
  0
ENDSEC
  0
SECTION
  2
TABLES
  0
TABLE
  2
LTYPE
 70
     9
  0
LTYPE
  2
CONTINUOUS
 70
    64
  3
実線
 72
    65
 73
     0
 40
0.0
  0
LTYPE
  2
DASHED1
 70
    64
  3
--  --  --  --  --  --  --  --  
 72
    65
 73
     2
 40
2.5
 49
1.25
 49
-1.25
  0
LTYPE
  2
DASHED2
 70
    64
  3
----    ----    ----    ----    
 72
    65
 73
     2
 40
5.0
 49
2.5
 49
-2.5
  0
LTYPE
  2
DASHED3
 70
    64
  3
------  ------  ------  ------  
 72
    65
 73
     2
 40
5.0
 49
3.75
 49
-1.25
  0
LTYPE
  2
CENTER1
 70
    64
  3
----- - ----- - ----- - ----- - 
 72
    65
 73
     4
 40
10.0
 49
6.25
 49
-1.25
 49
1.25
 49
-1.25
  0
LTYPE
  2
CENTER2
 70
    64
  3
----------  --  ----------  --  
 72
    65
 73
     4
 40
20.0
 49
12.5
 49
-2.5
 49
2.5
 49
-2.5
  0
LTYPE
  2
PHANTOM1
 70
    64
  3
--- - - --- - - --- - - --- - - 
 72
    65
 73
     6
 40
10.0
 49
3.25
 49
-1.25
 49
1.25
 49
-1.25
 49
1.25
 49
-1.25
  0
LTYPE
  2
PHANTOM2
 70
    64
  3
--------  -  -  --------  -  -  
 72
    65
 73
     6
 40
20.0
 49
10.0
 49
-2.5
 49
1.25
 49
-2.5
 49
1.25
 49
-2.5
  0
LTYPE
  2
DOT
 70
    64
  3
-   -   -   -   -   -   -   -   
 72
    65
 73
     2
 40
2.5
 49
0.625
 49
-1.875
  0
LTYPE
  2
DUMMY
 70
    64
  3
ダミー
 72
    65
 73
     0
 40
0.0
  0
LTYPE
  2
RAND1
 70
    64
  3
ランダム線1
 72
    65
 73
     4
 40
10.0
 49
1.0
 49
-2.0
 49
3.0
 49
-4.0
  0
LTYPE
  2
RAND2
 70
    64
  3
ランダム線2
 72
    65
 73
     4
 40
14.0
 49
2.0
 49
-3.0
 49
4.0
 49
-5.0
  0
LTYPE
  2
RAND3
 70
    64
  3
ランダム線3
 72
    65
 73
     4
 40
18.0
 49
3.0
 49
-4.0
 49
5.0
 49
-6.0
  0
LTYPE
  2
RAND4
 70
    64
  3
ランダム線4
 72
    65
 73
     4
 40
22.0
 49
4.0
 49
-5.0
 49
6.0
 49
-7.0
  0
LTYPE
  2
RAND5
 70
    64
  3
ランダム線5
 72
    65
 73
     4
 40
26.0
 49
5.0
 49
-6.0
 49
7.0
 49
-8.0
  0
LTYPE
  2
LONG1
 70
    64
  3
----------  --  ----------  --  
 72
    65
 73
     4
 40
40.0
 49
32.5
 49
-2.5
 49
2.5
 49
-2.5
  0
LTYPE
  2
LONG2
 70
    64
  3
--------  -  -  --------  -  -  
 72
    65
 73
     6
 40
40.0
 49
30.0
 49
-2.5
 49
1.25
 49
-2.5
 49
1.25
 49
-2.5
  0
LTYPE
  2
LONG3
 70
    64
  3
+++++++++++++++..+++++++++++++++
 72
    65
 73
     2
 40
40.0
 49
37.5
 49
-2.5
  0
LTYPE
  2
LONG4
 70
    64
  3
+++++++++++++++..+++++++++++++++
 72
    65
 73
     2
 40
80.0
 49
75.0
 49
-5.0
  0
LTYPE
  2
LONG5
 70
    64
  3
----------  --  ----------  --  
 72
    65
 73
     4
 40
60.0
 49
37.5
 49
-7.5
 49
7.5
 49
-7.5
  0
LTYPE
  2
dashed
 70
   64
  3
-------   -------------   ------
 72
   65
 73
    2
 40
7.5
 49
6
 49
-1.5
  0
LTYPE
  2
dashed_spaced
 70
   64
  3
----        --------        ----
 72
   65
 73
    2
 40
12
 49
6
 49
-6
  0
LTYPE
  2
long_dashed_dotted
 70
   64
  3
------------- --- --------------
 72
   65
 73
    4
 40
15.25
 49
12
 49
-1.5
 49
0.25
 49
-1.5
  0
LTYPE
  2
long_dashed_double-dotted
 70
   64
  3
----------- --- --- ------------
 72
   65
 73
    6
 40
17
 49
12
 49
-1.5
 49
0.25
 49
-1.5
 49
0.25
 49
-1.5
  0
LTYPE
  2
long_dashed_triplicate-dotted
 70
   64
  3
--------- --- --- --- ----------
 72
   65
 73
    8
 40
18.75
 49
12
 49
-1.5
 49
0.25
 49
-1.5
 49
0.25
 49
-1.5
 49
0.25
 49
-1.5
  0
LTYPE
  2
dotted
 70
   64
  3
   -       -       -       -    
 72
   65
 73
    2
 40
1.75
 49
0.25
 49
-1.5
  0
LTYPE
  2
chain
 70
   64
  3
-------------- -- --------------
 72
   65
 73
    4
 40
18.5
 49
12
 49
-1.5
 49
3.5
 49
-1.5
  0
LTYPE
  2
chain_double_dash
 70
   64
  3
------------ -- -- -------------
 72
   65
 73
    6
 40
23.5
 49
12
 49
-1.5
 49
3.5
 49
-1.5
 49
3.5
 49
-1.5
  0
LTYPE
  2
dashed_dotted
 70
   64
  3
-----------     -     ----------
 72
   65
 73
    4
 40
9.25
 49
6
 49
-1.5
 49
0.25
 49
-1.5
  0
LTYPE
  2
double-dashed_dotted
 70
   64
  3
------   -----------   -   -----
 72
   65
 73
    6
 40
16.75
 49
6
 49
-1.5
 49
6
 49
-1.5
 49
0.25
 49
-1.5
  0
LTYPE
  2
dashed_double-dotted
 70
   64
  3
---------    -    -    ---------
 72
   65
 73
    6
 40
11
 49
6
 49
-1.5
 49
0.25
 49
-1.5
 49
0.25
 49
-1.5
  0
LTYPE
  2
double-dashed_double-dotted
 70
   64
  3
-----   ---------   -   -   ----
 72
   65
 73
    8
 40
18.5
 49
6
 49
-1.5
 49
6
 49
-1.5
 49
0.25
 49
-1.5
 49
0.25
 49
-1.5
  0
LTYPE
  2
dashed_triplicate-dotted
 70
   64
  3
-------    -    -    -    ------
 72
   65
 73
    8
 40
12.75
 49
6
 49
-1.5
 49
0.25
 49
-1.5
 49
0.25
 49
-1.5
 49
0.25
 49
-1.5
  0
LTYPE
  2
double-dashed_triplicate-dotted
 70
   64
  3
-----  ---------  -  -  -  -----
 72
   65
 73
   10
 40
20.25
 49
6
 49
-1.5
 49
6
 49
-1.5
 49
0.25
 49
-1.5
 49
0.25
 49
-1.5
 49
0.25
 49
-1.5
  0
LTYPE
  2
undefined
 70
   64
  3
--------------------------------
 72
   65
 73
    0
 40
0
  0
ENDTAB
  0
TABLE
  2
STYLE
  5
3
100
AcDbSymbolTable
 70
     1
  0
STYLE
  5
10
100
AcDbSymbolTableRecord
100
AcDbTextStyleTableRecord
  2
STANDARD
 70
     0
 40
0.0
 41
1.0
 50
0.0
 71
     0
 42
0.2
  3
txt
  4
bigfont.shx
  0
STYLE
  5
26
100
AcDbSymbolTableRecord
100
AcDbTextStyleTableRecord
  2
TATEGAKI
 70
    68
 40
0.0
 41
1.0
 50
0.0
 71
     0
 42
1.0
  3
txt
  4
bigfont.shx
  0
ENDTAB
  0
TABLE
  2
LAYER
 70
    4
  0
LAYER
  2
_0-0_
 70
   64
 62
    7
  6
CONTINUOUS
  0
LAYER
  2
_0-1_
 70
   64
 62
    7
  6
CONTINUOUS
  0
LAYER
  2
_0-f_
 70
   64
 62
    7
  6
CONTINUOUS
  0
LAYER
  2
ADD_LINE
 70
   64
 62
    7
  6
CONTINUOUS
  0
ENDTAB
  0
ENDSEC
  0
SECTION
  2
BLOCKS
  0
ENDSEC
  0
SECTION
  2
ENTITIES
  0
TEXT
  8
_0-f_
 62
    7
 10
1.0311382728647231
 20
0.6937879574331873
 40
4.2999999999999998
 41
0.744186046511628
 50
0
  1
E44R-10
  0
LINE
  8
_0-0_
  6
CONTINUOUS
 62
    7
 10
22.05135858836411
 20
71.045497747720503
 11
22.05135858836411
 21
99.545497747720447
  0
LINE
  8
_0-0_
  6
CONTINUOUS
 62
    7
 10
12.05135858836411
 20
99.045497747721242
 11
11.051358588339099
 21
99.045497747721242
  0
LINE
  8
_0-0_
  6
CONTINUOUS
 62
    7
 10
11.051358588339099
 20
99.045497747721242
 11
10.051358588339099
 21
100.04549774772124
  0
LINE
  8
_0-0_
  6
CONTINUOUS
 62
    7
 10
10.051358588339099
 20
100.04549774772124
 11
10.051358588339099
 21
101.04549774772124
  0
LINE
  8
_0-0_
  6
CONTINUOUS
 62
    7
 10
10.051358588339099
 20
101.04549774772124
 11
12.05135858836411
 21
101.04549774772124
  0
LINE
  8
_0-0_
  6
CONTINUOUS
 62
    7
 10
12.05135858836411
 20
104.0454977477209
 11
10.051358588339099
 21
104.0454977477209
  0
LINE
  8
_0-0_
  6
CONTINUOUS
 62
    7
 10
10.051358588339099
 20
104.0454977477209
 11
10.051358588339099
 21
107.0454977477209
  0
LINE
  8
_0-0_
  6
CONTINUOUS
 62
    7
 10
10.051358588339099
 20
107.0454977477209
 11
12.05135858836411
 21
107.04549774772045
  0
LINE
  8
_0-0_
  6
CONTINUOUS
 62
    7
 10
11.051358588339099
 20
107.0454977477209
 11
11.051358588339099
 21
104.0454977477209
  0
LINE
  8
_0-0_
  6
CONTINUOUS
 62
    7
 10
9.0513585883636551
 20
93.645497747720469
 11
9.0513585883636551
 21
85.445497747720538
  0
LINE
  8
_0-0_
  6
CONTINUOUS
 62
    7
 10
9.0513585883636551
 20
85.445497747720538
 11
12.051358588363883
 21
85.445497747720538
  0
LINE
  8
_0-0_
  6
CONTINUOUS
 62
    7
 10
9.0513585883636551
 20
85.445497747720538
 11
2.3356578014909246
 21
85.797452712289896
  0
LINE
  8
_0-0_
  6
CONTINUOUS
 62
    7
 10
20.551358588363883
 20
69.545497747720503
 11
12.05135858836411
 21
69.545497747720503
  0
LINE
  8
_0-0_
  6
CONTINUOUS
 62
    7
 10
12.05135858836411
 20
69.545497747720503
 11
12.05135858836411
 21
109.54549774772045
  0
LINE
  8
_0-0_
  6
CONTINUOUS
 62
    7
 10
12.051358588363883
 20
93.645497747720469
 11
9.0513585883636551
 21
93.645497747720469
  0
LINE
  8
_0-0_
  6
CONTINUOUS
 62
    7
 10
9.0513585883636551
 20
93.645497747720469
 11
2.3356578014909246
 21
93.293542783151111
  0
LINE
  8
_0-0_
  6
CONTINUOUS
 62
    7
 10
2.0513585883638825
 20
92.9939539227247
 11
2.0513585883638825
 21
86.097041572716307
  0
LINE
  8
_0-0_
  6
CONTINUOUS
 62
    7
 10
2.313701729739023
 20
87.145100537042822
 11
9.0513585883638825
 21
86.292628127620333
  0
LINE
  8
_0-0_
  6
CONTINUOUS
 62
    7
 10
10.051358588339099
 20
79.045497747720106
 11
11.051358588339099
 21
80.045497747720106
  0
LINE
  8
_0-0_
  6
CONTINUOUS
 62
    7
 10
11.051358588339099
 20
80.045497747720106
 11
12.05135858836411
 21
80.045497747720106
  0
LINE
  8
_0-0_
  6
CONTINUOUS
 62
    7
 10
12.05135858836411
 20
78.045497747720106
 11
10.051358588339099
 21
78.045497747720106
  0
LINE
  8
_0-0_
  6
CONTINUOUS
 62
    7
 10
10.051358588339099
 20
78.045497747720106
 11
10.051358588339099
 21
79.045497747720106
  0
LINE
  8
_0-0_
  6
CONTINUOUS
 62
    7
 10
12.051358588363883
 20
72.045497747720503
 11
10.051358588339099
 21
72.045497747720503
  0
LINE
  8
_0-0_
  6
CONTINUOUS
 62
    7
 10
10.051358588339099
 20
72.045497747720503
 11
10.051358588339099
 21
75.045497747720503
  0
LINE
  8
_0-0_
  6
CONTINUOUS
 62
    7
 10
10.051358588339099
 20
75.045497747720503
 11
12.05135858836411
 21
75.045497747720503
  0
LINE
  8
_0-0_
  6
CONTINUOUS
 62
    7
 10
2.313701729739023
 20
91.945894958398299
 11
9.0513585883638825
 21
92.798367367820788
  0
ARC
  8
_0-0_
  6
CONTINUOUS
 62
    7
 10
20.551358588363883
 20
71.045497747720503
 40
1.5
 50
269.99999999999568
 51
0
  0
ARC
  8
_0-0_
  6
CONTINUOUS
 62
    7
 10
12.05135858836411
 20
99.545497747720447
 40
10
 50
0
 51
90.000000000000725
  0
ARC
  8
_0-0_
  6
CONTINUOUS
 62
    7
 10
2.351358588363837
 20
91.648267740223446
 40
0.3
 50
97.210951400068609
 51
180
  0
ARC
  8
_0-0_
  6
CONTINUOUS
 62
    7
 10
2.351358588363837
 20
87.442727755217675
 40
0.3
 50
180
 51
262.78904859993139
  0
ARC
  8
_0-0_
  6
CONTINUOUS
 62
    7
 10
2.351358588363837
 20
86.097041572716307
 40
0.3
 50
180
 51
266.99999999999977
  0
ARC
  8
_0-0_
  6
CONTINUOUS
 62
    7
 10
2.351358588363837
 20
92.9939539227247
 40
0.3
 50
93.000000000000284
 51
180
  0
LINE
  8
_0-0_
  6
CONTINUOUS
 62
    7
 10
68.975444423870613
 20
69.545497747720503
 11
105.97544442387067
 21
69.545497747720447
  0
LINE
  8
_0-0_
  6
CONTINUOUS
 62
    7
 10
105.97544442387067
 20
109.54549774772045
 11
77.475444423870613
 21
109.54549774772045
  0
LINE
  8
_0-0_
  6
CONTINUOUS
 62
    7
 10
67.475444423870613
 20
99.545497747720447
 11
67.475444423870613
 21
71.045497747720503
  0
LINE
  8
_0-0_
  6
CONTINUOUS
 62
    7
 10
107.47544442387067
 20
71.045497747720447
 11
107.47544442387067
 21
108.04549774772045
  0
CIRCLE
  8
_0-0_
  6
CONTINUOUS
 62
    7
 10
87.47544442387067
 20
89.545497747720447
 40
4
  0
ARC
  8
_0-0_
  6
CONTINUOUS
 62
    7
 10
77.475444423870613
 20
99.545497747720447
 40
10
 50
90
 51
180
  0
ARC
  8
_0-0_
  6
CONTINUOUS
 62
    7
 10
105.97544442387067
 20
108.04549774772045
 40
1.5
 50
0
 51
90.000000000001094
  0
ARC
  8
_0-0_
  6
CONTINUOUS
 62
    7
 10
68.975444423870613
 20
71.045497747720503
 40
1.5
 50
180
 51
270.00000000000028
  0
ARC
  8
_0-0_
  6
CONTINUOUS
 62
    7
 10
105.97544442387067
 20
71.045497747720447
 40
1.5
 50
269.99999999999932
 51
359.99999999999994
  0
LINE
  8
_0-1_
  6
CONTINUOUS
 62
  152
 10
97.519222106993823
 20
73.419066927545828
 11
97.519222106993823
 21
75.096670233365785
  0
LINE
  8
_0-1_
  6
CONTINUOUS
 62
  152
 10
97.519222106993823
 20
75.096670233365785
 11
97.010116578594136
 21
75.096670233365785
  0
LINE
  8
_0-1_
  6
CONTINUOUS
 62
  152
 10
97.010116578594136
 20
75.096670233365785
 11
97.010116578594136
 21
73.055108990765802
  0
LINE
  8
_0-1_
  6
CONTINUOUS
 62
  152
 10
97.010116578594136
 20
73.055108990765802
 11
98.439459354908251
 21
73.055108990765802
  0
LINE
  8
_0-1_
  6
CONTINUOUS
 62
  152
 10
98.439459354908251
 20
73.055108990765802
 11
98.439459354908251
 21
73.419066927545828
  0
LINE
  8
_0-1_
  6
CONTINUOUS
 62
  152
 10
98.439459354908251
 20
73.419066927545828
 11
97.519222106993823
 21
73.419066927545828
  0
LINE
  8
_0-0_
  6
CONTINUOUS
 62
    7
 10
96.775444423870852
 20
72.545497747720447
 11
104.17544442387094
 21
72.545497747720447
  0
LINE
  8
_0-0_
  6
CONTINUOUS
 62
    7
 10
104.17544442387094
 20
75.545497747720447
 11
96.775444423870852
 21
75.545497747720447
  0
LINE
  8
_0-0_
  6
CONTINUOUS
 62
    7
 10
96.47544442387067
 20
75.245497747720492
 11
96.47544442387067
 21
72.845497747720401
  0
LINE
  8
_0-0_
  6
CONTINUOUS
 62
    7
 10
104.47544442387067
 20
72.845497747720401
 11
104.47544442387067
 21
75.245497747720492
  0
LINE
  8
_0-1_
  6
CONTINUOUS
 62
  152
 10
102.08551313525055
 20
74.486956026845746
 11
101.5654124891135
 21
74.486956026845746
  0
LINE
  8
_0-1_
  6
CONTINUOUS
 62
  152
 10
101.56794322618958
 20
73.751295406805866
 11
102.09893263165173
 21
73.751295406805866
  0
LINE
  8
_0-1_
  6
CONTINUOUS
 62
  152
 10
100.17400942150385
 20
73.917616904695706
 11
100.17400942150385
 21
74.259267982675738
  0
LINE
  8
_0-1_
  6
CONTINUOUS
 62
  152
 10
100.17400942150385
 20
74.259267982675738
 11
99.339555746526514
 21
74.259267982675738
  0
LINE
  8
_0-1_
  6
CONTINUOUS
 62
  152
 10
99.339555746526514
 20
74.259267982675738
 11
99.339555746526514
 21
74.732712296614636
  0
LINE
  8
_0-1_
  6
CONTINUOUS
 62
  152
 10
99.339555746526514
 20
74.732712296614636
 11
100.26197045263103
 21
74.732712296614636
  0
LINE
  8
_0-1_
  6
CONTINUOUS
 62
  152
 10
100.26197045263103
 20
74.732712296614636
 11
100.26197045263103
 21
75.096670233365785
  0
LINE
  8
_0-1_
  6
CONTINUOUS
 62
  152
 10
100.26197045263103
 20
75.096670233365785
 11
98.832255661086549
 21
75.096670233365785
  0
LINE
  8
_0-1_
  6
CONTINUOUS
 62
  152
 10
98.832255661086549
 20
75.096670233365785
 11
98.832255661086549
 21
73.055108990765802
  0
LINE
  8
_0-1_
  6
CONTINUOUS
 62
  152
 10
98.832255661086549
 20
73.055108990765802
 11
100.26197045263103
 21
73.055108990765802
  0
LINE
  8
_0-1_
  6
CONTINUOUS
 62
  152
 10
100.26197045263103
 20
73.055108990765802
 11
100.26197045263103
 21
73.419066927545828
  0
LINE
  8
_0-1_
  6
CONTINUOUS
 62
  152
 10
100.26197045263103
 20
73.419066927545828
 11
99.339555746526514
 21
73.419066927545828
  0
LINE
  8
_0-1_
  6
CONTINUOUS
 62
  152
 10
99.339555746526514
 20
73.419066927545828
 11
99.339555746526514
 21
73.917616904695706
  0
LINE
  8
_0-1_
  6
CONTINUOUS
 62
  152
 10
99.339555746526514
 20
73.917616904695706
 11
100.17400942150385
 21
73.917616904695706
  0
ARC
  8
_0-0_
  6
CONTINUOUS
 62
    7
 10
96.775444423870852
 20
72.845497747720401
 40
0.2999999999999999
 50
180
 51
270
  0
ARC
  8
_0-0_
  6
CONTINUOUS
 62
    7
 10
96.775444423870852
 20
75.245497747720492
 40
0.2999999999999999
 50
90
 51
180
  0
ARC
  8
_0-0_
  6
CONTINUOUS
 62
    7
 10
104.17544442387094
 20
75.245497747720492
 40
0.2999999999999999
 50
0
 51
90
  0
ARC
  8
_0-0_
  6
CONTINUOUS
 62
    7
 10
104.17544442387094
 20
72.845497747720401
 40
0.2999999999999999
 50
270
 51
0
  0
ARC
  8
_0-1_
  6
CONTINUOUS
 62
  152
 10
103.03396391933717
 20
74.075889612065794
 40
2.3989863444973807
 50
164.21600247589294
 51
195.78399752410709
  0
ARC
  8
_0-1_
  6
CONTINUOUS
 62
  152
 10
107.27113451730389
 20
74.075889612061474
 40
6.0927389498109967
 50
176.78919008197266
 51
183.21080991802734
  0
ARC
  8
_0-1_
  6
CONTINUOUS
 62
  152
 10
101.26605439978908
 20
73.610735939872939
 40
0.5721789663386137
 50
199.11812031409383
 51
253.77089632225113
  0
ARC
  8
_0-1_
  6
CONTINUOUS
 62
  152
 10
101.37798560433117
 20
74.130233420468358
 40
1.102902967963006
 50
255.7307072235771
 51
284.2692927764229
  0
ARC
  8
_0-1_
  6
CONTINUOUS
 62
  152
 10
101.48991680887281
 20
73.610735939872939
 40
0.5721789663386137
 50
286.22910367774887
 51
340.8818796859062
  0
ARC
  8
_0-1_
  6
CONTINUOUS
 62
  152
 10
99.722007289324722
 20
74.075889612065794
 40
2.3989863444973807
 50
344.21600247589294
 51
352.22375855280194
  0
ARC
  8
_0-1_
  6
CONTINUOUS
 62
  152
 10
101.37798560433117
 20
73.543238467662377
 40
0.1658629864205162
 50
198.7809348325886
 51
341.21906516741143
  0
ARC
  8
_0-1_
  6
CONTINUOUS
 62
  152
 10
100.64177701105933
 20
73.735127892952278
 40
0.9263073175532966
 50
344.64474174215434
 51
1.000075600874925
  0
ARC
  8
_0-1_
  6
CONTINUOUS
 62
  152
 10
102.11419419760256
 20
73.735127892952278
 40
0.9263073175532966
 50
179.28077569259483
 51
195.35525825784563
  0
ARC
  8
_0-1_
  6
CONTINUOUS
 62
  152
 10
101.37798560433117
 20
74.608540756469438
 40
0.1658629864205162
 50
18.780934832588589
 51
161.21906516741137
  0
ARC
  8
_0-1_
  6
CONTINUOUS
 62
  152
 10
102.11419419760256
 20
74.41665133117931
 40
0.9263073175532966
 50
164.64474174215434
 51
180.71922430740514
  0
ARC
  8
_0-1_
  6
CONTINUOUS
 62
  152
 10
100.64177701105933
 20
74.41665133117931
 40
0.9263073175532966
 50
4.3528100028009122
 51
15.355258257845675
  0
ARC
  8
_0-1_
  6
CONTINUOUS
 62
  152
 10
101.48991680887281
 20
74.541043284258876
 40
0.5721789663386137
 50
19.118120314093819
 51
73.770896322251133
  0
ARC
  8
_0-1_
  6
CONTINUOUS
 62
  152
 10
99.722007289324722
 20
74.075889612065794
 40
2.3989863444973807
 50
9.8663227198208787
 51
15.783997524107056
  0
ARC
  8
_0-1_
  6
CONTINUOUS
 62
  152
 10
101.37798560433117
 20
74.02154580366323
 40
1.102902967963006
 50
75.730707223577113
 51
104.2692927764229
  0
ARC
  8
_0-1_
  6
CONTINUOUS
 62
  152
 10
101.26605439978908
 20
74.541043284258876
 40
0.5721789663386137
 50
106.22910367774887
 51
160.88187968590617
  0
ARC
  8
_0-1_
  6
CONTINUOUS
 62
  152
 10
104.82325621936667
 20
74.075889612065794
 40
2.3989863444973807
 50
164.21600247589294
 51
195.78399752410709
  0
ARC
  8
_0-1_
  6
CONTINUOUS
 62
  152
 10
109.06042681733339
 20
74.075889612061474
 40
6.0927389498109967
 50
176.78919008197266
 51
183.21080991802734
  0
ARC
  8
_0-1_
  6
CONTINUOUS
 62
  152
 10
97.274128991387954
 20
74.075889612061474
 40
6.0927389498109967
 50
356.78919008197266
 51
3.2108099180273384
  0
ARC
  8
_0-1_
  6
CONTINUOUS
 62
  152
 10
103.16727790436067
 20
73.543238467662377
 40
0.1658629864205162
 50
198.7809348325886
 51
341.21906516741143
  0
ARC
  8
_0-1_
  6
CONTINUOUS
 62
  152
 10
103.16727790436067
 20
74.130233420468358
 40
1.102902967963006
 50
255.7307072235771
 51
284.2692927764229
  0
ARC
  8
_0-1_
  6
CONTINUOUS
 62
  152
 10
103.27920910890231
 20
73.610735939872939
 40
0.5721789663386137
 50
286.22910367774887
 51
340.8818796859062
  0
ARC
  8
_0-1_
  6
CONTINUOUS
 62
  152
 10
103.05534669981859
 20
73.610735939872939
 40
0.5721789663386137
 50
199.11812031409383
 51
253.77089632225113
  0
ARC
  8
_0-1_
  6
CONTINUOUS
 62
  152
 10
101.51129958935422
 20
74.075889612065794
 40
2.3989863444973807
 50
344.21600247589294
 51
15.783997524107075
  0
ARC
  8
_0-1_
  6
CONTINUOUS
 62
  152
 10
102.43106931108883
 20
73.735127892952278
 40
0.9263073175532966
 50
344.64474174215434
 51
0.7192243074051015
  0
ARC
  8
_0-1_
  6
CONTINUOUS
 62
  152
 10
103.90348649763206
 20
73.735127892952278
 40
0.9263073175532966
 50
179.28077569259483
 51
195.35525825784563
  0
ARC
  8
_0-1_
  6
CONTINUOUS
 62
  152
 10
103.90348649763206
 20
74.41665133117931
 40
0.9263073175532966
 50
164.64474174215434
 51
180.71922430740514
  0
ARC
  8
_0-1_
  6
CONTINUOUS
 62
  152
 10
103.16727790436067
 20
74.608540756469438
 40
0.1658629864205162
 50
18.780934832588589
 51
161.21906516741137
  0
ARC
  8
_0-1_
  6
CONTINUOUS
 62
  152
 10
102.43106931108883
 20
74.41665133117931
 40
0.9263073175532966
 50
359.28077569259489
 51
15.355258257845644
  0
ARC
  8
_0-1_
  6
CONTINUOUS
 62
  152
 10
103.16727790436067
 20
74.02154580366323
 40
1.102902967963006
 50
75.730707223577113
 51
104.2692927764229
  0
ARC
  8
_0-1_
  6
CONTINUOUS
 62
  152
 10
103.05534669981859
 20
74.541043284258876
 40
0.5721789663386137
 50
106.22910367774887
 51
160.88187968590617
  0
ARC
  8
_0-1_
  6
CONTINUOUS
 62
  152
 10
103.27920910890231
 20
74.541043284258876
 40
0.5721789663386137
 50
19.118120314093819
 51
73.770896322251133
  0
LINE
  8
_0-1_
  6
CENTER1
 62
  152
 10
96.47544442387067
 20
89.545497747720447
 11
78.475444423870613
 21
89.545497747720447
  0
LINE
  8
_0-1_
  6
CENTER1
 62
  152
 10
87.47544442387067
 20
80.545497747720447
 11
87.47544442387067
 21
98.545497747720447
  0
LINE
  8
_0-0_
  6
CONTINUOUS
 62
    7
 10
107.47544442387067
 20
21.351510202580243
 11
107.47544442387067
 21
12.851510202580357
  0
LINE
  8
_0-0_
  6
CONTINUOUS
 62
    7
 10
107.47544442387067
 20
12.851510202580357
 11
67.475444423870613
 21
12.851510202580414
  0
LINE
  8
_0-0_
  6
CONTINUOUS
 62
    7
 10
69.975444423870613
 20
12.851510202580414
 11
69.975444423870613
 21
10.851510202555517
  0
LINE
  8
_0-0_
  6
CONTINUOUS
 62
    7
 10
69.975444423870613
 20
10.851510202555517
 11
72.975444423870613
 21
10.851510202555517
  0
LINE
  8
_0-0_
  6
CONTINUOUS
 62
    7
 10
72.975444423870613
 20
10.851510202555517
 11
72.975444423870613
 21
12.851510202580414
  0
LINE
  8
_0-0_
  6
CONTINUOUS
 62
    7
 10
75.975444423870158
 20
12.851510202580187
 11
75.975444423870158
 21
10.851510202555517
  0
LINE
  8
_0-0_
  6
CONTINUOUS
 62
    7
 10
75.975444423870158
 20
10.851510202555517
 11
76.975444423870158
 21
10.851510202555517
  0
LINE
  8
_0-0_
  6
CONTINUOUS
 62
    7
 10
76.975444423870158
 20
10.851510202555517
 11
77.975444423870158
 21
11.851510202555403
  0
LINE
  8
_0-0_
  6
CONTINUOUS
 62
    7
 10
77.975444423870158
 20
11.851510202555403
 11
77.975444423870158
 21
12.851510202580187
  0
LINE
  8
_0-0_
  6
CONTINUOUS
 62
    7
 10
77.475444423870613
 20
22.851510202580414
 11
105.97544442387067
 21
22.851510202580357
  0
LINE
  8
_0-0_
  6
CONTINUOUS
 62
    7
 10
104.97544442387067
 20
12.851510202580357
 11
104.97544442387061
 21
10.851510202555346
  0
LINE
  8
_0-0_
  6
CONTINUOUS
 62
    7
 10
104.97544442387061
 20
10.851510202555346
 11
101.97544442387061
 21
10.851510202555346
  0
LINE
  8
_0-0_
  6
CONTINUOUS
 62
    7
 10
101.97544442387061
 20
10.851510202555346
 11
101.97544442387061
 21
12.851510202580357
  0
LINE
  8
_0-0_
  6
CONTINUOUS
 62
    7
 10
101.97544442387061
 20
11.851510202555346
 11
104.97544442387061
 21
11.851510202555346
  0
LINE
  8
_0-0_
  6
CONTINUOUS
 62
    7
 10
98.975444423871068
 20
10.851510202555346
 11
97.975444423871068
 21
10.851510202555346
  0
LINE
  8
_0-0_
  6
CONTINUOUS
 62
    7
 10
97.975444423871068
 20
10.851510202555346
 11
96.975444423871068
 21
11.851510202555346
  0
LINE
  8
_0-0_
  6
CONTINUOUS
 62
    7
 10
96.975444423871068
 20
11.851510202555346
 11
96.975444423871068
 21
12.851510202580357
  0
LINE
  8
_0-0_
  6
CONTINUOUS
 62
    7
 10
98.975444423871068
 20
12.851510202580357
 11
98.975444423871068
 21
10.851510202555346
  0
LINE
  8
_0-0_
  6
CONTINUOUS
 62
    7
 10
91.575444423870636
 20
9.8515102025799024
 11
91.223489459301277
 21
3.1358094157072856
  0
LINE
  8
_0-0_
  6
CONTINUOUS
 62
    7
 10
90.923900598874923
 20
2.8515102025801866
 11
84.026988248866417
 21
2.8515102025801866
  0
LINE
  8
_0-0_
  6
CONTINUOUS
 62
    7
 10
83.727399388440062
 20
3.1358094157072856
 11
83.375444423870647
 21
9.8515102025799592
  0
LINE
  8
_0-0_
  6
CONTINUOUS
 62
    7
 10
83.375444423870647
 20
9.8515102025799592
 11
83.375444423870647
 21
12.851510202580187
  0
LINE
  8
_0-0_
  6
CONTINUOUS
 62
    7
 10
83.375444423870647
 20
9.8515102025799592
 11
91.575444423870636
 21
9.8515102025799024
  0
LINE
  8
_0-0_
  6
CONTINUOUS
 62
    7
 10
91.575444423870636
 20
9.8515102025799024
 11
91.575444423870636
 21
12.85151020258013
  0
LINE
  8
_0-0_
  6
CONTINUOUS
 62
    7
 10
90.728314043970954
 20
9.8515102025801298
 11
89.875841634548408
 21
3.1138533439554408
  0
LINE
  8
_0-0_
  6
CONTINUOUS
 62
    7
 10
85.075047213192931
 20
3.1138533439554408
 11
84.222574803770385
 21
9.8515102025801866
  0
ARC
  8
_0-0_
  6
CONTINUOUS
 62
    7
 10
77.475444423870613
 20
12.851510202580414
 40
10
 50
89.999999999999872
 51
180
  0
ARC
  8
_0-0_
  6
CONTINUOUS
 62
    7
 10
105.97544442387067
 20
21.351510202580243
 40
1.5
 50
0
 51
90.000000000003212
  0
ARC
  8
_0-0_
  6
CONTINUOUS
 62
    7
 10
89.578214416373555
 20
3.1515102025801411
 40
0.3
 50
270
 51
352.78904859993139
  0
ARC
  8
_0-0_
  6
CONTINUOUS
 62
    7
 10
90.923900598874923
 20
3.1515102025801411
 40
0.3
 50
270
 51
357
  0
ARC
  8
_0-0_
  6
CONTINUOUS
 62
    7
 10
85.372674431367784
 20
3.1515102025801411
 40
0.3
 50
187.21095140006884
 51
270
  0
ARC
  8
_0-0_
  6
CONTINUOUS
 62
    7
 10
84.026988248866417
 20
3.1515102025801411
 40
0.3
 50
183.00000000000003
 51
270
  0
LINE
  8
_0-0_
  6
CONTINUOUS
 62
    7
 10
87.97544442387067
 20
92.045497747720447
 11
86.97544442387067
 21
92.045497747720447
  0
LINE
  8
_0-0_
  6
CONTINUOUS
 62
    7
 10
87.97544442387067
 20
87.045497747720447
 11
86.97544442387067
 21
87.045497747720447
  0
LINE
  8
_0-0_
  6
CONTINUOUS
 62
    7
 10
84.97544442387067
 20
90.045497747720447
 11
84.97544442387067
 21
89.045497747720447
  0
LINE
  8
_0-0_
  6
CONTINUOUS
 62
    7
 10
89.97544442387067
 20
90.045497747720447
 11
89.97544442387067
 21
89.045497747720447
  0
LINE
  8
_0-0_
  6
CONTINUOUS
 62
    7
 10
85.97544442387067
 20
90.045497747720447
 11
84.97544442387067
 21
90.045497747720447
  0
LINE
  8
_0-0_
  6
CONTINUOUS
 62
    7
 10
86.97544442387067
 20
91.045497747720447
 11
86.97544442387067
 21
92.045497747720447
  0
ARC
  8
_0-0_
  6
CONTINUOUS
 62
    7
 10
85.97544442387067
 20
91.045497747720447
 40
1
 50
270
 51
0
  0
LINE
  8
_0-0_
  6
CONTINUOUS
 62
    7
 10
87.97544442387067
 20
91.045497747720447
 11
87.97544442387067
 21
92.045497747720447
  0
LINE
  8
_0-0_
  6
CONTINUOUS
 62
    7
 10
88.97544442387067
 20
90.045497747720447
 11
89.97544442387067
 21
90.045497747720447
  0
ARC
  8
_0-0_
  6
CONTINUOUS
 62
    7
 10
88.97544442387067
 20
91.045497747720447
 40
1
 50
180
 51
270
  0
LINE
  8
_0-0_
  6
CONTINUOUS
 62
    7
 10
88.97544442387067
 20
89.045497747720447
 11
89.97544442387067
 21
89.045497747720447
  0
LINE
  8
_0-0_
  6
CONTINUOUS
 62
    7
 10
87.97544442387067
 20
88.045497747720447
 11
87.97544442387067
 21
87.045497747720447
  0
ARC
  8
_0-0_
  6
CONTINUOUS
 62
    7
 10
88.97544442387067
 20
88.045497747720447
 40
1
 50
90
 51
180
  0
LINE
  8
_0-0_
  6
CONTINUOUS
 62
    7
 10
86.97544442387067
 20
88.045497747720447
 11
86.97544442387067
 21
87.045497747720447
  0
LINE
  8
_0-0_
  6
CONTINUOUS
 62
    7
 10
85.97544442387067
 20
89.045497747720447
 11
84.97544442387067
 21
89.045497747720447
  0
ARC
  8
_0-0_
  6
CONTINUOUS
 62
    7
 10
85.97544442387067
 20
88.045497747720447
 40
1
 50
0
 51
90.000000000000028
  0
ENDSEC
  0
EOF
