  0
SECTION
  2
HEADER
  9
$ACADVER
  1
AC1009
  9
$INSBASE
 10
0
 20
0
 30
0
  9
$EXTMIN
 10
0
 20
0
  9
$EXTMAX
 10
1189
 20
841
  9
$LIMMIN
 10
0
 20
0
  9
$LIMMAX
 10
1189
 20
841
  9
$LTSCALE
 40
1
  0
ENDSEC
  0
SECTION
  2
TABLES
  0
TABLE
  2
LTYPE
 70
     9
  0
LTYPE
  2
CONTINUOUS
 70
    64
  3
実線
 72
    65
 73
     0
 40
0.0
  0
LTYPE
  2
DASHED1
 70
    64
  3
--  --  --  --  --  --  --  --  
 72
    65
 73
     2
 40
2.5
 49
1.25
 49
-1.25
  0
LTYPE
  2
DASHED2
 70
    64
  3
----    ----    ----    ----    
 72
    65
 73
     2
 40
5.0
 49
2.5
 49
-2.5
  0
LTYPE
  2
DASHED3
 70
    64
  3
------  ------  ------  ------  
 72
    65
 73
     2
 40
5.0
 49
3.75
 49
-1.25
  0
LTYPE
  2
CENTER1
 70
    64
  3
----- - ----- - ----- - ----- - 
 72
    65
 73
     4
 40
10.0
 49
6.25
 49
-1.25
 49
1.25
 49
-1.25
  0
LTYPE
  2
CENTER2
 70
    64
  3
----------  --  ----------  --  
 72
    65
 73
     4
 40
20.0
 49
12.5
 49
-2.5
 49
2.5
 49
-2.5
  0
LTYPE
  2
PHANTOM1
 70
    64
  3
--- - - --- - - --- - - --- - - 
 72
    65
 73
     6
 40
10.0
 49
3.25
 49
-1.25
 49
1.25
 49
-1.25
 49
1.25
 49
-1.25
  0
LTYPE
  2
PHANTOM2
 70
    64
  3
--------  -  -  --------  -  -  
 72
    65
 73
     6
 40
20.0
 49
10.0
 49
-2.5
 49
1.25
 49
-2.5
 49
1.25
 49
-2.5
  0
LTYPE
  2
DOT
 70
    64
  3
-   -   -   -   -   -   -   -   
 72
    65
 73
     2
 40
2.5
 49
0.625
 49
-1.875
  0
LTYPE
  2
DUMMY
 70
    64
  3
ダミー
 72
    65
 73
     0
 40
0.0
  0
LTYPE
  2
RAND1
 70
    64
  3
ランダム線1
 72
    65
 73
     4
 40
10.0
 49
1.0
 49
-2.0
 49
3.0
 49
-4.0
  0
LTYPE
  2
RAND2
 70
    64
  3
ランダム線2
 72
    65
 73
     4
 40
14.0
 49
2.0
 49
-3.0
 49
4.0
 49
-5.0
  0
LTYPE
  2
RAND3
 70
    64
  3
ランダム線3
 72
    65
 73
     4
 40
18.0
 49
3.0
 49
-4.0
 49
5.0
 49
-6.0
  0
LTYPE
  2
RAND4
 70
    64
  3
ランダム線4
 72
    65
 73
     4
 40
22.0
 49
4.0
 49
-5.0
 49
6.0
 49
-7.0
  0
LTYPE
  2
RAND5
 70
    64
  3
ランダム線5
 72
    65
 73
     4
 40
26.0
 49
5.0
 49
-6.0
 49
7.0
 49
-8.0
  0
LTYPE
  2
LONG1
 70
    64
  3
----------  --  ----------  --  
 72
    65
 73
     4
 40
40.0
 49
32.5
 49
-2.5
 49
2.5
 49
-2.5
  0
LTYPE
  2
LONG2
 70
    64
  3
--------  -  -  --------  -  -  
 72
    65
 73
     6
 40
40.0
 49
30.0
 49
-2.5
 49
1.25
 49
-2.5
 49
1.25
 49
-2.5
  0
LTYPE
  2
LONG3
 70
    64
  3
+++++++++++++++..+++++++++++++++
 72
    65
 73
     2
 40
40.0
 49
37.5
 49
-2.5
  0
LTYPE
  2
LONG4
 70
    64
  3
+++++++++++++++..+++++++++++++++
 72
    65
 73
     2
 40
80.0
 49
75.0
 49
-5.0
  0
LTYPE
  2
LONG5
 70
    64
  3
----------  --  ----------  --  
 72
    65
 73
     4
 40
60.0
 49
37.5
 49
-7.5
 49
7.5
 49
-7.5
  0
LTYPE
  2
dashed
 70
   64
  3
-------   -------------   ------
 72
   65
 73
    2
 40
7.5
 49
6
 49
-1.5
  0
LTYPE
  2
dashed_spaced
 70
   64
  3
----        --------        ----
 72
   65
 73
    2
 40
12
 49
6
 49
-6
  0
LTYPE
  2
long_dashed_dotted
 70
   64
  3
------------- --- --------------
 72
   65
 73
    4
 40
15.25
 49
12
 49
-1.5
 49
0.25
 49
-1.5
  0
LTYPE
  2
long_dashed_double-dotted
 70
   64
  3
----------- --- --- ------------
 72
   65
 73
    6
 40
17
 49
12
 49
-1.5
 49
0.25
 49
-1.5
 49
0.25
 49
-1.5
  0
LTYPE
  2
long_dashed_triplicate-dotted
 70
   64
  3
--------- --- --- --- ----------
 72
   65
 73
    8
 40
18.75
 49
12
 49
-1.5
 49
0.25
 49
-1.5
 49
0.25
 49
-1.5
 49
0.25
 49
-1.5
  0
LTYPE
  2
dotted
 70
   64
  3
   -       -       -       -    
 72
   65
 73
    2
 40
1.75
 49
0.25
 49
-1.5
  0
LTYPE
  2
chain
 70
   64
  3
-------------- -- --------------
 72
   65
 73
    4
 40
18.5
 49
12
 49
-1.5
 49
3.5
 49
-1.5
  0
LTYPE
  2
chain_double_dash
 70
   64
  3
------------ -- -- -------------
 72
   65
 73
    6
 40
23.5
 49
12
 49
-1.5
 49
3.5
 49
-1.5
 49
3.5
 49
-1.5
  0
LTYPE
  2
dashed_dotted
 70
   64
  3
-----------     -     ----------
 72
   65
 73
    4
 40
9.25
 49
6
 49
-1.5
 49
0.25
 49
-1.5
  0
LTYPE
  2
double-dashed_dotted
 70
   64
  3
------   -----------   -   -----
 72
   65
 73
    6
 40
16.75
 49
6
 49
-1.5
 49
6
 49
-1.5
 49
0.25
 49
-1.5
  0
LTYPE
  2
dashed_double-dotted
 70
   64
  3
---------    -    -    ---------
 72
   65
 73
    6
 40
11
 49
6
 49
-1.5
 49
0.25
 49
-1.5
 49
0.25
 49
-1.5
  0
LTYPE
  2
double-dashed_double-dotted
 70
   64
  3
-----   ---------   -   -   ----
 72
   65
 73
    8
 40
18.5
 49
6
 49
-1.5
 49
6
 49
-1.5
 49
0.25
 49
-1.5
 49
0.25
 49
-1.5
  0
LTYPE
  2
dashed_triplicate-dotted
 70
   64
  3
-------    -    -    -    ------
 72
   65
 73
    8
 40
12.75
 49
6
 49
-1.5
 49
0.25
 49
-1.5
 49
0.25
 49
-1.5
 49
0.25
 49
-1.5
  0
LTYPE
  2
double-dashed_triplicate-dotted
 70
   64
  3
-----  ---------  -  -  -  -----
 72
   65
 73
   10
 40
20.25
 49
6
 49
-1.5
 49
6
 49
-1.5
 49
0.25
 49
-1.5
 49
0.25
 49
-1.5
 49
0.25
 49
-1.5
  0
LTYPE
  2
undefined
 70
   64
  3
--------------------------------
 72
   65
 73
    0
 40
0
  0
ENDTAB
  0
TABLE
  2
STYLE
  5
3
100
AcDbSymbolTable
 70
     1
  0
STYLE
  5
10
100
AcDbSymbolTableRecord
100
AcDbTextStyleTableRecord
  2
STANDARD
 70
     0
 40
0.0
 41
1.0
 50
0.0
 71
     0
 42
0.2
  3
txt
  4
bigfont.shx
  0
STYLE
  5
26
100
AcDbSymbolTableRecord
100
AcDbTextStyleTableRecord
  2
TATEGAKI
 70
    68
 40
0.0
 41
1.0
 50
0.0
 71
     0
 42
1.0
  3
txt
  4
bigfont.shx
  0
ENDTAB
  0
TABLE
  2
LAYER
 70
    4
  0
LAYER
  2
_0-0_
 70
   64
 62
    7
  6
CONTINUOUS
  0
LAYER
  2
_0-1_
 70
   64
 62
    7
  6
CONTINUOUS
  0
LAYER
  2
_0-f_
 70
   64
 62
    7
  6
CONTINUOUS
  0
LAYER
  2
ADD_LINE
 70
   64
 62
    7
  6
CONTINUOUS
  0
ENDTAB
  0
ENDSEC
  0
SECTION
  2
BLOCKS
  0
ENDSEC
  0
SECTION
  2
ENTITIES
  0
TEXT
  8
_0-f_
 62
    7
 10
0.4405450585162498
 20
0.4745326339931921
 40
4.2999999999999998
 41
0.744186046511628
 50
0
  1
E412_E412S
  0
LINE
  8
_0-0_
  6
CONTINUOUS
 62
    7
 10
119.95031032440619
 20
57.977021793922631
 11
2.9503103244062459
 21
57.977021793922631
  0
LINE
  8
_0-0_
  6
CONTINUOUS
 62
    7
 10
1.4503103244062459
 20
59.477021793922631
 11
1.4503103244062459
 21
96.477021793922518
  0
LINE
  8
_0-0_
  6
CONTINUOUS
 62
    7
 10
2.9503103244062459
 20
97.977021793922518
 11
119.95031032440619
 21
97.977021793922518
  0
LINE
  8
_0-0_
  6
CONTINUOUS
 62
    7
 10
121.45031032440619
 20
96.477021793922518
 11
121.45031032440619
 21
59.477021793922631
  0
LINE
  8
_0-0_
  6
CONTINUOUS
 62
    7
 10
118.45031032440619
 20
61.377021793922722
 11
118.45031032440619
 21
64.577021793922995
  0
LINE
  8
_0-0_
  6
CONTINUOUS
 62
    7
 10
118.05031032440564
 20
64.977021793922631
 11
108.85031032440583
 21
64.977021793922631
  0
LINE
  8
_0-0_
  6
CONTINUOUS
 62
    7
 10
108.45031032440619
 20
64.577021793922995
 11
108.45031032440619
 21
61.377021793922722
  0
LINE
  8
_0-0_
  6
CONTINUOUS
 62
    7
 10
108.85031032440583
 20
60.977021793922631
 11
118.05031032440564
 21
60.977021793922631
  0
LINE
  8
_0-0_
  6
CONTINUOUS
 62
    7
 10
115.39849617374347
 20
62.623978984825499
 11
114.7613088871887
 21
62.623978984825499
  0
LINE
  8
_0-0_
  6
CONTINUOUS
 62
    7
 10
114.75827200269777
 20
63.506771728873446
 11
115.3823927780615
 21
63.506771728873446
  0
LINE
  8
_0-0_
  6
CONTINUOUS
 62
    7
 10
113.19414155891826
 20
63.801679252595932
 11
113.19414155891826
 21
64.238428776697219
  0
LINE
  8
_0-0_
  6
CONTINUOUS
 62
    7
 10
113.19414155891826
 20
64.238428776697219
 11
111.4784838090647
 21
64.238428776697219
  0
LINE
  8
_0-0_
  6
CONTINUOUS
 62
    7
 10
111.4784838090647
 20
64.238428776697219
 11
111.4784838090647
 21
61.788555285577331
  0
LINE
  8
_0-0_
  6
CONTINUOUS
 62
    7
 10
111.4784838090647
 20
61.788555285577331
 11
113.19414155891826
 21
61.788555285577331
  0
LINE
  8
_0-0_
  6
CONTINUOUS
 62
    7
 10
113.19414155891826
 20
61.788555285577331
 11
113.19414155891826
 21
62.22530480971318
  0
LINE
  8
_0-0_
  6
CONTINUOUS
 62
    7
 10
113.19414155891826
 20
62.22530480971318
 11
112.08724391159302
 21
62.22530480971318
  0
LINE
  8
_0-0_
  6
CONTINUOUS
 62
    7
 10
112.08724391159302
 20
62.22530480971318
 11
112.08724391159302
 21
62.823564782293033
  0
LINE
  8
_0-0_
  6
CONTINUOUS
 62
    7
 10
112.08724391159302
 20
62.823564782293033
 11
113.08858832156619
 21
62.823564782293033
  0
LINE
  8
_0-0_
  6
CONTINUOUS
 62
    7
 10
113.08858832156619
 20
62.823564782293033
 11
113.08858832156619
 21
63.233546075869072
  0
LINE
  8
_0-0_
  6
CONTINUOUS
 62
    7
 10
113.08858832156619
 20
63.233546075869072
 11
112.08724391159302
 21
63.233546075869072
  0
LINE
  8
_0-0_
  6
CONTINUOUS
 62
    7
 10
112.08724391159302
 20
63.233546075869072
 11
112.08724391159302
 21
63.801679252595932
  0
LINE
  8
_0-0_
  6
CONTINUOUS
 62
    7
 10
112.08724391159302
 20
63.801679252595932
 11
113.19414155891826
 21
63.801679252595932
  0
LINE
  8
_0-0_
  6
CONTINUOUS
 62
    7
 10
109.90284354415434
 20
64.238428776697219
 11
109.90284354415434
 21
62.22530480971318
  0
LINE
  8
_0-0_
  6
CONTINUOUS
 62
    7
 10
109.90284354415434
 20
62.22530480971318
 11
111.00712824165129
 21
62.22530480971318
  0
LINE
  8
_0-0_
  6
CONTINUOUS
 62
    7
 10
111.00712824165129
 20
62.22530480971318
 11
111.00712824165129
 21
61.788555285577331
  0
LINE
  8
_0-0_
  6
CONTINUOUS
 62
    7
 10
111.00712824165129
 20
61.788555285577331
 11
109.29191691007435
 21
61.788555285577331
  0
LINE
  8
_0-0_
  6
CONTINUOUS
 62
    7
 10
109.29191691007435
 20
61.788555285577331
 11
109.29191691007435
 21
64.238428776697219
  0
LINE
  8
_0-0_
  6
CONTINUOUS
 62
    7
 10
109.29191691007435
 20
64.238428776697219
 11
109.90284354415434
 21
64.238428776697219
  0
LINE
  8
_0-0_
  6
CONTINUOUS
 62
    7
 10
99.250310276722473
 20
78.417021791538332
 11
100.1303102719541
 21
78.417021791538332
  0
LINE
  8
_0-0_
  6
CONTINUOUS
 62
    7
 10
99.250310276722473
 20
78.417021791538332
 11
99.250310276722473
 21
77.537021796306703
  0
LINE
  8
_0-0_
  6
CONTINUOUS
 62
    7
 10
99.250310276722473
 20
77.537021796306703
 11
100.1303102719541
 21
77.537021796306703
  0
LINE
  8
_0-0_
  6
CONTINUOUS
 62
    7
 10
101.01031032679037
 20
76.65702174147043
 11
101.01031032679037
 21
75.777021746238802
  0
LINE
  8
_0-0_
  6
CONTINUOUS
 62
    7
 10
101.01031032679037
 20
75.777021746238802
 11
101.890310322022
 21
75.777021746238802
  0
LINE
  8
_0-0_
  6
CONTINUOUS
 62
    7
 10
101.890310322022
 20
75.777021746238802
 11
101.890310322022
 21
76.65702174147043
  0
LINE
  8
_0-0_
  6
CONTINUOUS
 62
    7
 10
102.77031037685828
 20
77.537021796306703
 11
103.6503103720899
 21
77.537021796306703
  0
LINE
  8
_0-0_
  6
CONTINUOUS
 62
    7
 10
103.6503103720899
 20
77.537021796306703
 11
103.6503103720899
 21
78.417021791538332
  0
LINE
  8
_0-0_
  6
CONTINUOUS
 62
    7
 10
103.6503103720899
 20
78.417021791538332
 11
102.77031037685828
 21
78.417021791538332
  0
LINE
  8
_0-0_
  6
CONTINUOUS
 62
    7
 10
101.890310322022
 20
79.297021846374605
 11
101.890310322022
 21
80.177021841606233
  0
LINE
  8
_0-0_
  6
CONTINUOUS
 62
    7
 10
101.890310322022
 20
80.177021841606233
 11
101.01031032679037
 21
80.177021841606233
  0
LINE
  8
_0-0_
  6
CONTINUOUS
 62
    7
 10
101.01031032679037
 20
80.177021841606233
 11
101.01031032679037
 21
79.297021846374605
  0
LINE
  8
_0-0_
  6
CONTINUOUS
 62
    7
 10
23.650310372089962
 20
77.537021796306703
 11
22.770310376858333
 21
77.537021796306703
  0
LINE
  8
_0-0_
  6
CONTINUOUS
 62
    7
 10
23.650310372089962
 20
77.537021796306703
 11
23.650310372089962
 21
78.417021791538332
  0
LINE
  8
_0-0_
  6
CONTINUOUS
 62
    7
 10
23.650310372089962
 20
78.417021791538332
 11
22.770310376858333
 21
78.417021791538332
  0
LINE
  8
_0-0_
  6
CONTINUOUS
 62
    7
 10
21.89031032202206
 20
79.297021846374605
 11
21.89031032202206
 21
80.177021841606233
  0
LINE
  8
_0-0_
  6
CONTINUOUS
 62
    7
 10
21.89031032202206
 20
80.177021841606233
 11
21.010310326790432
 21
80.177021841606233
  0
LINE
  8
_0-0_
  6
CONTINUOUS
 62
    7
 10
21.010310326790432
 20
80.177021841606233
 11
21.010310326790432
 21
79.297021846374605
  0
LINE
  8
_0-0_
  6
CONTINUOUS
 62
    7
 10
20.130310271954158
 20
78.417021791538332
 11
19.25031027672253
 21
78.417021791538332
  0
LINE
  8
_0-0_
  6
CONTINUOUS
 62
    7
 10
19.25031027672253
 20
78.417021791538332
 11
19.25031027672253
 21
77.537021796306703
  0
LINE
  8
_0-0_
  6
CONTINUOUS
 62
    7
 10
19.25031027672253
 20
77.537021796306703
 11
20.130310271954158
 21
77.537021796306703
  0
LINE
  8
_0-0_
  6
CONTINUOUS
 62
    7
 10
21.010310326790432
 20
76.65702174147043
 11
21.010310326790432
 21
75.777021746238802
  0
LINE
  8
_0-0_
  6
CONTINUOUS
 62
    7
 10
21.010310326790432
 20
75.777021746238802
 11
21.89031032202206
 21
75.777021746238802
  0
LINE
  8
_0-0_
  6
CONTINUOUS
 62
    7
 10
21.89031032202206
 20
75.777021746238802
 11
21.89031032202206
 21
76.65702174147043
  0
ARC
  8
_0-0_
  6
CONTINUOUS
 62
    7
 10
2.9503103244062459
 20
96.477021793922518
 40
1.5
 50
90
 51
180
  0
ARC
  8
_0-0_
  6
CONTINUOUS
 62
    7
 10
2.9503103244062459
 20
59.477021793922631
 40
1.5
 50
180
 51
270
  0
ARC
  8
_0-0_
  6
CONTINUOUS
 62
    7
 10
119.95031032440619
 20
96.477021793922518
 40
1.5
 50
0
 51
90
  0
ARC
  8
_0-0_
  6
CONTINUOUS
 62
    7
 10
119.95031032440619
 20
59.477021793922631
 40
1.5
 50
270
 51
0
  0
ARC
  8
_0-0_
  6
CONTINUOUS
 62
    7
 10
108.85031032440583
 20
64.577021793922995
 40
0.4
 50
90.000000000000028
 51
180.00000000000006
  0
ARC
  8
_0-0_
  6
CONTINUOUS
 62
    7
 10
108.85031032440583
 20
61.377021793922722
 40
0.4
 50
180.00000000000006
 51
270
  0
ARC
  8
_0-0_
  6
CONTINUOUS
 62
    7
 10
118.05031032440564
 20
64.577021793922995
 40
0.4
 50
0.0000000000000508
 51
90.000000000000057
  0
ARC
  8
_0-0_
  6
CONTINUOUS
 62
    7
 10
118.05031032440564
 20
61.377021793922722
 40
0.4
 50
270.00000000000006
 51
0.0000000000000508
  0
ARC
  8
_0-0_
  6
CONTINUOUS
 62
    7
 10
116.52053371896562
 20
63.013492031137503
 40
2.8787836133968554
 50
164.21600247589294
 51
195.78399752410709
  0
ARC
  8
_0-0_
  6
CONTINUOUS
 62
    7
 10
121.60513843652615
 20
63.0134920311325
 40
7.3112867397731938
 50
176.78919008197266
 51
183.21080991802734
  0
ARC
  8
_0-0_
  6
CONTINUOUS
 62
    7
 10
114.39904229550774
 20
62.455307624505622
 40
0.6866147596063365
 50
199.11812031409383
 51
253.77089632225113
  0
ARC
  8
_0-0_
  6
CONTINUOUS
 62
    7
 10
114.53335974095825
 20
63.078704601220124
 40
1.3234835615556069
 50
255.7307072235771
 51
284.2692927764229
  0
ARC
  8
_0-0_
  6
CONTINUOUS
 62
    7
 10
114.66767718640875
 20
62.455307624505622
 40
0.6866147596063365
 50
286.22910367774892
 51
340.88187968590626
  0
ARC
  8
_0-0_
  6
CONTINUOUS
 62
    7
 10
112.54618576295087
 20
63.013492031137503
 40
2.8787836133968558
 50
344.21600247589299
 51
352.223758552802
  0
ARC
  8
_0-0_
  6
CONTINUOUS
 62
    7
 10
114.53335974095825
 20
62.37431065785313
 40
0.1990355837046194
 50
198.78093483258863
 51
341.21906516741149
  0
ARC
  8
_0-0_
  6
CONTINUOUS
 62
    7
 10
113.64990942903313
 20
62.604577968201284
 40
1.1115687810639556
 50
344.64474174215434
 51
1.000075600874982
  0
ARC
  8
_0-0_
  6
CONTINUOUS
 62
    7
 10
115.41681005288427
 20
62.604577968201284
 40
1.1115687810639556
 50
179.28077569259483
 51
195.35525825784563
  0
ARC
  8
_0-0_
  6
CONTINUOUS
 62
    7
 10
114.53335974095825
 20
63.652673404421421
 40
0.1990355837046194
 50
18.780934832588613
 51
161.2190651674114
  0
ARC
  8
_0-0_
  6
CONTINUOUS
 62
    7
 10
115.41681005288427
 20
63.422406094073267
 40
1.1115687810639556
 50
164.64474174215434
 51
180.71922430740514
  0
ARC
  8
_0-0_
  6
CONTINUOUS
 62
    7
 10
113.64990942903313
 20
63.422406094073267
 40
1.1115687810639556
 50
4.3528100028009247
 51
15.355258257845687
  0
ARC
  8
_0-0_
  6
CONTINUOUS
 62
    7
 10
114.66767718640875
 20
63.571676437768929
 40
0.6866147596063365
 50
19.118120314093797
 51
73.770896322251104
  0
ARC
  8
_0-0_
  6
CONTINUOUS
 62
    7
 10
112.54618576295087
 20
63.013492031137503
 40
2.8787836133968558
 50
9.8663227198208787
 51
15.783997524107056
  0
ARC
  8
_0-0_
  6
CONTINUOUS
 62
    7
 10
114.53335974095825
 20
62.948279461054426
 40
1.3234835615556069
 50
75.730707223577085
 51
104.26929277642289
  0
ARC
  8
_0-0_
  6
CONTINUOUS
 62
    7
 10
114.39904229550774
 20
63.571676437768929
 40
0.6866147596063365
 50
106.22910367774885
 51
160.88187968590611
  0
ARC
  8
_0-0_
  6
CONTINUOUS
 62
    7
 10
118.66768447900103
 20
63.013492031137503
 40
2.8787836133968554
 50
164.21600247589294
 51
195.78399752410709
  0
ARC
  8
_0-0_
  6
CONTINUOUS
 62
    7
 10
123.75228919656155
 20
63.0134920311325
 40
7.3112867397731938
 50
176.78919008197266
 51
183.21080991802734
  0
ARC
  8
_0-0_
  6
CONTINUOUS
 62
    7
 10
109.6087318054262
 20
63.013492031132046
 40
7.3112867397731955
 50
356.78919008197278
 51
3.2108099180274401
  0
ARC
  8
_0-0_
  6
CONTINUOUS
 62
    7
 10
116.68051050099365
 20
62.37431065785313
 40
0.1990355837046194
 50
198.78093483258863
 51
341.21906516741149
  0
ARC
  8
_0-0_
  6
CONTINUOUS
 62
    7
 10
116.68051050099365
 20
63.078704601220124
 40
1.3234835615556069
 50
255.7307072235771
 51
284.2692927764229
  0
ARC
  8
_0-0_
  6
CONTINUOUS
 62
    7
 10
116.81482794644415
 20
62.455307624505622
 40
0.6866147596063365
 50
286.22910367774892
 51
340.88187968590626
  0
ARC
  8
_0-0_
  6
CONTINUOUS
 62
    7
 10
116.54619305554314
 20
62.455307624505622
 40
0.6866147596063365
 50
199.11812031409383
 51
253.77089632225113
  0
ARC
  8
_0-0_
  6
CONTINUOUS
 62
    7
 10
114.69333652298627
 20
63.013492031137503
 40
2.8787836133968558
 50
344.21600247589299
 51
15.783997524107125
  0
ARC
  8
_0-0_
  6
CONTINUOUS
 62
    7
 10
115.79706018906853
 20
62.604577968201284
 40
1.1115687810639556
 50
344.64474174215439
 51
0.7192243074050952
  0
ARC
  8
_0-0_
  6
CONTINUOUS
 62
    7
 10
117.56396081291967
 20
62.604577968201284
 40
1.1115687810639556
 50
179.28077569259483
 51
195.35525825784563
  0
ARC
  8
_0-0_
  6
CONTINUOUS
 62
    7
 10
117.56396081291967
 20
63.422406094073267
 40
1.1115687810639556
 50
164.64474174215434
 51
180.71922430740514
  0
ARC
  8
_0-0_
  6
CONTINUOUS
 62
    7
 10
116.68051050099365
 20
63.652673404421421
 40
0.1990355837046194
 50
18.780934832588613
 51
161.2190651674114
  0
ARC
  8
_0-0_
  6
CONTINUOUS
 62
    7
 10
115.79706018906853
 20
63.422406094073267
 40
1.1115687810639556
 50
359.28077569259494
 51
15.355258257845804
  0
ARC
  8
_0-0_
  6
CONTINUOUS
 62
    7
 10
116.68051050099365
 20
62.948279461054426
 40
1.3234835615556069
 50
75.730707223577085
 51
104.26929277642289
  0
ARC
  8
_0-0_
  6
CONTINUOUS
 62
    7
 10
116.54619305554314
 20
63.571676437768929
 40
0.6866147596063365
 50
106.22910367774885
 51
160.88187968590611
  0
ARC
  8
_0-0_
  6
CONTINUOUS
 62
    7
 10
116.81482794644415
 20
63.571676437768929
 40
0.6866147596063365
 50
19.118120314093797
 51
73.770896322251104
  0
CIRCLE
  8
_0-0_
  6
CONTINUOUS
 62
    7
 10
21.450310324406246
 20
77.977021793922518
 40
4
  0
ARC
  8
_0-0_
  6
CONTINUOUS
 62
    7
 10
22.770310376858333
 20
79.297021846374605
 40
0.8799999952316283
 50
180
 51
270
  0
ARC
  8
_0-0_
  6
CONTINUOUS
 62
    7
 10
22.770310376858333
 20
76.65702174147043
 40
0.8799999952316283
 50
90
 51
180
  0
ARC
  8
_0-0_
  6
CONTINUOUS
 62
    7
 10
20.130310271954158
 20
76.65702174147043
 40
0.8799999952316283
 50
0
 51
90
  0
ARC
  8
_0-0_
  6
CONTINUOUS
 62
    7
 10
20.130310271954158
 20
79.297021846374605
 40
0.8799999952316283
 50
270
 51
0
  0
CIRCLE
  8
_0-0_
  6
CONTINUOUS
 62
    7
 10
101.45031032440619
 20
77.977021793922518
 40
4
  0
ARC
  8
_0-0_
  6
CONTINUOUS
 62
    7
 10
102.77031037685828
 20
79.297021846374605
 40
0.8799999952316283
 50
180
 51
270
  0
ARC
  8
_0-0_
  6
CONTINUOUS
 62
    7
 10
102.77031037685828
 20
76.65702174147043
 40
0.8799999952316283
 50
90
 51
180
  0
ARC
  8
_0-0_
  6
CONTINUOUS
 62
    7
 10
100.1303102719541
 20
76.65702174147043
 40
0.8799999952316283
 50
0
 51
90
  0
ARC
  8
_0-0_
  6
CONTINUOUS
 62
    7
 10
100.1303102719541
 20
79.297021846374605
 40
0.8799999952316283
 50
270
 51
0
  0
LINE
  8
_0-0_
  6
CONTINUOUS
 62
    7
 10
105.15795332148417
 20
8.5955012683064069
 11
105.45031032440619
 21
14.174005202671083
  0
LINE
  8
_0-0_
  6
CONTINUOUS
 62
    7
 10
108.95031032440619
 20
14.174005202670855
 11
93.950310324406189
 21
14.174005202670855
  0
LINE
  8
_0-0_
  6
CONTINUOUS
 62
    7
 10
93.450310324406189
 20
14.674005202670855
 11
93.450310324406189
 21
17.174005202670855
  0
LINE
  8
_0-0_
  6
CONTINUOUS
 62
    7
 10
97.450310324406189
 20
14.174005202670628
 11
97.742667327327752
 21
8.5955012683064069
  0
LINE
  8
_0-0_
  6
CONTINUOUS
 62
    7
 10
99.240611629459806
 20
7.1740052026707417
 11
103.66000901935257
 21
7.1740052026707417
  0
LINE
  8
_0-0_
  6
CONTINUOUS
 62
    7
 10
109.45031032440619
 20
17.174005202670855
 11
109.45031032440619
 21
14.674005202670855
  0
LINE
  8
_0-0_
  6
CONTINUOUS
 62
    7
 10
121.45031032440619
 20
17.174005202670855
 11
1.4503103244062459
 21
17.174005202670855
  0
LINE
  8
_0-0_
  6
CONTINUOUS
 62
    7
 10
1.4503103244062459
 20
17.174005202670855
 11
1.4503103244062459
 21
18.674005202670855
  0
LINE
  8
_0-0_
  6
CONTINUOUS
 62
    7
 10
2.9503103244062459
 20
20.174005202670855
 11
119.95031032440619
 21
20.174005202670855
  0
LINE
  8
_0-0_
  6
CONTINUOUS
 62
    7
 10
121.45031032440619
 20
18.674005202670855
 11
121.45031032440619
 21
17.174005202670855
  0
LINE
  8
_0-0_
  6
CONTINUOUS
 62
    7
 10
17.742667327327808
 20
8.5955012683064069
 11
17.450310324406246
 21
14.174005202670628
  0
LINE
  8
_0-0_
  6
CONTINUOUS
 62
    7
 10
13.950310324406246
 20
14.174005202670855
 11
28.950310324406246
 21
14.174005202670855
  0
LINE
  8
_0-0_
  6
CONTINUOUS
 62
    7
 10
29.450310324406246
 20
14.674005202670855
 11
29.450310324406246
 21
17.174005202670855
  0
LINE
  8
_0-0_
  6
CONTINUOUS
 62
    7
 10
25.450310324406246
 20
14.174005202671083
 11
25.157953321484229
 21
8.5955012683064069
  0
LINE
  8
_0-0_
  6
CONTINUOUS
 62
    7
 10
23.660009019352628
 20
7.1740052026707417
 11
19.240611629459863
 21
7.1740052026707417
  0
LINE
  8
_0-0_
  6
CONTINUOUS
 62
    7
 10
13.450310324406246
 20
17.174005202670855
 11
13.450310324406246
 21
14.674005202670855
  0
ARC
  8
_0-0_
  6
CONTINUOUS
 62
    7
 10
119.95031032440619
 20
18.674005202670855
 40
1.5
 50
0
 51
90
  0
ARC
  8
_0-0_
  6
CONTINUOUS
 62
    7
 10
2.9503103244062459
 20
18.674005202670855
 40
1.5
 50
90
 51
180
  0
ARC
  8
_0-0_
  6
CONTINUOUS
 62
    7
 10
19.240611629459863
 20
8.6740052026707417
 40
1.5
 50
182.99999999999932
 51
270
  0
ARC
  8
_0-0_
  6
CONTINUOUS
 62
    7
 10
23.660009019352628
 20
8.6740052026707417
 40
1.5
 50
270
 51
356.99999999999972
  0
ARC
  8
_0-0_
  6
CONTINUOUS
 62
    7
 10
13.950310324406246
 20
14.674005202670855
 40
0.5
 50
180
 51
270
  0
ARC
  8
_0-0_
  6
CONTINUOUS
 62
    7
 10
28.950310324406246
 20
14.674005202670855
 40
0.4999999999999997
 50
270
 51
0
  0
ARC
  8
_0-0_
  6
CONTINUOUS
 62
    7
 10
99.240611629459806
 20
8.6740052026707417
 40
1.5
 50
182.99999999999932
 51
270
  0
ARC
  8
_0-0_
  6
CONTINUOUS
 62
    7
 10
103.66000901935257
 20
8.6740052026707417
 40
1.5
 50
270
 51
356.99999999999972
  0
ARC
  8
_0-0_
  6
CONTINUOUS
 62
    7
 10
93.950310324406189
 20
14.674005202670855
 40
0.5
 50
180
 51
270
  0
ARC
  8
_0-0_
  6
CONTINUOUS
 62
    7
 10
108.95031032440619
 20
14.674005202670855
 40
0.4999999999999997
 50
270
 51
0
  0
ARC
  8
_0-0_
  6
CONTINUOUS
 62
    7
 10
174.42693532333959
 20
80.761202772226738
 40
1
 50
0.0000000000000063
 51
87.000000000000142
  0
ARC
  8
_0-0_
  6
CONTINUOUS
 62
    7
 10
174.42693532333959
 20
75.192840815618979
 40
1
 50
273.00000000000028
 51
0
  0
ARC
  8
_0-0_
  6
CONTINUOUS
 62
    7
 10
163.92693532333959
 20
59.477021793922518
 40
1.5
 50
180
 51
270
  0
ARC
  8
_0-0_
  6
CONTINUOUS
 62
    7
 10
163.92693532333959
 20
96.477021793922518
 40
1.5
 50
90
 51
180
  0
ARC
  8
_0-0_
  6
CONTINUOUS
 62
    7
 10
174.92693532333959
 20
79.518358532261459
 40
0.5
 50
273.00000000000068
 51
0
  0
ARC
  8
_0-0_
  6
CONTINUOUS
 62
    7
 10
174.92693532333959
 20
76.435685055584031
 40
0.5
 50
0.0000000000000127
 51
87.000000000000014
  0
LINE
  8
_0-0_
  6
CONTINUOUS
 62
    7
 10
168.42693532333959
 20
82.077021793922654
 11
165.42693532333959
 21
82.077021793922654
  0
LINE
  8
_0-0_
  6
CONTINUOUS
 62
    7
 10
174.47927127958263
 20
74.194211280864124
 11
168.42693532333959
 21
73.877021793922609
  0
LINE
  8
_0-0_
  6
CONTINUOUS
 62
    7
 10
175.42693532333959
 20
76.435685055584031
 11
175.42693532333959
 21
75.192840815618979
  0
LINE
  8
_0-0_
  6
CONTINUOUS
 62
    7
 10
168.42693532333959
 20
77.2770217939227
 11
174.95310330146111
 21
76.934999822961231
  0
LINE
  8
_0-0_
  6
CONTINUOUS
 62
    7
 10
174.95310330146111
 20
79.019043764884259
 11
168.42693532333959
 21
78.67702179392279
  0
LINE
  8
_0-0_
  6
CONTINUOUS
 62
    7
 10
175.42693532333959
 20
80.761202772226738
 11
175.42693532333959
 21
79.518358532261459
  0
LINE
  8
_0-0_
  6
CONTINUOUS
 62
    7
 10
168.42693532333959
 20
82.077021793922654
 11
174.47927127958263
 21
81.759832306981139
  0
LINE
  8
_0-0_
  6
CONTINUOUS
 62
    7
 10
168.42693532333959
 20
73.877021793922609
 11
168.42693532333959
 21
82.077021793922654
  0
LINE
  8
_0-0_
  6
CONTINUOUS
 62
    7
 10
165.42693532333959
 20
73.877021793922609
 11
168.42693532333959
 21
73.877021793922609
  0
LINE
  8
_0-0_
  6
CONTINUOUS
 62
    7
 10
165.42693532333959
 20
57.977021793922518
 11
163.92693532333959
 21
57.977021793922518
  0
LINE
  8
_0-0_
  6
CONTINUOUS
 62
    7
 10
165.42693532333959
 20
97.977021793922518
 11
165.42693532333959
 21
57.977021793922518
  0
LINE
  8
_0-0_
  6
CONTINUOUS
 62
    7
 10
163.92693532333959
 20
97.977021793922518
 11
165.42693532333959
 21
97.977021793922518
  0
LINE
  8
_0-0_
  6
CONTINUOUS
 62
    7
 10
162.42693532333959
 20
59.477021793922518
 11
162.42693532333959
 21
96.477021793922518
  0
LINE
  8
_0-1_
  6
CENTER1
 62
  152
 10
104.95031032440619
 20
77.977021793922518
 11
97.950310324406189
 21
77.977021793922518
  0
LINE
  8
_0-1_
  6
CENTER1
 62
  152
 10
101.45031032440619
 20
81.477021793922518
 11
101.45031032440619
 21
74.477021793922518
  0
LINE
  8
_0-1_
  6
CENTER1
 62
  152
 10
17.950310324406246
 20
77.977021793922518
 11
24.950310324406246
 21
77.977021793922518
  0
LINE
  8
_0-1_
  6
CENTER1
 62
  152
 10
21.450310324406246
 20
74.477021793922518
 11
21.450310324406246
 21
81.477021793922518
  0
LINE
  8
_0-1_
  6
CENTER1
 62
  152
 10
101.45031032440619
 20
7.1740052026707417
 11
101.45031032440619
 21
20.174005202670855
  0
LINE
  8
_0-1_
  6
CENTER1
 62
  152
 10
21.450310324406246
 20
7.1740052026707417
 11
21.450310324406246
 21
20.174005202670855
  0
LINE
  8
_0-1_
  6
DASHED3
 62
  152
 10
165.42693532333959
 20
97.977021793922518
 11
164.92693532333959
 21
97.977021793922518
  0
LINE
  8
_0-1_
  6
CENTER1
 62
  152
 10
162.42693532333959
 20
77.977021793922518
 11
175.42693532333959
 21
77.977021793922518
  0
ENDSEC
  0
EOF
