  0
SECTION
  2
HEADER
  9
$ACADVER
  1
AC1009
  9
$INSBASE
 10
0
 20
0
 30
0
  9
$EXTMIN
 10
0
 20
0
  9
$EXTMAX
 10
1189
 20
841
  9
$LIMMIN
 10
0
 20
0
  9
$LIMMAX
 10
1189
 20
841
  9
$LTSCALE
 40
1
  0
ENDSEC
  0
SECTION
  2
TABLES
  0
TABLE
  2
LTYPE
 70
     9
  0
LTYPE
  2
CONTINUOUS
 70
    64
  3
実線
 72
    65
 73
     0
 40
0.0
  0
LTYPE
  2
DASHED1
 70
    64
  3
--  --  --  --  --  --  --  --  
 72
    65
 73
     2
 40
2.5
 49
1.25
 49
-1.25
  0
LTYPE
  2
DASHED2
 70
    64
  3
----    ----    ----    ----    
 72
    65
 73
     2
 40
5.0
 49
2.5
 49
-2.5
  0
LTYPE
  2
DASHED3
 70
    64
  3
------  ------  ------  ------  
 72
    65
 73
     2
 40
5.0
 49
3.75
 49
-1.25
  0
LTYPE
  2
CENTER1
 70
    64
  3
----- - ----- - ----- - ----- - 
 72
    65
 73
     4
 40
10.0
 49
6.25
 49
-1.25
 49
1.25
 49
-1.25
  0
LTYPE
  2
CENTER2
 70
    64
  3
----------  --  ----------  --  
 72
    65
 73
     4
 40
20.0
 49
12.5
 49
-2.5
 49
2.5
 49
-2.5
  0
LTYPE
  2
PHANTOM1
 70
    64
  3
--- - - --- - - --- - - --- - - 
 72
    65
 73
     6
 40
10.0
 49
3.25
 49
-1.25
 49
1.25
 49
-1.25
 49
1.25
 49
-1.25
  0
LTYPE
  2
PHANTOM2
 70
    64
  3
--------  -  -  --------  -  -  
 72
    65
 73
     6
 40
20.0
 49
10.0
 49
-2.5
 49
1.25
 49
-2.5
 49
1.25
 49
-2.5
  0
LTYPE
  2
DOT
 70
    64
  3
-   -   -   -   -   -   -   -   
 72
    65
 73
     2
 40
2.5
 49
0.625
 49
-1.875
  0
LTYPE
  2
DUMMY
 70
    64
  3
ダミー
 72
    65
 73
     0
 40
0.0
  0
LTYPE
  2
RAND1
 70
    64
  3
ランダム線1
 72
    65
 73
     4
 40
10.0
 49
1.0
 49
-2.0
 49
3.0
 49
-4.0
  0
LTYPE
  2
RAND2
 70
    64
  3
ランダム線2
 72
    65
 73
     4
 40
14.0
 49
2.0
 49
-3.0
 49
4.0
 49
-5.0
  0
LTYPE
  2
RAND3
 70
    64
  3
ランダム線3
 72
    65
 73
     4
 40
18.0
 49
3.0
 49
-4.0
 49
5.0
 49
-6.0
  0
LTYPE
  2
RAND4
 70
    64
  3
ランダム線4
 72
    65
 73
     4
 40
22.0
 49
4.0
 49
-5.0
 49
6.0
 49
-7.0
  0
LTYPE
  2
RAND5
 70
    64
  3
ランダム線5
 72
    65
 73
     4
 40
26.0
 49
5.0
 49
-6.0
 49
7.0
 49
-8.0
  0
LTYPE
  2
LONG1
 70
    64
  3
----------  --  ----------  --  
 72
    65
 73
     4
 40
40.0
 49
32.5
 49
-2.5
 49
2.5
 49
-2.5
  0
LTYPE
  2
LONG2
 70
    64
  3
--------  -  -  --------  -  -  
 72
    65
 73
     6
 40
40.0
 49
30.0
 49
-2.5
 49
1.25
 49
-2.5
 49
1.25
 49
-2.5
  0
LTYPE
  2
LONG3
 70
    64
  3
+++++++++++++++..+++++++++++++++
 72
    65
 73
     2
 40
40.0
 49
37.5
 49
-2.5
  0
LTYPE
  2
LONG4
 70
    64
  3
+++++++++++++++..+++++++++++++++
 72
    65
 73
     2
 40
80.0
 49
75.0
 49
-5.0
  0
LTYPE
  2
LONG5
 70
    64
  3
----------  --  ----------  --  
 72
    65
 73
     4
 40
60.0
 49
37.5
 49
-7.5
 49
7.5
 49
-7.5
  0
LTYPE
  2
dashed
 70
   64
  3
-------   -------------   ------
 72
   65
 73
    2
 40
7.5
 49
6
 49
-1.5
  0
LTYPE
  2
dashed_spaced
 70
   64
  3
----        --------        ----
 72
   65
 73
    2
 40
12
 49
6
 49
-6
  0
LTYPE
  2
long_dashed_dotted
 70
   64
  3
------------- --- --------------
 72
   65
 73
    4
 40
15.25
 49
12
 49
-1.5
 49
0.25
 49
-1.5
  0
LTYPE
  2
long_dashed_double-dotted
 70
   64
  3
----------- --- --- ------------
 72
   65
 73
    6
 40
17
 49
12
 49
-1.5
 49
0.25
 49
-1.5
 49
0.25
 49
-1.5
  0
LTYPE
  2
long_dashed_triplicate-dotted
 70
   64
  3
--------- --- --- --- ----------
 72
   65
 73
    8
 40
18.75
 49
12
 49
-1.5
 49
0.25
 49
-1.5
 49
0.25
 49
-1.5
 49
0.25
 49
-1.5
  0
LTYPE
  2
dotted
 70
   64
  3
   -       -       -       -    
 72
   65
 73
    2
 40
1.75
 49
0.25
 49
-1.5
  0
LTYPE
  2
chain
 70
   64
  3
-------------- -- --------------
 72
   65
 73
    4
 40
18.5
 49
12
 49
-1.5
 49
3.5
 49
-1.5
  0
LTYPE
  2
chain_double_dash
 70
   64
  3
------------ -- -- -------------
 72
   65
 73
    6
 40
23.5
 49
12
 49
-1.5
 49
3.5
 49
-1.5
 49
3.5
 49
-1.5
  0
LTYPE
  2
dashed_dotted
 70
   64
  3
-----------     -     ----------
 72
   65
 73
    4
 40
9.25
 49
6
 49
-1.5
 49
0.25
 49
-1.5
  0
LTYPE
  2
double-dashed_dotted
 70
   64
  3
------   -----------   -   -----
 72
   65
 73
    6
 40
16.75
 49
6
 49
-1.5
 49
6
 49
-1.5
 49
0.25
 49
-1.5
  0
LTYPE
  2
dashed_double-dotted
 70
   64
  3
---------    -    -    ---------
 72
   65
 73
    6
 40
11
 49
6
 49
-1.5
 49
0.25
 49
-1.5
 49
0.25
 49
-1.5
  0
LTYPE
  2
double-dashed_double-dotted
 70
   64
  3
-----   ---------   -   -   ----
 72
   65
 73
    8
 40
18.5
 49
6
 49
-1.5
 49
6
 49
-1.5
 49
0.25
 49
-1.5
 49
0.25
 49
-1.5
  0
LTYPE
  2
dashed_triplicate-dotted
 70
   64
  3
-------    -    -    -    ------
 72
   65
 73
    8
 40
12.75
 49
6
 49
-1.5
 49
0.25
 49
-1.5
 49
0.25
 49
-1.5
 49
0.25
 49
-1.5
  0
LTYPE
  2
double-dashed_triplicate-dotted
 70
   64
  3
-----  ---------  -  -  -  -----
 72
   65
 73
   10
 40
20.25
 49
6
 49
-1.5
 49
6
 49
-1.5
 49
0.25
 49
-1.5
 49
0.25
 49
-1.5
 49
0.25
 49
-1.5
  0
LTYPE
  2
undefined
 70
   64
  3
--------------------------------
 72
   65
 73
    0
 40
0
  0
ENDTAB
  0
TABLE
  2
STYLE
  5
3
100
AcDbSymbolTable
 70
     1
  0
STYLE
  5
10
100
AcDbSymbolTableRecord
100
AcDbTextStyleTableRecord
  2
STANDARD
 70
     0
 40
0.0
 41
1.0
 50
0.0
 71
     0
 42
0.2
  3
txt
  4
bigfont.shx
  0
STYLE
  5
26
100
AcDbSymbolTableRecord
100
AcDbTextStyleTableRecord
  2
TATEGAKI
 70
    68
 40
0.0
 41
1.0
 50
0.0
 71
     0
 42
1.0
  3
txt
  4
bigfont.shx
  0
ENDTAB
  0
TABLE
  2
LAYER
 70
    3
  0
LAYER
  2
_0-0_
 70
   64
 62
    7
  6
CONTINUOUS
  0
LAYER
  2
_0-1_
 70
   64
 62
    7
  6
CONTINUOUS
  0
LAYER
  2
ADD_LINE
 70
   64
 62
    7
  6
CONTINUOUS
  0
ENDTAB
  0
ENDSEC
  0
SECTION
  2
BLOCKS
  0
ENDSEC
  0
SECTION
  2
ENTITIES
  0
LINE
  8
_0-0_
  6
CONTINUOUS
 62
    7
 10
63.542911913366538
 20
83.661985566633575
 11
36.758640665904636
 21
56.877714319171446
  0
LINE
  8
_0-0_
  6
CONTINUOUS
 62
    7
 10
36.319300837684636
 20
56.438374490951446
 11
36.319300837684636
 21
30.938374490951446
  0
LINE
  8
_0-0_
  6
CONTINUOUS
 62
    7
 10
37.819300837684636
 20
29.438374490950991
 11
74.819300837684636
 21
29.438374490950991
  0
LINE
  8
_0-0_
  6
CONTINUOUS
 62
    7
 10
76.319300837684636
 20
30.938374490951446
 11
76.319300837684636
 21
72.385596642315249
  0
LINE
  8
_0-0_
  6
CONTINUOUS
 62
    7
 10
75.879961009464182
 20
73.446256814094795
 11
65.664232256926311
 21
83.661985566633575
  0
LINE
  8
_0-0_
  6
CONTINUOUS
 62
    7
 10
56.904450837684976
 20
46.793314490950706
 11
56.904450837684976
 21
47.986324490950665
  0
LINE
  8
_0-0_
  6
CONTINUOUS
 62
    7
 10
55.73410083768465
 20
47.986324490950665
 11
55.73410083768465
 21
46.793314490950706
  0
LINE
  8
_0-0_
  6
CONTINUOUS
 62
    7
 10
54.867230837684815
 20
48.8531944909505
 11
53.674190837684705
 21
48.8531944909505
  0
LINE
  8
_0-0_
  6
CONTINUOUS
 62
    7
 10
53.674190837684705
 20
50.023494490950725
 11
54.867230837684815
 21
50.023494490950725
  0
LINE
  8
_0-0_
  6
CONTINUOUS
 62
    7
 10
55.73410083768465
 20
50.890364490951015
 11
55.73410083768465
 21
52.083434490950822
  0
LINE
  8
_0-0_
  6
CONTINUOUS
 62
    7
 10
56.904450837684976
 20
52.083434490950822
 11
56.904450837684976
 21
50.890364490951015
  0
LINE
  8
_0-0_
  6
CONTINUOUS
 62
    7
 10
57.771320837684812
 20
50.023494490950725
 11
58.96431083768482
 21
50.023494490950725
  0
LINE
  8
_0-0_
  6
CONTINUOUS
 62
    7
 10
58.96431083768482
 20
48.8531944909505
 11
57.771320837684812
 21
48.8531944909505
  0
LINE
  8
_0-0_
  6
CONTINUOUS
 62
    7
 10
63.719300837684727
 20
36.438374490951446
 11
72.919300837684546
 21
36.438374490951446
  0
LINE
  8
_0-0_
  6
CONTINUOUS
 62
    7
 10
73.319300837684636
 20
36.038374490950901
 11
73.319300837684636
 21
32.838374490951082
  0
LINE
  8
_0-0_
  6
CONTINUOUS
 62
    7
 10
72.919300837684546
 20
32.438374490951446
 11
63.719300837684727
 21
32.438374490951446
  0
LINE
  8
_0-0_
  6
CONTINUOUS
 62
    7
 10
63.319300837684636
 20
32.838374490951082
 11
63.319300837684636
 21
36.038374490950901
  0
LINE
  8
_0-0_
  6
CONTINUOUS
 62
    7
 10
64.160907423352796
 20
35.699781473725579
 11
64.160907423352796
 21
33.249907982605691
  0
LINE
  8
_0-0_
  6
CONTINUOUS
 62
    7
 10
64.160907423352796
 20
33.249907982605691
 11
65.876118754929735
 21
33.249907982605691
  0
LINE
  8
_0-0_
  6
CONTINUOUS
 62
    7
 10
65.876118754929735
 20
33.249907982605691
 11
65.876118754929735
 21
33.686657506741994
  0
LINE
  8
_0-0_
  6
CONTINUOUS
 62
    7
 10
65.876118754929735
 20
33.686657506741994
 11
64.771834057432784
 21
33.686657506741994
  0
LINE
  8
_0-0_
  6
CONTINUOUS
 62
    7
 10
64.771834057432784
 20
33.686657506741994
 11
64.771834057432784
 21
35.699781473725579
  0
LINE
  8
_0-0_
  6
CONTINUOUS
 62
    7
 10
64.771834057432784
 20
35.699781473725579
 11
64.160907423352796
 21
35.699781473725579
  0
LINE
  8
_0-0_
  6
CONTINUOUS
 62
    7
 10
66.347474322343373
 20
35.699781473725579
 11
66.347474322343373
 21
33.249907982605691
  0
LINE
  8
_0-0_
  6
CONTINUOUS
 62
    7
 10
66.347474322343373
 20
33.249907982605691
 11
68.063132072197163
 21
33.249907982605691
  0
LINE
  8
_0-0_
  6
CONTINUOUS
 62
    7
 10
68.063132072197163
 20
33.249907982605691
 11
68.063132072197163
 21
33.686657506741994
  0
LINE
  8
_0-0_
  6
CONTINUOUS
 62
    7
 10
68.063132072197163
 20
33.686657506741994
 11
66.956234424871695
 21
33.686657506741994
  0
LINE
  8
_0-0_
  6
CONTINUOUS
 62
    7
 10
66.956234424871695
 20
33.686657506741994
 11
66.956234424871695
 21
34.284917479321393
  0
LINE
  8
_0-0_
  6
CONTINUOUS
 62
    7
 10
66.956234424871695
 20
34.284917479321393
 11
67.957578834844639
 21
34.284917479321393
  0
LINE
  8
_0-0_
  6
CONTINUOUS
 62
    7
 10
67.957578834844639
 20
34.284917479321393
 11
67.957578834844639
 21
34.694898772897886
  0
LINE
  8
_0-0_
  6
CONTINUOUS
 62
    7
 10
67.957578834844639
 20
34.694898772897886
 11
66.956234424871695
 21
34.694898772897886
  0
LINE
  8
_0-0_
  6
CONTINUOUS
 62
    7
 10
66.956234424871695
 20
34.694898772897886
 11
66.956234424871695
 21
35.263031949624292
  0
LINE
  8
_0-0_
  6
CONTINUOUS
 62
    7
 10
66.956234424871695
 20
35.263031949624292
 11
68.063132072197163
 21
35.263031949624292
  0
LINE
  8
_0-0_
  6
CONTINUOUS
 62
    7
 10
68.063132072197163
 20
35.263031949624292
 11
68.063132072197163
 21
35.699781473725579
  0
LINE
  8
_0-0_
  6
CONTINUOUS
 62
    7
 10
68.063132072197163
 20
35.699781473725579
 11
66.347474322343373
 21
35.699781473725579
  0
LINE
  8
_0-0_
  6
CONTINUOUS
 62
    7
 10
69.627262515975985
 20
34.968124425901351
 11
70.251383291340403
 21
34.968124425901351
  0
LINE
  8
_0-0_
  6
CONTINUOUS
 62
    7
 10
70.267486687022142
 20
34.085331681853404
 11
69.630299400467607
 21
34.085331681853404
  0
LINE
  8
_0-0_
  6
CONTINUOUS
 62
    7
 10
74.819300837684636
 20
18.336184490950473
 11
37.819300837684636
 21
18.336184490950473
  0
LINE
  8
_0-0_
  6
CONTINUOUS
 62
    7
 10
36.319300837684636
 20
16.836184490950473
 11
36.319300837684636
 21
15.336184490950473
  0
LINE
  8
_0-0_
  6
CONTINUOUS
 62
    7
 10
36.319300837684636
 20
15.336184490950473
 11
76.319300837684636
 21
15.336184490950473
  0
LINE
  8
_0-0_
  6
CONTINUOUS
 62
    7
 10
76.319300837684636
 20
15.336184490950473
 11
76.319300837684636
 21
16.836184490950473
  0
LINE
  8
_0-0_
  6
CONTINUOUS
 62
    7
 10
60.319290837684434
 20
15.336184490950473
 11
60.319290837684434
 21
12.336184490950473
  0
LINE
  8
_0-0_
  6
CONTINUOUS
 62
    7
 10
60.319290837684434
 20
12.336184490950473
 11
52.319290837684434
 21
12.336184490950473
  0
LINE
  8
_0-0_
  6
CONTINUOUS
 62
    7
 10
52.319290837684434
 20
12.336184490950473
 11
52.636480837684644
 21
6.2838444909507416
  0
LINE
  8
_0-0_
  6
CONTINUOUS
 62
    7
 10
53.635110837684692
 20
5.3361844909504725
 11
54.777960837684418
 21
5.3361844909504725
  0
LINE
  8
_0-0_
  6
CONTINUOUS
 62
    7
 10
55.277270837684569
 20
5.8100144909503797
 11
55.584530837684611
 21
11.672814490950714
  0
LINE
  8
_0-0_
  6
CONTINUOUS
 62
    7
 10
57.05406083768446
 20
11.672814490950714
 11
57.361320837684502
 21
5.8100144909503797
  0
LINE
  8
_0-0_
  6
CONTINUOUS
 62
    7
 10
57.860630837684653
 20
5.3361844909504725
 11
59.003480837684378
 21
5.3361844909504725
  0
LINE
  8
_0-0_
  6
CONTINUOUS
 62
    7
 10
60.002110837684427
 20
6.2838444909507416
 11
60.319290837684434
 21
12.336184490950473
  0
LINE
  8
_0-0_
  6
CONTINUOUS
 62
    7
 10
52.319290837684434
 20
12.336184490950473
 11
52.319290837684434
 21
15.336184490950473
  0
ARC
  8
_0-0_
  6
CONTINUOUS
 62
    7
 10
37.819300837684636
 20
30.938374490951446
 40
1.5
 50
180
 51
270
  0
ARC
  8
_0-0_
  6
CONTINUOUS
 62
    7
 10
74.819300837684636
 20
30.938374490951446
 40
1.5
 50
270
 51
0
  0
ARC
  8
_0-0_
  6
CONTINUOUS
 62
    7
 10
63.719300837684727
 20
36.038374490950901
 40
0.4
 50
89.999999999999929
 51
179.99999999999994
  0
ARC
  8
_0-0_
  6
CONTINUOUS
 62
    7
 10
63.719300837684727
 20
32.838374490951082
 40
0.4
 50
179.99999999999997
 51
270
  0
ARC
  8
_0-0_
  6
CONTINUOUS
 62
    7
 10
72.919300837684546
 20
36.038374490950901
 40
0.4
 50
0
 51
89.999999999999972
  0
ARC
  8
_0-0_
  6
CONTINUOUS
 62
    7
 10
72.919300837684546
 20
32.838374490951082
 40
0.4
 50
270
 51
0
  0
ARC
  8
_0-0_
  6
CONTINUOUS
 62
    7
 10
37.819300837684636
 20
55.817054147391445
 40
1.5
 50
135
 51
179.99999999999997
  0
ARC
  8
_0-0_
  6
CONTINUOUS
 62
    7
 10
64.603572085146311
 20
82.601325394853575
 40
1.5
 50
45.000000000000028
 51
134.99999999999997
  0
ARC
  8
_0-0_
  6
CONTINUOUS
 62
    7
 10
74.819300837684636
 20
72.385596642315249
 40
1.5
 50
0
 51
45.000000000000028
  0
CIRCLE
  8
_0-0_
  6
CONTINUOUS
 62
    7
 10
56.319300837684636
 20
49.438374490950991
 40
4.1989502999999999
  0
ARC
  8
_0-0_
  6
CONTINUOUS
 62
    7
 10
54.867230837684815
 20
50.890364490951015
 40
0.8668801000000001
 50
270
 51
0
  0
ARC
  8
_0-0_
  6
CONTINUOUS
 62
    7
 10
57.771320837684812
 20
50.890364490951015
 40
0.8668801000000001
 50
180
 51
270
  0
ARC
  8
_0-0_
  6
CONTINUOUS
 62
    7
 10
57.771320837684812
 20
47.986324490950665
 40
0.8668801000000001
 50
90
 51
180
  0
ARC
  8
_0-0_
  6
CONTINUOUS
 62
    7
 10
54.867230837684815
 20
47.986324490950665
 40
0.8668801000000001
 50
0
 51
90
  0
ARC
  8
_0-0_
  6
CONTINUOUS
 62
    7
 10
56.319300837684636
 20
49.438374490950991
 40
2.7090001000000004
 50
347.52571999999998
 51
12.474273000000045
  0
ARC
  8
_0-0_
  6
CONTINUOUS
 62
    7
 10
56.319300837684636
 20
49.438374490950991
 40
2.7090001000000004
 50
77.525817000000018
 51
102.47418000000005
  0
ARC
  8
_0-0_
  6
CONTINUOUS
 62
    7
 10
56.319300837684636
 20
49.438374490950991
 40
2.7090001000000004
 50
167.52571999999995
 51
192.47426999999996
  0
ARC
  8
_0-0_
  6
CONTINUOUS
 62
    7
 10
56.319300837684636
 20
49.438374490950991
 40
2.7090001000000004
 50
257.52580999999998
 51
282.47417999999999
  0
ARC
  8
_0-0_
  6
CONTINUOUS
 62
    7
 10
59.003480837684378
 20
6.3361844909504725
 40
1
 50
270
 51
357
  0
ARC
  8
_0-0_
  6
CONTINUOUS
 62
    7
 10
53.635110837684692
 20
6.3361844909504725
 40
1
 50
183.00000000000003
 51
270
  0
ARC
  8
_0-0_
  6
CONTINUOUS
 62
    7
 10
56.283570837684579
 20
11.6361844909502
 40
0.6999999999999998
 50
90
 51
176.99999999999997
  0
ARC
  8
_0-0_
  6
CONTINUOUS
 62
    7
 10
56.355020837684492
 20
11.6361844909502
 40
0.6999999999999998
 50
3.0000000000000169
 51
90.000000000000014
  0
ARC
  8
_0-0_
  6
CONTINUOUS
 62
    7
 10
54.777960837684418
 20
5.8361844909504725
 40
0.5
 50
270
 51
357
  0
ARC
  8
_0-0_
  6
CONTINUOUS
 62
    7
 10
57.860630837684653
 20
5.8361844909504725
 40
0.5
 50
183.00000000000003
 51
270
  0
ARC
  8
_0-0_
  6
CONTINUOUS
 62
    7
 10
37.819300837684636
 20
16.836184490950473
 40
1.5000000000000002
 50
90
 51
180
  0
ARC
  8
_0-0_
  6
CONTINUOUS
 62
    7
 10
74.819300837684636
 20
16.836184490950473
 40
1.5000000000000002
 50
0
 51
90
  0
ARC
  8
_0-0_
  6
CONTINUOUS
 62
    7
 10
71.389524232244526
 20
34.474844728165863
 40
2.8787836133968563
 50
164.21600247589294
 51
195.78399752410709
  0
ARC
  8
_0-0_
  6
CONTINUOUS
 62
    7
 10
76.474128949804594
 20
34.474844728160406
 40
7.3112867397731955
 50
176.78919008197266
 51
183.21080991802734
  0
ARC
  8
_0-0_
  6
CONTINUOUS
 62
    7
 10
69.268032808786643
 20
33.916660321533982
 40
0.6866147596063365
 50
199.11812031409383
 51
253.77089632225113
  0
ARC
  8
_0-0_
  6
CONTINUOUS
 62
    7
 10
69.402350254237149
 20
34.540057298248485
 40
1.3234835615556071
 50
255.7307072235771
 51
284.2692927764229
  0
ARC
  8
_0-0_
  6
CONTINUOUS
 62
    7
 10
69.536667699687428
 20
33.916660321533982
 40
0.6866147596063365
 50
286.22910367774887
 51
340.88187968590614
  0
ARC
  8
_0-0_
  6
CONTINUOUS
 62
    7
 10
67.415176276229772
 20
34.474844728165863
 40
2.8787836133968563
 50
344.21600247589294
 51
352.22375855280194
  0
ARC
  8
_0-0_
  6
CONTINUOUS
 62
    7
 10
69.402350254237149
 20
33.83566335488149
 40
0.1990355837046196
 50
198.7809348325886
 51
341.21906516741143
  0
ARC
  8
_0-0_
  6
CONTINUOUS
 62
    7
 10
68.51889994231135
 20
34.065930665229189
 40
1.1115687810639558
 50
344.64474174215428
 51
1.0000756008749312
  0
ARC
  8
_0-0_
  6
CONTINUOUS
 62
    7
 10
70.285800566162948
 20
34.065930665229189
 40
1.1115687810639558
 50
179.28077569259483
 51
195.35525825784563
  0
ARC
  8
_0-0_
  6
CONTINUOUS
 62
    7
 10
69.402350254237149
 20
35.114026101449781
 40
0.1990355837046196
 50
18.780934832588589
 51
161.21906516741137
  0
ARC
  8
_0-0_
  6
CONTINUOUS
 62
    7
 10
70.285800566162948
 20
34.883758791101627
 40
1.1115687810639558
 50
164.64474174215434
 51
180.71922430740514
  0
ARC
  8
_0-0_
  6
CONTINUOUS
 62
    7
 10
68.51889994231135
 20
34.883758791101627
 40
1.1115687810639558
 50
4.352810002800874
 51
15.355258257845636
  0
ARC
  8
_0-0_
  6
CONTINUOUS
 62
    7
 10
69.536667699687428
 20
35.033029134796834
 40
0.6866147596063365
 50
19.118120314093797
 51
73.770896322251104
  0
ARC
  8
_0-0_
  6
CONTINUOUS
 62
    7
 10
67.415176276229772
 20
34.474844728165863
 40
2.8787836133968563
 50
9.8663227198208538
 51
15.783997524107031
  0
ARC
  8
_0-0_
  6
CONTINUOUS
 62
    7
 10
69.402350254237149
 20
34.409632158082331
 40
1.3234835615556071
 50
75.730707223577113
 51
104.26929277642292
  0
ARC
  8
_0-0_
  6
CONTINUOUS
 62
    7
 10
69.268032808786643
 20
35.033029134796834
 40
0.6866147596063365
 50
106.22910367774887
 51
160.88187968590617
  0
ARC
  8
_0-0_
  6
CONTINUOUS
 62
    7
 10
73.536674992279927
 20
34.474844728165863
 40
2.8787836133968563
 50
164.21600247589294
 51
195.78399752410709
  0
ARC
  8
_0-0_
  6
CONTINUOUS
 62
    7
 10
78.621279709839996
 20
34.474844728160406
 40
7.3112867397731955
 50
176.78919008197266
 51
183.21080991802734
  0
ARC
  8
_0-0_
  6
CONTINUOUS
 62
    7
 10
64.477722318705105
 20
34.474844728160406
 40
7.3112867397731955
 50
356.78919008197266
 51
3.2108099180273384
  0
ARC
  8
_0-0_
  6
CONTINUOUS
 62
    7
 10
71.54950101427255
 20
33.83566335488149
 40
0.1990355837046196
 50
198.7809348325886
 51
341.21906516741143
  0
ARC
  8
_0-0_
  6
CONTINUOUS
 62
    7
 10
71.54950101427255
 20
34.540057298248485
 40
1.3234835615556071
 50
255.7307072235771
 51
284.2692927764229
  0
ARC
  8
_0-0_
  6
CONTINUOUS
 62
    7
 10
71.683818459722829
 20
33.916660321533982
 40
0.6866147596063365
 50
286.22910367774887
 51
340.88187968590614
  0
ARC
  8
_0-0_
  6
CONTINUOUS
 62
    7
 10
71.415183568822044
 20
33.916660321533982
 40
0.6866147596063365
 50
199.11812031409383
 51
253.77089632225113
  0
ARC
  8
_0-0_
  6
CONTINUOUS
 62
    7
 10
69.562327036265174
 20
34.474844728165863
 40
2.8787836133968563
 50
344.21600247589294
 51
15.783997524107017
  0
ARC
  8
_0-0_
  6
CONTINUOUS
 62
    7
 10
70.666050702346752
 20
34.065930665229189
 40
1.1115687810639558
 50
344.64474174215428
 51
0.7192243074051079
  0
ARC
  8
_0-0_
  6
CONTINUOUS
 62
    7
 10
72.432951326198349
 20
34.065930665229189
 40
1.1115687810639558
 50
179.28077569259483
 51
195.35525825784563
  0
ARC
  8
_0-0_
  6
CONTINUOUS
 62
    7
 10
72.432951326198349
 20
34.883758791101627
 40
1.1115687810639558
 50
164.64474174215434
 51
180.71922430740514
  0
ARC
  8
_0-0_
  6
CONTINUOUS
 62
    7
 10
71.54950101427255
 20
35.114026101449781
 40
0.1990355837046196
 50
18.780934832588589
 51
161.21906516741137
  0
ARC
  8
_0-0_
  6
CONTINUOUS
 62
    7
 10
70.666050702346752
 20
34.883758791101627
 40
1.1115687810639558
 50
359.28077569259483
 51
15.355258257845652
  0
ARC
  8
_0-0_
  6
CONTINUOUS
 62
    7
 10
71.54950101427255
 20
34.409632158082331
 40
1.3234835615556071
 50
75.730707223577113
 51
104.26929277642292
  0
ARC
  8
_0-0_
  6
CONTINUOUS
 62
    7
 10
71.415183568822044
 20
35.033029134796834
 40
0.6866147596063365
 50
106.22910367774887
 51
160.88187968590617
  0
ARC
  8
_0-0_
  6
CONTINUOUS
 62
    7
 10
71.683818459722829
 20
35.033029134796834
 40
0.6866147596063365
 50
19.118120314093797
 51
73.770896322251104
  0
LINE
  8
_0-0_
  6
CONTINUOUS
 62
    7
 10
46.974369418442507
 20
194.58456849082052
 11
36.758640665904636
 21
184.36883973828265
  0
LINE
  8
_0-0_
  6
CONTINUOUS
 62
    7
 10
36.319300837684182
 20
183.30817956650264
 11
36.319300837684182
 21
141.86095741513839
  0
LINE
  8
_0-0_
  6
CONTINUOUS
 62
    7
 10
37.819300837684182
 20
140.36095741513839
 11
74.819300837684636
 21
140.36095741513839
  0
LINE
  8
_0-0_
  6
CONTINUOUS
 62
    7
 10
76.319300837684636
 20
141.86095741513839
 11
76.319300837684636
 21
167.36095741513839
  0
LINE
  8
_0-0_
  6
CONTINUOUS
 62
    7
 10
75.879961009464637
 20
167.80029724335839
 11
49.095689762002507
 21
194.58456849082052
  0
LINE
  8
_0-0_
  6
CONTINUOUS
 62
    7
 10
58.964410837684568
 20
160.94607741513812
 11
57.771370837684458
 21
160.94607741513812
  0
LINE
  8
_0-0_
  6
CONTINUOUS
 62
    7
 10
57.771370837684458
 20
159.77577741513835
 11
58.964410837684568
 21
159.77577741513835
  0
LINE
  8
_0-0_
  6
CONTINUOUS
 62
    7
 10
56.904500837684623
 20
158.90890741513851
 11
56.904500837684623
 21
157.71589741513856
  0
LINE
  8
_0-0_
  6
CONTINUOUS
 62
    7
 10
55.734150837684297
 20
157.71589741513856
 11
55.734150837684297
 21
158.90890741513851
  0
LINE
  8
_0-0_
  6
CONTINUOUS
 62
    7
 10
54.867280837684461
 20
159.77577741513835
 11
53.674290837684453
 21
159.77577741513835
  0
LINE
  8
_0-0_
  6
CONTINUOUS
 62
    7
 10
53.674290837684453
 20
160.94607741513812
 11
54.867280837684461
 21
160.94607741513812
  0
LINE
  8
_0-0_
  6
CONTINUOUS
 62
    7
 10
55.734150837684297
 20
161.81294741513841
 11
55.734150837684297
 21
163.00601741513822
  0
LINE
  8
_0-0_
  6
CONTINUOUS
 62
    7
 10
56.904500837684623
 20
163.00601741513822
 11
56.904500837684623
 21
161.81294741513841
  0
LINE
  8
_0-0_
  6
CONTINUOUS
 62
    7
 10
49.319300837684182
 20
146.96095741513875
 11
49.319300837684182
 21
143.76095741513848
  0
LINE
  8
_0-0_
  6
CONTINUOUS
 62
    7
 10
48.919300837684091
 20
143.36095741513839
 11
39.719300837684273
 21
143.36095741513839
  0
LINE
  8
_0-0_
  6
CONTINUOUS
 62
    7
 10
39.319300837684182
 20
143.76095741513848
 11
39.319300837684182
 21
146.96095741513875
  0
LINE
  8
_0-0_
  6
CONTINUOUS
 62
    7
 10
39.719300837684273
 20
147.36095741513839
 11
48.919300837684091
 21
147.36095741513839
  0
LINE
  8
_0-0_
  6
CONTINUOUS
 62
    7
 10
46.251383291339948
 20
145.8907073500892
 11
45.627262515975303
 21
145.8907073500892
  0
LINE
  8
_0-0_
  6
CONTINUOUS
 62
    7
 10
45.630299400467152
 20
145.00791460604125
 11
46.26748668702146
 21
145.00791460604125
  0
LINE
  8
_0-0_
  6
CONTINUOUS
 62
    7
 10
43.957578834844185
 20
145.20750040350924
 11
42.956234424871013
 21
145.20750040350924
  0
LINE
  8
_0-0_
  6
CONTINUOUS
 62
    7
 10
42.956234424871013
 20
145.20750040350924
 11
42.956234424871013
 21
144.60924043092893
  0
LINE
  8
_0-0_
  6
CONTINUOUS
 62
    7
 10
42.956234424871013
 20
144.60924043092893
 11
44.063132072196709
 21
144.60924043092893
  0
LINE
  8
_0-0_
  6
CONTINUOUS
 62
    7
 10
44.063132072196709
 20
144.60924043092893
 11
44.063132072196709
 21
144.17249090679309
  0
LINE
  8
_0-0_
  6
CONTINUOUS
 62
    7
 10
44.063132072196709
 20
144.17249090679309
 11
42.347474322342691
 21
144.17249090679309
  0
LINE
  8
_0-0_
  6
CONTINUOUS
 62
    7
 10
42.347474322342691
 20
144.17249090679309
 11
42.347474322342691
 21
146.62236439791343
  0
LINE
  8
_0-0_
  6
CONTINUOUS
 62
    7
 10
42.347474322342691
 20
146.62236439791343
 11
44.063132072196709
 21
146.62236439791343
  0
LINE
  8
_0-0_
  6
CONTINUOUS
 62
    7
 10
44.063132072196709
 20
146.62236439791343
 11
44.063132072196709
 21
146.18561487381123
  0
LINE
  8
_0-0_
  6
CONTINUOUS
 62
    7
 10
44.063132072196709
 20
146.18561487381123
 11
42.956234424871013
 21
146.18561487381123
  0
LINE
  8
_0-0_
  6
CONTINUOUS
 62
    7
 10
42.956234424871013
 20
146.18561487381123
 11
42.956234424871013
 21
145.61748169708483
  0
LINE
  8
_0-0_
  6
CONTINUOUS
 62
    7
 10
42.956234424871013
 20
145.61748169708483
 11
43.957578834844185
 21
145.61748169708483
  0
LINE
  8
_0-0_
  6
CONTINUOUS
 62
    7
 10
43.957578834844185
 20
145.61748169708483
 11
43.957578834844185
 21
145.20750040350924
  0
LINE
  8
_0-0_
  6
CONTINUOUS
 62
    7
 10
41.87611875492928
 20
144.60924043092893
 11
41.87611875492928
 21
144.17249090679309
  0
LINE
  8
_0-0_
  6
CONTINUOUS
 62
    7
 10
41.87611875492928
 20
144.17249090679309
 11
40.160907423352342
 21
144.17249090679309
  0
LINE
  8
_0-0_
  6
CONTINUOUS
 62
    7
 10
40.160907423352342
 20
144.17249090679309
 11
40.160907423352342
 21
146.62236439791343
  0
LINE
  8
_0-0_
  6
CONTINUOUS
 62
    7
 10
40.160907423352342
 20
146.62236439791343
 11
40.771834057432329
 21
146.62236439791343
  0
LINE
  8
_0-0_
  6
CONTINUOUS
 62
    7
 10
40.771834057432329
 20
146.62236439791343
 11
40.771834057432329
 21
144.60924043092893
  0
LINE
  8
_0-0_
  6
CONTINUOUS
 62
    7
 10
40.771834057432329
 20
144.60924043092893
 11
41.87611875492928
 21
144.60924043092893
  0
LINE
  8
_0-0_
  6
CONTINUOUS
 62
    7
 10
37.819300837684636
 20
129.25876741513787
 11
74.819300837684636
 21
129.25876741513787
  0
LINE
  8
_0-0_
  6
CONTINUOUS
 62
    7
 10
76.319300837684182
 20
127.75876741513787
 11
76.319300837684182
 21
126.25876741513787
  0
LINE
  8
_0-0_
  6
CONTINUOUS
 62
    7
 10
76.319300837684182
 20
126.25876741513787
 11
36.319300837684182
 21
126.25876741513787
  0
LINE
  8
_0-0_
  6
CONTINUOUS
 62
    7
 10
36.319300837684182
 20
126.25876741513787
 11
36.319300837684182
 21
127.75876741513787
  0
LINE
  8
_0-0_
  6
CONTINUOUS
 62
    7
 10
52.319310837684839
 20
126.25876741513787
 11
52.319310837684839
 21
123.25876741513787
  0
LINE
  8
_0-0_
  6
CONTINUOUS
 62
    7
 10
52.319310837684839
 20
123.25876741513787
 11
52.636490837684391
 21
117.20642741513814
  0
LINE
  8
_0-0_
  6
CONTINUOUS
 62
    7
 10
53.635120837684894
 20
116.25876741513787
 11
54.77797083768462
 21
116.25876741513787
  0
LINE
  8
_0-0_
  6
CONTINUOUS
 62
    7
 10
55.277280837684771
 20
116.73259741513777
 11
55.584540837684358
 21
122.59539741513811
  0
LINE
  8
_0-0_
  6
CONTINUOUS
 62
    7
 10
57.054070837684662
 20
122.59539741513811
 11
57.361330837684704
 21
116.73259741513777
  0
LINE
  8
_0-0_
  6
CONTINUOUS
 62
    7
 10
57.860640837684855
 20
116.25876741513787
 11
59.003490837684581
 21
116.25876741513787
  0
LINE
  8
_0-0_
  6
CONTINUOUS
 62
    7
 10
60.002120837684629
 20
117.20642741513814
 11
60.319310837684384
 21
123.25876741513787
  0
LINE
  8
_0-0_
  6
CONTINUOUS
 62
    7
 10
60.319310837684384
 20
123.25876741513787
 11
60.319310837684384
 21
126.25876741513787
  0
LINE
  8
_0-0_
  6
CONTINUOUS
 62
    7
 10
60.319310837684384
 20
123.25876741513787
 11
52.319310837684839
 21
123.25876741513787
  0
ARC
  8
_0-0_
  6
CONTINUOUS
 62
    7
 10
74.819300837684636
 20
141.86095741513839
 40
1.4999999999999998
 50
270
 51
0
  0
ARC
  8
_0-0_
  6
CONTINUOUS
 62
    7
 10
37.819300837684182
 20
141.86095741513839
 40
1.4999999999999998
 50
180
 51
270
  0
ARC
  8
_0-0_
  6
CONTINUOUS
 62
    7
 10
74.819300837684636
 20
166.73963707157884
 40
1.4999999999999998
 50
0.0000000000000127
 51
44.999999999999979
  0
ARC
  8
_0-0_
  6
CONTINUOUS
 62
    7
 10
48.035029590222507
 20
193.52390831904052
 40
1.4999999999999998
 50
45.000000000000014
 51
134.99999999999994
  0
ARC
  8
_0-0_
  6
CONTINUOUS
 62
    7
 10
37.819300837684182
 20
183.30817956650264
 40
1.4999999999999998
 50
134.99999999999994
 51
180
  0
CIRCLE
  8
_0-0_
  6
CONTINUOUS
 62
    7
 10
56.319300837684636
 20
160.36095741513839
 40
4.1989502999999999
  0
ARC
  8
_0-0_
  6
CONTINUOUS
 62
    7
 10
57.771370837684458
 20
161.81294741513841
 40
0.8668801000000001
 50
180
 51
270
  0
ARC
  8
_0-0_
  6
CONTINUOUS
 62
    7
 10
54.867280837684461
 20
161.81294741513841
 40
0.8668801000000001
 50
270
 51
0
  0
ARC
  8
_0-0_
  6
CONTINUOUS
 62
    7
 10
54.867280837684461
 20
158.90890741513851
 40
0.8668801000000001
 50
0
 51
90
  0
ARC
  8
_0-0_
  6
CONTINUOUS
 62
    7
 10
57.771370837684458
 20
158.90890741513851
 40
0.8668801000000001
 50
90
 51
180
  0
ARC
  8
_0-0_
  6
CONTINUOUS
 62
    7
 10
56.319300837684636
 20
160.36095741513839
 40
2.7090001000000004
 50
167.52572699999996
 51
192.47428000000002
  0
ARC
  8
_0-0_
  6
CONTINUOUS
 62
    7
 10
56.319300837684636
 20
160.36095741513839
 40
2.7090001000000004
 50
77.525819999999982
 51
102.47418299999998
  0
ARC
  8
_0-0_
  6
CONTINUOUS
 62
    7
 10
56.319300837684636
 20
160.36095741513839
 40
2.7090001000000004
 50
347.52573000000001
 51
12.474280000000038
  0
ARC
  8
_0-0_
  6
CONTINUOUS
 62
    7
 10
56.319300837684636
 20
160.36095741513839
 40
2.7090001000000004
 50
257.52582000000001
 51
282.47419000000002
  0
ARC
  8
_0-0_
  6
CONTINUOUS
 62
    7
 10
53.635120837684894
 20
117.25876741513787
 40
1
 50
183.00000000000003
 51
270
  0
ARC
  8
_0-0_
  6
CONTINUOUS
 62
    7
 10
59.003490837684581
 20
117.25876741513787
 40
1
 50
270
 51
357
  0
ARC
  8
_0-0_
  6
CONTINUOUS
 62
    7
 10
56.355030837684694
 20
122.55876741513805
 40
0.6999999999999998
 50
3.0000000000000044
 51
90
  0
ARC
  8
_0-0_
  6
CONTINUOUS
 62
    7
 10
56.283580837684326
 20
122.55876741513805
 40
0.6999999999999998
 50
89.999999999999986
 51
176.99999999999997
  0
ARC
  8
_0-0_
  6
CONTINUOUS
 62
    7
 10
57.860640837684855
 20
116.75876741513787
 40
0.5
 50
183.00000000000003
 51
270
  0
ARC
  8
_0-0_
  6
CONTINUOUS
 62
    7
 10
54.77797083768462
 20
116.75876741513787
 40
0.5
 50
270
 51
357
  0
ARC
  8
_0-0_
  6
CONTINUOUS
 62
    7
 10
74.819300837684636
 20
127.75876741513787
 40
1.5000000000000002
 50
0
 51
90
  0
ARC
  8
_0-0_
  6
CONTINUOUS
 62
    7
 10
37.819300837684636
 20
127.75876741513787
 40
1.5000000000000002
 50
90
 51
180
  0
ARC
  8
_0-0_
  6
CONTINUOUS
 62
    7
 10
39.719300837684273
 20
146.96095741513875
 40
0.4
 50
89.999999999999929
 51
179.99999999999994
  0
ARC
  8
_0-0_
  6
CONTINUOUS
 62
    7
 10
39.719300837684273
 20
143.76095741513848
 40
0.4
 50
179.99999999999994
 51
269.99999999999994
  0
ARC
  8
_0-0_
  6
CONTINUOUS
 62
    7
 10
48.919300837684091
 20
146.96095741513875
 40
0.4
 50
0
 51
89.999999999999972
  0
ARC
  8
_0-0_
  6
CONTINUOUS
 62
    7
 10
48.919300837684091
 20
143.76095741513848
 40
0.4
 50
270
 51
0
  0
ARC
  8
_0-0_
  6
CONTINUOUS
 62
    7
 10
47.389524232244071
 20
145.3974276523528
 40
2.8787836133968558
 50
164.21600247589291
 51
195.78399752410704
  0
ARC
  8
_0-0_
  6
CONTINUOUS
 62
    7
 10
52.47412894980414
 20
145.39742765234826
 40
7.3112867397731955
 50
176.78919008197263
 51
183.21080991802731
  0
ARC
  8
_0-0_
  6
CONTINUOUS
 62
    7
 10
45.268032808786188
 20
144.83924324572183
 40
0.6866147596063365
 50
199.1181203140938
 51
253.7708963222511
  0
ARC
  8
_0-0_
  6
CONTINUOUS
 62
    7
 10
45.402350254236694
 20
145.46264022243633
 40
1.3234835615556071
 50
255.7307072235771
 51
284.2692927764229
  0
ARC
  8
_0-0_
  6
CONTINUOUS
 62
    7
 10
45.536667699686745
 20
144.83924324572183
 40
0.6866147596063365
 50
286.22910367774898
 51
340.88187968590626
  0
ARC
  8
_0-0_
  6
CONTINUOUS
 62
    7
 10
43.415176276229317
 20
145.3974276523528
 40
2.8787836133968563
 50
344.21600247589294
 51
352.22375855280194
  0
ARC
  8
_0-0_
  6
CONTINUOUS
 62
    7
 10
45.402350254236694
 20
144.75824627906843
 40
0.1990355837046196
 50
198.78093483258854
 51
341.21906516741137
  0
ARC
  8
_0-0_
  6
CONTINUOUS
 62
    7
 10
44.518899942310668
 20
144.98851358941704
 40
1.1115687810639556
 50
344.64474174215434
 51
1.000075600874925
  0
ARC
  8
_0-0_
  6
CONTINUOUS
 62
    7
 10
46.285800566162266
 20
144.98851358941704
 40
1.1115687810639558
 50
179.28077569259483
 51
195.35525825784563
  0
ARC
  8
_0-0_
  6
CONTINUOUS
 62
    7
 10
45.402350254236694
 20
146.03660902563718
 40
0.1990355837046196
 50
18.780934832588567
 51
161.21906516741137
  0
ARC
  8
_0-0_
  6
CONTINUOUS
 62
    7
 10
46.285800566162266
 20
145.80634171528948
 40
1.1115687810639558
 50
164.64474174215434
 51
180.71922430740514
  0
ARC
  8
_0-0_
  6
CONTINUOUS
 62
    7
 10
44.518899942310668
 20
145.80634171528948
 40
1.1115687810639556
 50
4.3528100028008483
 51
15.355258257845611
  0
ARC
  8
_0-0_
  6
CONTINUOUS
 62
    7
 10
45.536667699686745
 20
145.95561205898468
 40
0.6866147596063365
 50
19.118120314093773
 51
73.770896322251076
  0
ARC
  8
_0-0_
  6
CONTINUOUS
 62
    7
 10
43.415176276229317
 20
145.3974276523528
 40
2.8787836133968563
 50
9.866322719820829
 51
15.783997524107004
  0
ARC
  8
_0-0_
  6
CONTINUOUS
 62
    7
 10
45.402350254236694
 20
145.33221508227018
 40
1.3234835615556071
 50
75.730707223577085
 51
104.26929277642289
  0
ARC
  8
_0-0_
  6
CONTINUOUS
 62
    7
 10
45.268032808786188
 20
145.95561205898468
 40
0.6866147596063365
 50
106.22910367774885
 51
160.88187968590611
  0
ARC
  8
_0-0_
  6
CONTINUOUS
 62
    7
 10
49.536674992279472
 20
145.3974276523528
 40
2.8787836133968558
 50
164.21600247589291
 51
195.78399752410704
  0
ARC
  8
_0-0_
  6
CONTINUOUS
 62
    7
 10
54.621279709839541
 20
145.39742765234826
 40
7.3112867397731955
 50
176.78919008197263
 51
183.21080991802731
  0
ARC
  8
_0-0_
  6
CONTINUOUS
 62
    7
 10
40.47772231870465
 20
145.39742765234826
 40
7.3112867397731964
 50
356.78919008197266
 51
3.2108099180273384
  0
ARC
  8
_0-0_
  6
CONTINUOUS
 62
    7
 10
47.549501014272096
 20
144.75824627906843
 40
0.1990355837046196
 50
198.78093483258854
 51
341.21906516741137
  0
ARC
  8
_0-0_
  6
CONTINUOUS
 62
    7
 10
47.549501014272096
 20
145.46264022243633
 40
1.3234835615556071
 50
255.7307072235771
 51
284.2692927764229
  0
ARC
  8
_0-0_
  6
CONTINUOUS
 62
    7
 10
47.683818459722147
 20
144.83924324572183
 40
0.6866147596063365
 50
286.22910367774898
 51
340.88187968590626
  0
ARC
  8
_0-0_
  6
CONTINUOUS
 62
    7
 10
47.41518356882159
 20
144.83924324572183
 40
0.6866147596063365
 50
199.1181203140938
 51
253.7708963222511
  0
ARC
  8
_0-0_
  6
CONTINUOUS
 62
    7
 10
45.562327036264719
 20
145.3974276523528
 40
2.8787836133968563
 50
344.21600247589294
 51
15.783997524107017
  0
ARC
  8
_0-0_
  6
CONTINUOUS
 62
    7
 10
46.66605070234607
 20
144.98851358941704
 40
1.1115687810639556
 50
344.64474174215434
 51
0.7192243074051015
  0
ARC
  8
_0-0_
  6
CONTINUOUS
 62
    7
 10
48.432951326197667
 20
144.98851358941704
 40
1.1115687810639558
 50
179.28077569259483
 51
195.35525825784563
  0
ARC
  8
_0-0_
  6
CONTINUOUS
 62
    7
 10
48.432951326197667
 20
145.80634171528948
 40
1.1115687810639558
 50
164.64474174215434
 51
180.71922430740514
  0
ARC
  8
_0-0_
  6
CONTINUOUS
 62
    7
 10
47.549501014272096
 20
146.03660902563718
 40
0.1990355837046196
 50
18.780934832588567
 51
161.21906516741137
  0
ARC
  8
_0-0_
  6
CONTINUOUS
 62
    7
 10
46.66605070234607
 20
145.80634171528948
 40
1.1115687810639556
 50
359.28077569259483
 51
15.355258257845652
  0
ARC
  8
_0-0_
  6
CONTINUOUS
 62
    7
 10
47.549501014272096
 20
145.33221508227018
 40
1.3234835615556071
 50
75.730707223577085
 51
104.26929277642289
  0
ARC
  8
_0-0_
  6
CONTINUOUS
 62
    7
 10
47.41518356882159
 20
145.95561205898468
 40
0.6866147596063365
 50
106.22910367774885
 51
160.88187968590611
  0
ARC
  8
_0-0_
  6
CONTINUOUS
 62
    7
 10
47.683818459722147
 20
145.95561205898468
 40
0.6866147596063365
 50
19.118120314093773
 51
73.770896322251076
  0
LINE
  8
_0-0_
  6
CONTINUOUS
 62
    7
 10
107.15245861640392
 20
41.938354490950815
 11
107.15245861640392
 21
56.938354490950815
  0
LINE
  8
_0-0_
  6
CONTINUOUS
 62
    7
 10
110.15245861640392
 20
29.438354490951042
 11
111.65245861640392
 21
29.438354490951042
  0
LINE
  8
_0-0_
  6
CONTINUOUS
 62
    7
 10
107.15245861640392
 20
45.438354490950815
 11
101.57395468203958
 21
45.730711493872604
  0
LINE
  8
_0-0_
  6
CONTINUOUS
 62
    7
 10
100.15245861640392
 20
47.228655796004432
 11
100.15245861640392
 21
51.648053185897197
  0
LINE
  8
_0-0_
  6
CONTINUOUS
 62
    7
 10
101.57395468203958
 20
53.145997488029025
 11
107.15245861640415
 21
53.438354490950815
  0
ARC
  8
_0-0_
  6
CONTINUOUS
 62
    7
 10
107.65245861640392
 20
41.938354490950815
 40
0.5
 50
180
 51
270
  0
ARC
  8
_0-0_
  6
CONTINUOUS
 62
    7
 10
107.65245861640392
 20
56.938354490950815
 40
0.5
 50
90
 51
180
  0
ARC
  8
_0-0_
  6
CONTINUOUS
 62
    7
 10
111.65245861640392
 20
30.938354490951042
 40
1.4999999999999993
 50
270
 51
0
  0
ARC
  8
_0-0_
  6
CONTINUOUS
 62
    7
 10
101.65245861640392
 20
47.228655796004432
 40
1.5
 50
180
 51
267.00000000000068
  0
ARC
  8
_0-0_
  6
CONTINUOUS
 62
    7
 10
101.65245861640392
 20
51.648053185897197
 40
1.5
 50
93.00000000000027
 51
180
  0
LINE
  8
_0-0_
  6
CONTINUOUS
 62
    7
 10
107.65245861640392
 20
57.438354490950815
 11
110.15245861640392
 21
57.438354490950815
  0
LINE
  8
_0-0_
  6
CONTINUOUS
 62
    7
 10
107.65245861640392
 20
41.438354490950815
 11
110.15245861640392
 21
41.438354490950815
  0
LINE
  8
_0-0_
  6
CONTINUOUS
 62
    7
 10
13.486143058965467
 20
152.86093741513821
 11
13.486143058965467
 21
167.86093741513821
  0
LINE
  8
_0-0_
  6
CONTINUOUS
 62
    7
 10
10.486143058965467
 20
140.36093741513844
 11
8.9861430589654674
 21
140.36093741513844
  0
LINE
  8
_0-0_
  6
CONTINUOUS
 62
    7
 10
13.486143058965467
 20
156.36093741513821
 11
19.064646993329802
 21
156.65329441806
  0
LINE
  8
_0-0_
  6
CONTINUOUS
 62
    7
 10
20.486143058965467
 20
158.15123872019183
 11
20.486143058965467
 21
162.57063611008459
  0
LINE
  8
_0-0_
  6
CONTINUOUS
 62
    7
 10
19.064646993329802
 20
164.06858041221642
 11
13.48614305896524
 21
164.36093741513821
  0
ARC
  8
_0-0_
  6
CONTINUOUS
 62
    7
 10
12.986143058965467
 20
152.86093741513821
 40
0.5
 50
270
 51
0
  0
ARC
  8
_0-0_
  6
CONTINUOUS
 62
    7
 10
12.986143058965467
 20
167.86093741513821
 40
0.5
 50
0.0000000000000031
 51
90
  0
ARC
  8
_0-0_
  6
CONTINUOUS
 62
    7
 10
8.9861430589654674
 20
141.86093741513844
 40
1.4999999999999993
 50
180
 51
270
  0
ARC
  8
_0-0_
  6
CONTINUOUS
 62
    7
 10
18.986143058965467
 20
158.15123872019183
 40
1.5
 50
272.99999999999932
 51
0
  0
ARC
  8
_0-0_
  6
CONTINUOUS
 62
    7
 10
18.986143058965467
 20
162.57063611008459
 40
1.5
 50
0.0000000000000254
 51
86.999999999999744
  0
LINE
  8
_0-0_
  6
CONTINUOUS
 62
    7
 10
12.986143058965467
 20
168.36093741513821
 11
10.486143058965467
 21
168.36093741513821
  0
LINE
  8
_0-0_
  6
CONTINUOUS
 62
    7
 10
12.986143058965467
 20
152.36093741513821
 11
10.486143058965467
 21
152.36093741513821
  0
LINE
  8
_0-0_
  6
CONTINUOUS
 62
    7
 10
10.486143058965467
 20
140.36093741513844
 11
10.486143058965467
 21
195.02390831904052
  0
LINE
  8
_0-0_
  6
CONTINUOUS
 62
    7
 10
10.486143058965467
 20
195.02390831904052
 11
8.9861430589654674
 21
195.02390831904052
  0
LINE
  8
_0-0_
  6
CONTINUOUS
 62
    7
 10
7.4861430589654674
 20
193.52390831904052
 11
7.4861430589654674
 21
141.86093741513844
  0
ARC
  8
_0-0_
  6
CONTINUOUS
 62
    7
 10
8.9861430589654674
 20
193.52390831904052
 40
1.4999999999999993
 50
90.000000000000028
 51
180
  0
LINE
  8
_0-0_
  6
CONTINUOUS
 62
    7
 10
110.15245861640392
 20
29.438354490951042
 11
110.15245861640392
 21
84.101325394853575
  0
LINE
  8
_0-0_
  6
CONTINUOUS
 62
    7
 10
110.15245861640392
 20
84.101325394853575
 11
111.65245861640392
 21
84.101325394853575
  0
LINE
  8
_0-0_
  6
CONTINUOUS
 62
    7
 10
113.15245861640392
 20
82.601325394853575
 11
113.15245861640392
 21
30.938354490951042
  0
ARC
  8
_0-0_
  6
CONTINUOUS
 62
    7
 10
111.65245861640392
 20
82.601325394853575
 40
1.4999999999999993
 50
0
 51
90
  0
LINE
  8
_0-1_
  6
CENTER1
 62
  152
 10
56.319300837684636
 20
53.438374490950991
 11
56.319300837684636
 21
45.438374490950991
  0
LINE
  8
_0-1_
  6
CENTER1
 62
  152
 10
60.319300837684636
 20
49.438374490950991
 11
52.319300837684409
 21
49.438374490950991
  0
LINE
  8
_0-1_
  6
DASHED3
 62
  152
 10
76.319300837684636
 20
15.836184490950473
 11
76.319300837684636
 21
15.336184490950473
  0
LINE
  8
_0-1_
  6
CENTER1
 62
  152
 10
56.319290837684434
 20
18.336184490950473
 11
56.319290837684434
 21
5.3361844909504725
  0
LINE
  8
_0-1_
  6
CENTER1
 62
  152
 10
52.319300837684636
 20
160.36095741513839
 11
60.319300837684636
 21
160.36095741513839
  0
LINE
  8
_0-1_
  6
CENTER1
 62
  152
 10
56.319300837684636
 20
164.36095741513839
 11
56.319300837684636
 21
156.36095741513839
  0
LINE
  8
_0-1_
  6
DASHED3
 62
  152
 10
36.319300837684182
 20
126.75876741513787
 11
36.319300837684182
 21
126.25876741513787
  0
LINE
  8
_0-1_
  6
CENTER1
 62
  152
 10
56.319310837684839
 20
129.25876741513787
 11
56.319310837684839
 21
116.25876741513787
  0
TEXT
  8
_0-1_
 62
    7
 10
31.361550223147901
 20
80.860951802162901
 40
4.2999999999999998
 41
0.744186046511628
 50
0
  1
E40A-R
  0
TEXT
  8
_0-1_
 62
    7
 10
70.239916274724237
 20
190.29635253993305
 40
4.2999999999999998
 41
0.744186046511628
 50
0
  1
E40A-L
  0
ENDSEC
  0
EOF
