  0
SECTION
  2
HEADER
  9
$ACADVER
  1
AC1009
  9
$INSBASE
 10
0
 20
0
 30
0
  9
$EXTMIN
 10
0
 20
0
  9
$EXTMAX
 10
1189
 20
841
  9
$LIMMIN
 10
0
 20
0
  9
$LIMMAX
 10
1189
 20
841
  9
$LTSCALE
 40
1
  0
ENDSEC
  0
SECTION
  2
TABLES
  0
TABLE
  2
LTYPE
 70
     9
  0
LTYPE
  2
CONTINUOUS
 70
    64
  3
実線
 72
    65
 73
     0
 40
0.0
  0
LTYPE
  2
DASHED1
 70
    64
  3
--  --  --  --  --  --  --  --  
 72
    65
 73
     2
 40
2.5
 49
1.25
 49
-1.25
  0
LTYPE
  2
DASHED2
 70
    64
  3
----    ----    ----    ----    
 72
    65
 73
     2
 40
5.0
 49
2.5
 49
-2.5
  0
LTYPE
  2
DASHED3
 70
    64
  3
------  ------  ------  ------  
 72
    65
 73
     2
 40
5.0
 49
3.75
 49
-1.25
  0
LTYPE
  2
CENTER1
 70
    64
  3
----- - ----- - ----- - ----- - 
 72
    65
 73
     4
 40
10.0
 49
6.25
 49
-1.25
 49
1.25
 49
-1.25
  0
LTYPE
  2
CENTER2
 70
    64
  3
----------  --  ----------  --  
 72
    65
 73
     4
 40
20.0
 49
12.5
 49
-2.5
 49
2.5
 49
-2.5
  0
LTYPE
  2
PHANTOM1
 70
    64
  3
--- - - --- - - --- - - --- - - 
 72
    65
 73
     6
 40
10.0
 49
3.25
 49
-1.25
 49
1.25
 49
-1.25
 49
1.25
 49
-1.25
  0
LTYPE
  2
PHANTOM2
 70
    64
  3
--------  -  -  --------  -  -  
 72
    65
 73
     6
 40
20.0
 49
10.0
 49
-2.5
 49
1.25
 49
-2.5
 49
1.25
 49
-2.5
  0
LTYPE
  2
DOT
 70
    64
  3
-   -   -   -   -   -   -   -   
 72
    65
 73
     2
 40
2.5
 49
0.625
 49
-1.875
  0
LTYPE
  2
DUMMY
 70
    64
  3
ダミー
 72
    65
 73
     0
 40
0.0
  0
LTYPE
  2
RAND1
 70
    64
  3
ランダム線1
 72
    65
 73
     4
 40
10.0
 49
1.0
 49
-2.0
 49
3.0
 49
-4.0
  0
LTYPE
  2
RAND2
 70
    64
  3
ランダム線2
 72
    65
 73
     4
 40
14.0
 49
2.0
 49
-3.0
 49
4.0
 49
-5.0
  0
LTYPE
  2
RAND3
 70
    64
  3
ランダム線3
 72
    65
 73
     4
 40
18.0
 49
3.0
 49
-4.0
 49
5.0
 49
-6.0
  0
LTYPE
  2
RAND4
 70
    64
  3
ランダム線4
 72
    65
 73
     4
 40
22.0
 49
4.0
 49
-5.0
 49
6.0
 49
-7.0
  0
LTYPE
  2
RAND5
 70
    64
  3
ランダム線5
 72
    65
 73
     4
 40
26.0
 49
5.0
 49
-6.0
 49
7.0
 49
-8.0
  0
LTYPE
  2
LONG1
 70
    64
  3
----------  --  ----------  --  
 72
    65
 73
     4
 40
40.0
 49
32.5
 49
-2.5
 49
2.5
 49
-2.5
  0
LTYPE
  2
LONG2
 70
    64
  3
--------  -  -  --------  -  -  
 72
    65
 73
     6
 40
40.0
 49
30.0
 49
-2.5
 49
1.25
 49
-2.5
 49
1.25
 49
-2.5
  0
LTYPE
  2
LONG3
 70
    64
  3
+++++++++++++++..+++++++++++++++
 72
    65
 73
     2
 40
40.0
 49
37.5
 49
-2.5
  0
LTYPE
  2
LONG4
 70
    64
  3
+++++++++++++++..+++++++++++++++
 72
    65
 73
     2
 40
80.0
 49
75.0
 49
-5.0
  0
LTYPE
  2
LONG5
 70
    64
  3
----------  --  ----------  --  
 72
    65
 73
     4
 40
60.0
 49
37.5
 49
-7.5
 49
7.5
 49
-7.5
  0
LTYPE
  2
dashed
 70
   64
  3
-------   -------------   ------
 72
   65
 73
    2
 40
7.5
 49
6
 49
-1.5
  0
LTYPE
  2
dashed_spaced
 70
   64
  3
----        --------        ----
 72
   65
 73
    2
 40
12
 49
6
 49
-6
  0
LTYPE
  2
long_dashed_dotted
 70
   64
  3
------------- --- --------------
 72
   65
 73
    4
 40
15.25
 49
12
 49
-1.5
 49
0.25
 49
-1.5
  0
LTYPE
  2
long_dashed_double-dotted
 70
   64
  3
----------- --- --- ------------
 72
   65
 73
    6
 40
17
 49
12
 49
-1.5
 49
0.25
 49
-1.5
 49
0.25
 49
-1.5
  0
LTYPE
  2
long_dashed_triplicate-dotted
 70
   64
  3
--------- --- --- --- ----------
 72
   65
 73
    8
 40
18.75
 49
12
 49
-1.5
 49
0.25
 49
-1.5
 49
0.25
 49
-1.5
 49
0.25
 49
-1.5
  0
LTYPE
  2
dotted
 70
   64
  3
   -       -       -       -    
 72
   65
 73
    2
 40
1.75
 49
0.25
 49
-1.5
  0
LTYPE
  2
chain
 70
   64
  3
-------------- -- --------------
 72
   65
 73
    4
 40
18.5
 49
12
 49
-1.5
 49
3.5
 49
-1.5
  0
LTYPE
  2
chain_double_dash
 70
   64
  3
------------ -- -- -------------
 72
   65
 73
    6
 40
23.5
 49
12
 49
-1.5
 49
3.5
 49
-1.5
 49
3.5
 49
-1.5
  0
LTYPE
  2
dashed_dotted
 70
   64
  3
-----------     -     ----------
 72
   65
 73
    4
 40
9.25
 49
6
 49
-1.5
 49
0.25
 49
-1.5
  0
LTYPE
  2
double-dashed_dotted
 70
   64
  3
------   -----------   -   -----
 72
   65
 73
    6
 40
16.75
 49
6
 49
-1.5
 49
6
 49
-1.5
 49
0.25
 49
-1.5
  0
LTYPE
  2
dashed_double-dotted
 70
   64
  3
---------    -    -    ---------
 72
   65
 73
    6
 40
11
 49
6
 49
-1.5
 49
0.25
 49
-1.5
 49
0.25
 49
-1.5
  0
LTYPE
  2
double-dashed_double-dotted
 70
   64
  3
-----   ---------   -   -   ----
 72
   65
 73
    8
 40
18.5
 49
6
 49
-1.5
 49
6
 49
-1.5
 49
0.25
 49
-1.5
 49
0.25
 49
-1.5
  0
LTYPE
  2
dashed_triplicate-dotted
 70
   64
  3
-------    -    -    -    ------
 72
   65
 73
    8
 40
12.75
 49
6
 49
-1.5
 49
0.25
 49
-1.5
 49
0.25
 49
-1.5
 49
0.25
 49
-1.5
  0
LTYPE
  2
double-dashed_triplicate-dotted
 70
   64
  3
-----  ---------  -  -  -  -----
 72
   65
 73
   10
 40
20.25
 49
6
 49
-1.5
 49
6
 49
-1.5
 49
0.25
 49
-1.5
 49
0.25
 49
-1.5
 49
0.25
 49
-1.5
  0
LTYPE
  2
undefined
 70
   64
  3
--------------------------------
 72
   65
 73
    0
 40
0
  0
ENDTAB
  0
TABLE
  2
STYLE
  5
3
100
AcDbSymbolTable
 70
     1
  0
STYLE
  5
10
100
AcDbSymbolTableRecord
100
AcDbTextStyleTableRecord
  2
STANDARD
 70
     0
 40
0.0
 41
1.0
 50
0.0
 71
     0
 42
0.2
  3
txt
  4
bigfont.shx
  0
STYLE
  5
26
100
AcDbSymbolTableRecord
100
AcDbTextStyleTableRecord
  2
TATEGAKI
 70
    68
 40
0.0
 41
1.0
 50
0.0
 71
     0
 42
1.0
  3
txt
  4
bigfont.shx
  0
ENDTAB
  0
TABLE
  2
LAYER
 70
    3
  0
LAYER
  2
_0-0_
 70
   64
 62
    7
  6
CONTINUOUS
  0
LAYER
  2
_0-1_
 70
   64
 62
    7
  6
CONTINUOUS
  0
LAYER
  2
ADD_LINE
 70
   64
 62
    7
  6
CONTINUOUS
  0
ENDTAB
  0
ENDSEC
  0
SECTION
  2
BLOCKS
  0
ENDSEC
  0
SECTION
  2
ENTITIES
  0
LINE
  8
_0-1_
  6
CENTER1
 62
    7
 10
82.443187075882179
 20
12.185886692394945
 11
82.443187075882179
 21
2.1858866923949449
  0
LINE
  8
_0-1_
  6
CENTER1
 62
    7
 10
130.27305398937165
 20
56.285950939773386
 11
141.48152378570171
 21
56.285950939773386
  0
LINE
  8
_0-1_
  6
CENTER2
 62
    7
 10
86.693167075882229
 20
56.285950939773386
 11
78.193177075881977
 21
56.285950939773386
  0
LINE
  8
_0-1_
  6
CENTER2
 62
    7
 10
82.443187075882179
 20
60.535940939773639
 11
82.443187075882179
 21
52.035950939773386
  0
LINE
  8
_0-1_
  6
CENTER2
 62
    7
 10
15.083333777258986
 20
50.17292307528038
 11
15.083333777258986
 21
58.672913075280633
  0
LINE
  8
_0-1_
  6
CENTER2
 62
    7
 10
10.833363777258683
 20
54.42292307528038
 11
19.33335377725848
 21
54.42292307528038
  0
TEXT
  8
_0-1_
 62
    7
 10
21.101901038286087
 20
72.113283000253261
 40
4.2999999999999998
 41
0.744186046511628
 50
0
  1
E25P-L
  0
TEXT
  8
_0-1_
 62
    7
 10
64.986557401899063
 20
72.113283000253261
 40
4.2999999999999998
 41
0.744186046511628
 50
0
  1
E25P-R
  0
ARC
  8
_0-0_
  6
CONTINUOUS
 62
    7
 10
82.412557075881978
 20
6.5858866923950359
 40
0.5999999999999996
 50
90
 51
176.99999999999997
  0
ARC
  8
_0-0_
  6
CONTINUOUS
 62
    7
 10
82.473807075882178
 20
6.5858866923950359
 40
0.5999999999999996
 50
2.999999999999992
 51
90.000000000000043
  0
ARC
  8
_0-0_
  6
CONTINUOUS
 62
    7
 10
81.29645707588179
 20
2.4858866923946721
 40
0.2999999999999998
 50
270
 51
357
  0
ARC
  8
_0-0_
  6
CONTINUOUS
 62
    7
 10
83.589907075881911
 20
2.4858866923946721
 40
0.2999999999999998
 50
183.00000000000003
 51
270
  0
ARC
  8
_0-0_
  6
CONTINUOUS
 62
    7
 10
80.354187075881782
 20
3.1858866923949449
 40
1
 50
183.00000000000003
 51
270
  0
ARC
  8
_0-0_
  6
CONTINUOUS
 62
    7
 10
84.532177075881918
 20
3.1858866923949449
 40
1
 50
270
 51
357
  0
ARC
  8
_0-0_
  6
CONTINUOUS
 62
    7
 10
70.943187075882179
 20
11.185886692394945
 40
1
 50
90
 51
180
  0
ARC
  8
_0-0_
  6
CONTINUOUS
 62
    7
 10
93.943187075882179
 20
11.185886692394945
 40
1
 50
0
 51
90
  0
LINE
  8
_0-0_
  6
CONTINUOUS
 62
    7
 10
69.943187075882179
 20
11.185886692394945
 11
69.943187075882179
 21
9.1858866923949449
  0
LINE
  8
_0-0_
  6
CONTINUOUS
 62
    7
 10
93.943187075882179
 20
12.185886692394945
 11
70.943187075882179
 21
12.185886692394945
  0
LINE
  8
_0-0_
  6
CONTINUOUS
 62
    7
 10
94.943187075882179
 20
9.1858866923949449
 11
94.943187075882179
 21
11.185886692394945
  0
LINE
  8
_0-0_
  6
CONTINUOUS
 62
    7
 10
69.943187075882179
 20
9.1858866923949449
 11
94.943187075882179
 21
9.1858866923949449
  0
LINE
  8
_0-0_
  6
CONTINUOUS
 62
    7
 10
79.355557075882189
 20
3.1335566923949614
 11
79.143187075881997
 21
7.1858866923949449
  0
LINE
  8
_0-0_
  6
CONTINUOUS
 62
    7
 10
81.29645707588179
 20
2.1858866923949449
 11
80.354187075881782
 21
2.1858866923949449
  0
LINE
  8
_0-0_
  6
CONTINUOUS
 62
    7
 10
81.813387075882019
 20
6.6172966923946319
 11
81.59604707588187
 21
2.4701866923952025
  0
LINE
  8
_0-0_
  6
CONTINUOUS
 62
    7
 10
83.290327075882033
 20
2.4701866923952025
 11
83.072977075882136
 21
6.6172966923946319
  0
LINE
  8
_0-0_
  6
CONTINUOUS
 62
    7
 10
84.532177075881918
 20
2.1858866923949449
 11
83.589907075881911
 21
2.1858866923949449
  0
LINE
  8
_0-0_
  6
CONTINUOUS
 62
    7
 10
85.743187075881906
 20
7.1858866923949449
 11
85.530807075881967
 21
3.1335566923949614
  0
LINE
  8
_0-0_
  6
CONTINUOUS
 62
    7
 10
85.743187075881906
 20
7.1858866923949449
 11
85.743187075881906
 21
9.1858866923949449
  0
LINE
  8
_0-0_
  6
CONTINUOUS
 62
    7
 10
79.143187075881997
 20
7.1858866923949449
 11
85.743187075881906
 21
7.1858866923949449
  0
LINE
  8
_0-0_
  6
CONTINUOUS
 62
    7
 10
79.143187075881997
 20
9.1858866923949449
 11
79.143187075881997
 21
7.1858866923949449
  0
LINE
  8
_0-0_
  6
CONTINUOUS
 62
    7
 10
133.97120962342046
 20
61.185950939773477
 11
135.67120962342074
 21
61.185950939773477
  0
LINE
  8
_0-0_
  6
CONTINUOUS
 62
    7
 10
135.97120962342046
 20
60.88595093977375
 11
135.97120962342046
 21
51.685950939773704
  0
LINE
  8
_0-0_
  6
CONTINUOUS
 62
    7
 10
135.67120962342074
 20
51.385950939773522
 11
133.97120962342046
 21
51.385950939773522
  0
LINE
  8
_0-0_
  6
CONTINUOUS
 62
    7
 10
135.97120962342046
 20
52.785950939773613
 11
139.54971355778503
 21
52.973492384129315
  0
LINE
  8
_0-0_
  6
CONTINUOUS
 62
    7
 10
140.97120962342046
 20
54.47143668626137
 11
140.97120962342046
 21
58.100465193286311
  0
LINE
  8
_0-0_
  6
CONTINUOUS
 62
    7
 10
139.54971355778503
 20
59.598409495417911
 11
135.97120962342046
 21
59.785950939773613
  0
ARC
  8
_0-0_
  6
CONTINUOUS
 62
    7
 10
139.47120962342046
 20
54.47143668626137
 40
1.5
 50
273.00000000000017
 51
0
  0
ARC
  8
_0-0_
  6
CONTINUOUS
 62
    7
 10
139.47120962342046
 20
58.100465193286311
 40
1.5
 50
0.0000000000000063
 51
86.999999999999829
  0
ARC
  8
_0-0_
  6
CONTINUOUS
 62
    7
 10
135.67120962342074
 20
51.685950939773704
 40
0.2999999999999998
 50
270
 51
0
  0
ARC
  8
_0-0_
  6
CONTINUOUS
 62
    7
 10
135.67120962342074
 20
60.88595093977375
 40
0.2999999999999998
 50
0.0000000000000063
 51
90
  0
LINE
  8
_0-0_
  6
CONTINUOUS
 62
    7
 10
85.243207075881855
 20
50.285940939773639
 11
92.643207075881946
 21
50.285940939773639
  0
LINE
  8
_0-0_
  6
CONTINUOUS
 62
    7
 10
92.943207075882128
 20
49.985940939773457
 11
92.943207075882128
 21
47.585940939773366
  0
LINE
  8
_0-0_
  6
CONTINUOUS
 62
    7
 10
92.643207075881946
 20
47.285940939773639
 11
85.243207075881855
 21
47.285940939773639
  0
LINE
  8
_0-0_
  6
CONTINUOUS
 62
    7
 10
84.943207075882128
 20
47.585940939773366
 11
84.943207075882128
 21
49.985940939773457
  0
LINE
  8
_0-0_
  6
CONTINUOUS
 62
    7
 10
85.477877075882134
 20
49.837110939773368
 11
85.477877075882134
 21
47.79555093977325
  0
LINE
  8
_0-0_
  6
CONTINUOUS
 62
    7
 10
85.477877075882134
 20
47.79555093977325
 11
86.907217075881817
 21
47.79555093977325
  0
LINE
  8
_0-0_
  6
CONTINUOUS
 62
    7
 10
86.907217075881817
 20
47.79555093977325
 11
86.907217075881817
 21
48.159500939773636
  0
LINE
  8
_0-0_
  6
CONTINUOUS
 62
    7
 10
86.907217075881817
 20
48.159500939773636
 11
85.986987075882098
 21
48.159500939773636
  0
LINE
  8
_0-0_
  6
CONTINUOUS
 62
    7
 10
85.986987075882098
 20
48.159500939773636
 11
85.986987075882098
 21
49.837110939773368
  0
LINE
  8
_0-0_
  6
CONTINUOUS
 62
    7
 10
85.986987075882098
 20
49.837110939773368
 11
85.477877075882134
 21
49.837110939773368
  0
LINE
  8
_0-0_
  6
CONTINUOUS
 62
    7
 10
87.300017075882351
 20
49.837110939773368
 11
88.729737075881985
 21
49.837110939773368
  0
LINE
  8
_0-0_
  6
CONTINUOUS
 62
    7
 10
88.729737075881985
 20
49.837110939773368
 11
88.729737075881985
 21
49.473150939773689
  0
LINE
  8
_0-0_
  6
CONTINUOUS
 62
    7
 10
88.729737075881985
 20
49.473150939773689
 11
87.807317075882111
 21
49.473150939773689
  0
LINE
  8
_0-0_
  6
CONTINUOUS
 62
    7
 10
87.807317075882111
 20
49.473150939773689
 11
87.807317075882111
 21
48.999710939773479
  0
LINE
  8
_0-0_
  6
CONTINUOUS
 62
    7
 10
87.807317075882111
 20
48.999710939773479
 11
88.641767075882399
 21
48.999710939773479
  0
LINE
  8
_0-0_
  6
CONTINUOUS
 62
    7
 10
88.641767075882399
 20
48.999710939773479
 11
88.641767075882399
 21
48.658050939773432
  0
LINE
  8
_0-0_
  6
CONTINUOUS
 62
    7
 10
88.641767075882399
 20
48.658050939773432
 11
87.807317075882111
 21
48.658050939773432
  0
LINE
  8
_0-0_
  6
CONTINUOUS
 62
    7
 10
87.807317075882111
 20
48.658050939773432
 11
87.807317075882111
 21
48.159500939773636
  0
LINE
  8
_0-0_
  6
CONTINUOUS
 62
    7
 10
87.807317075882111
 20
48.159500939773636
 11
88.729737075881985
 21
48.159500939773636
  0
LINE
  8
_0-0_
  6
CONTINUOUS
 62
    7
 10
88.729737075881985
 20
48.159500939773636
 11
88.729737075881985
 21
47.79555093977325
  0
LINE
  8
_0-0_
  6
CONTINUOUS
 62
    7
 10
88.729737075881985
 20
47.79555093977325
 11
87.300017075882351
 21
47.79555093977325
  0
LINE
  8
_0-0_
  6
CONTINUOUS
 62
    7
 10
87.300017075882351
 20
47.79555093977325
 11
87.300017075882351
 21
49.837110939773368
  0
LINE
  8
_0-0_
  6
CONTINUOUS
 62
    7
 10
90.033177075882122
 20
49.227390939773443
 11
90.553277075882306
 21
49.227390939773443
  0
LINE
  8
_0-0_
  6
CONTINUOUS
 62
    7
 10
90.566697075882075
 20
48.491730939773618
 11
90.035707075881874
 21
48.491730939773618
  0
ARC
  8
_0-0_
  6
CONTINUOUS
 62
    7
 10
91.501727075882172
 20
48.816330939773536
 40
2.3989862999999998
 50
164.21600000000004
 51
195.78399000000002
  0
ARC
  8
_0-0_
  6
CONTINUOUS
 62
    7
 10
95.738897075882051
 20
48.816330939773536
 40
6.0927388999999996
 50
176.78918999999999
 51
183.21080000000001
  0
ARC
  8
_0-0_
  6
CONTINUOUS
 62
    7
 10
89.733817075882143
 20
48.35117093977334
 40
0.5721789
 50
199.11812000000006
 51
253.77089000000001
  0
ARC
  8
_0-0_
  6
CONTINUOUS
 62
    7
 10
89.845747075882173
 20
48.870670939773674
 40
1.1029028999999999
 50
255.73070000000004
 51
284.26929000000007
  0
ARC
  8
_0-0_
  6
CONTINUOUS
 62
    7
 10
89.957677075882202
 20
48.35117093977334
 40
0.5721789
 50
286.22910000000002
 51
340.88186999999999
  0
ARC
  8
_0-0_
  6
CONTINUOUS
 62
    7
 10
88.189767075882173
 20
48.816330939773536
 40
2.3989862999999998
 50
344.21599999999995
 51
352.22374999999994
  0
ARC
  8
_0-0_
  6
CONTINUOUS
 62
    7
 10
89.845747075882173
 20
48.283680939773433
 40
0.1658629
 50
198.78093000000001
 51
341.21906000000001
  0
ARC
  8
_0-0_
  6
CONTINUOUS
 62
    7
 10
89.109537075882145
 20
48.47557093977349
 40
0.9263072999999999
 50
344.64474000000007
 51
1.0000756000000433
  0
ARC
  8
_0-0_
  6
CONTINUOUS
 62
    7
 10
90.581957075882201
 20
48.47557093977349
 40
0.9263072999999999
 50
179.28076999999999
 51
195.35525000000001
  0
ARC
  8
_0-0_
  6
CONTINUOUS
 62
    7
 10
89.845747075882173
 20
49.348980939773639
 40
0.1658629
 50
18.780933999999998
 51
161.21906000000001
  0
ARC
  8
_0-0_
  6
CONTINUOUS
 62
    7
 10
90.581957075882201
 20
49.157090939773582
 40
0.9263072999999999
 50
164.64474000000004
 51
180.71922000000004
  0
ARC
  8
_0-0_
  6
CONTINUOUS
 62
    7
 10
89.109537075882145
 20
49.157090939773582
 40
0.9263072999999999
 50
4.3528099999999998
 51
15.355258000000001
  0
ARC
  8
_0-0_
  6
CONTINUOUS
 62
    7
 10
89.957677075882202
 20
49.28148093977353
 40
0.5721789
 50
19.118120000000001
 51
73.770895999999965
  0
ARC
  8
_0-0_
  6
CONTINUOUS
 62
    7
 10
88.189767075882173
 20
48.816330939773536
 40
2.3989862999999998
 50
9.8663227000000013
 51
15.783997000000001
  0
ARC
  8
_0-0_
  6
CONTINUOUS
 62
    7
 10
89.845747075882173
 20
48.76198093977365
 40
1.1029028999999999
 50
75.730706999999995
 51
104.26929
  0
ARC
  8
_0-0_
  6
CONTINUOUS
 62
    7
 10
89.733817075882143
 20
49.28148093977353
 40
0.5721789
 50
106.2291
 51
160.88186999999999
  0
ARC
  8
_0-0_
  6
CONTINUOUS
 62
    7
 10
93.291017075882337
 20
48.816330939773536
 40
2.3989862999999998
 50
164.21600000000004
 51
195.78399000000002
  0
ARC
  8
_0-0_
  6
CONTINUOUS
 62
    7
 10
97.528187075882215
 20
48.816330939773536
 40
6.0927388999999996
 50
176.78918999999999
 51
183.21080000000001
  0
ARC
  8
_0-0_
  6
CONTINUOUS
 62
    7
 10
85.741887075882005
 20
48.816330939773536
 40
6.0927388999999996
 50
356.78919000000002
 51
3.2108098999999948
  0
ARC
  8
_0-0_
  6
CONTINUOUS
 62
    7
 10
91.635037075881883
 20
48.283680939773433
 40
0.1658629
 50
198.78093000000001
 51
341.21906000000001
  0
ARC
  8
_0-0_
  6
CONTINUOUS
 62
    7
 10
91.635037075881883
 20
48.870670939773674
 40
1.1029028999999999
 50
255.73070000000004
 51
284.26929000000007
  0
ARC
  8
_0-0_
  6
CONTINUOUS
 62
    7
 10
91.746967075882367
 20
48.35117093977334
 40
0.5721789
 50
286.22910000000002
 51
340.88186999999999
  0
ARC
  8
_0-0_
  6
CONTINUOUS
 62
    7
 10
91.523107075881853
 20
48.35117093977334
 40
0.5721789
 50
199.11812000000006
 51
253.77089000000001
  0
ARC
  8
_0-0_
  6
CONTINUOUS
 62
    7
 10
89.979057075881883
 20
48.816330939773536
 40
2.3989862999999998
 50
344.21599999999995
 51
15.783997000000026
  0
ARC
  8
_0-0_
  6
CONTINUOUS
 62
    7
 10
90.898827075881854
 20
48.47557093977349
 40
0.9263072999999999
 50
344.64474000000007
 51
0.719224299999991
  0
ARC
  8
_0-0_
  6
CONTINUOUS
 62
    7
 10
92.371247075881911
 20
48.47557093977349
 40
0.9263072999999999
 50
179.28076999999999
 51
195.35525000000001
  0
ARC
  8
_0-0_
  6
CONTINUOUS
 62
    7
 10
92.371247075881911
 20
49.157090939773582
 40
0.9263072999999999
 50
164.64474000000004
 51
180.71922000000004
  0
ARC
  8
_0-0_
  6
CONTINUOUS
 62
    7
 10
91.635037075881883
 20
49.348980939773639
 40
0.1658629
 50
18.780933999999998
 51
161.21906000000001
  0
ARC
  8
_0-0_
  6
CONTINUOUS
 62
    7
 10
90.898827075881854
 20
49.157090939773582
 40
0.9263072999999999
 50
359.28076999999996
 51
15.355257999999957
  0
ARC
  8
_0-0_
  6
CONTINUOUS
 62
    7
 10
91.635037075881883
 20
48.76198093977365
 40
1.1029028999999999
 50
75.730706999999995
 51
104.26929
  0
ARC
  8
_0-0_
  6
CONTINUOUS
 62
    7
 10
91.523107075881853
 20
49.28148093977353
 40
0.5721789
 50
106.2291
 51
160.88186999999999
  0
ARC
  8
_0-0_
  6
CONTINUOUS
 62
    7
 10
91.746967075882367
 20
49.28148093977353
 40
0.5721789
 50
19.118120000000001
 51
73.770895999999965
  0
ARC
  8
_0-0_
  6
CONTINUOUS
 62
    7
 10
85.243207075881855
 20
47.585940939773366
 40
0.2999999999999998
 50
180
 51
270
  0
ARC
  8
_0-0_
  6
CONTINUOUS
 62
    7
 10
85.243207075881855
 20
49.985940939773457
 40
0.2999999999999998
 50
90
 51
180
  0
ARC
  8
_0-0_
  6
CONTINUOUS
 62
    7
 10
92.643207075881946
 20
49.985940939773457
 40
0.2999999999999998
 50
0
 51
90
  0
ARC
  8
_0-0_
  6
CONTINUOUS
 62
    7
 10
92.643207075881946
 20
47.585940939773366
 40
0.2999999999999998
 50
270
 51
0
  0
LINE
  8
_0-0_
  6
CONTINUOUS
 62
    7
 10
94.650317075881958
 20
70.934170939773423
 11
88.327987075881992
 21
77.256500939773389
  0
LINE
  8
_0-0_
  6
CONTINUOUS
 62
    7
 10
86.913767075881879
 20
77.256500939773389
 11
70.236097075881844
 21
60.578830939773582
  0
LINE
  8
_0-0_
  6
CONTINUOUS
 62
    7
 10
69.943207075882128
 20
59.871720939773525
 11
69.943207075882128
 21
46.285940939773639
  0
LINE
  8
_0-0_
  6
CONTINUOUS
 62
    7
 10
70.943207075882128
 20
45.285940939773639
 11
93.943207075882128
 21
45.285940939773639
  0
LINE
  8
_0-0_
  6
CONTINUOUS
 62
    7
 10
94.943207075882128
 20
46.285940939773639
 11
94.943207075882128
 21
70.227060939773594
  0
LINE
  8
_0-0_
  6
CONTINUOUS
 62
    7
 10
82.940607075881871
 20
58.534250939773585
 11
82.940607075881871
 21
57.520140939773512
  0
LINE
  8
_0-0_
  6
CONTINUOUS
 62
    7
 10
81.945817075882132
 20
57.520140939773512
 11
81.945817075882132
 21
58.534250939773585
  0
LINE
  8
_0-0_
  6
CONTINUOUS
 62
    7
 10
81.208977075882103
 20
56.783300939773483
 11
80.194937075882081
 21
56.783300939773483
  0
LINE
  8
_0-0_
  6
CONTINUOUS
 62
    7
 10
80.194937075882081
 20
55.788550939773643
 11
81.208977075882103
 21
55.788550939773643
  0
LINE
  8
_0-0_
  6
CONTINUOUS
 62
    7
 10
81.945817075882132
 20
55.051710939773614
 11
81.945817075882132
 21
54.037650939773641
  0
LINE
  8
_0-0_
  6
CONTINUOUS
 62
    7
 10
82.940607075881871
 20
54.037650939773641
 11
82.940607075881871
 21
55.051710939773614
  0
LINE
  8
_0-0_
  6
CONTINUOUS
 62
    7
 10
83.677447075882355
 20
55.788550939773643
 11
84.691537075882025
 21
55.788550939773643
  0
LINE
  8
_0-0_
  6
CONTINUOUS
 62
    7
 10
84.691537075882025
 20
56.783300939773483
 11
83.677447075882355
 21
56.783300939773483
  0
ARC
  8
_0-0_
  6
CONTINUOUS
 62
    7
 10
93.943207075882128
 20
70.227060939773594
 40
1
 50
0
 51
45
  0
ARC
  8
_0-0_
  6
CONTINUOUS
 62
    7
 10
87.620877075882163
 20
76.549390939773559
 40
1
 50
45
 51
135
  0
ARC
  8
_0-0_
  6
CONTINUOUS
 62
    7
 10
93.943207075882128
 20
46.285940939773639
 40
1
 50
270
 51
0
  0
ARC
  8
_0-0_
  6
CONTINUOUS
 62
    7
 10
70.943207075882128
 20
46.285940939773639
 40
1
 50
180
 51
270
  0
ARC
  8
_0-0_
  6
CONTINUOUS
 62
    7
 10
70.943207075882128
 20
59.871720939773525
 40
1
 50
135
 51
180
  0
CIRCLE
  8
_0-0_
  6
CONTINUOUS
 62
    7
 10
82.443207075882128
 20
56.285940939773639
 40
3.5499999999999998
  0
ARC
  8
_0-0_
  6
CONTINUOUS
 62
    7
 10
83.677447075882355
 20
57.520140939773512
 40
0.7368479999999999
 50
180
 51
270
  0
ARC
  8
_0-0_
  6
CONTINUOUS
 62
    7
 10
81.208977075882103
 20
57.520140939773512
 40
0.7368479999999999
 50
270
 51
0
  0
ARC
  8
_0-0_
  6
CONTINUOUS
 62
    7
 10
81.208977075882103
 20
55.051710939773614
 40
0.7368479999999999
 50
0
 51
90
  0
ARC
  8
_0-0_
  6
CONTINUOUS
 62
    7
 10
83.677447075882355
 20
55.051710939773614
 40
0.7368479999999999
 50
90
 51
180
  0
ARC
  8
_0-0_
  6
CONTINUOUS
 62
    7
 10
82.443187075882179
 20
56.285950939773386
 40
2.3026499999999999
 50
167.52571999999995
 51
192.47427999999994
  0
ARC
  8
_0-0_
  6
CONTINUOUS
 62
    7
 10
82.443187075882179
 20
56.285950939773386
 40
2.3026499999999999
 50
77.525819999999996
 51
102.47418
  0
ARC
  8
_0-0_
  6
CONTINUOUS
 62
    7
 10
82.443187075882179
 20
56.285950939773386
 40
2.3026499999999999
 50
347.52573000000001
 51
12.474280000000038
  0
ARC
  8
_0-0_
  6
CONTINUOUS
 62
    7
 10
82.443187075882179
 20
56.285950939773386
 40
2.3026499999999999
 50
257.52582000000001
 51
282.47419000000002
  0
LINE
  8
_0-0_
  6
CONTINUOUS
 62
    7
 10
12.583323777258784
 20
45.72291307528036
 11
12.583323777258784
 21
48.122913075280451
  0
LINE
  8
_0-0_
  6
CONTINUOUS
 62
    7
 10
12.283323777258602
 20
48.422913075280633
 11
4.8833237772589655
 21
48.422913075280633
  0
LINE
  8
_0-0_
  6
CONTINUOUS
 62
    7
 10
4.5833237772587836
 20
48.122913075280451
 11
4.5833237772587836
 21
45.72291307528036
  0
LINE
  8
_0-0_
  6
CONTINUOUS
 62
    7
 10
4.8833237772589655
 20
45.422913075280633
 11
12.283323777258602
 21
45.422913075280633
  0
LINE
  8
_0-0_
  6
CONTINUOUS
 62
    7
 10
10.206813777258731
 20
46.628703075280612
 11
9.6758237772589837
 21
46.628703075280612
  0
LINE
  8
_0-0_
  6
CONTINUOUS
 62
    7
 10
9.6732937772587775
 20
47.364363075280437
 11
10.193393777258507
 21
47.364363075280437
  0
LINE
  8
_0-0_
  6
CONTINUOUS
 62
    7
 10
8.3698437772584384
 20
47.610123075280683
 11
7.447433777258766
 21
47.610123075280683
  0
LINE
  8
_0-0_
  6
CONTINUOUS
 62
    7
 10
7.447433777258766
 20
47.610123075280683
 11
7.447433777258766
 21
47.136683075280473
  0
LINE
  8
_0-0_
  6
CONTINUOUS
 62
    7
 10
7.447433777258766
 20
47.136683075280473
 11
8.2818837772585994
 21
47.136683075280473
  0
LINE
  8
_0-0_
  6
CONTINUOUS
 62
    7
 10
8.2818837772585994
 20
47.136683075280473
 11
8.2818837772585994
 21
46.795023075280426
  0
LINE
  8
_0-0_
  6
CONTINUOUS
 62
    7
 10
8.2818837772585994
 20
46.795023075280426
 11
7.447433777258766
 21
46.795023075280426
  0
LINE
  8
_0-0_
  6
CONTINUOUS
 62
    7
 10
7.447433777258766
 20
46.795023075280426
 11
7.447433777258766
 21
46.29647307528063
  0
LINE
  8
_0-0_
  6
CONTINUOUS
 62
    7
 10
7.447433777258766
 20
46.29647307528063
 11
8.3698437772584384
 21
46.29647307528063
  0
LINE
  8
_0-0_
  6
CONTINUOUS
 62
    7
 10
8.3698437772584384
 20
46.29647307528063
 11
8.3698437772584384
 21
45.932523075280244
  0
LINE
  8
_0-0_
  6
CONTINUOUS
 62
    7
 10
8.3698437772584384
 20
45.932523075280244
 11
6.9401337772585521
 21
45.932523075280244
  0
LINE
  8
_0-0_
  6
CONTINUOUS
 62
    7
 10
6.9401337772585521
 20
45.932523075280244
 11
6.9401337772585521
 21
47.974083075280362
  0
LINE
  8
_0-0_
  6
CONTINUOUS
 62
    7
 10
6.9401337772585521
 20
47.974083075280362
 11
8.3698437772584384
 21
47.974083075280362
  0
LINE
  8
_0-0_
  6
CONTINUOUS
 62
    7
 10
8.3698437772584384
 20
47.974083075280362
 11
8.3698437772584384
 21
47.610123075280683
  0
LINE
  8
_0-0_
  6
CONTINUOUS
 62
    7
 10
5.6271037772587533
 20
47.974083075280362
 11
5.6271037772587533
 21
46.29647307528063
  0
LINE
  8
_0-0_
  6
CONTINUOUS
 62
    7
 10
5.6271037772587533
 20
46.29647307528063
 11
6.5473337772584728
 21
46.29647307528063
  0
LINE
  8
_0-0_
  6
CONTINUOUS
 62
    7
 10
6.5473337772584728
 20
46.29647307528063
 11
6.5473337772584728
 21
45.932523075280244
  0
LINE
  8
_0-0_
  6
CONTINUOUS
 62
    7
 10
6.5473337772584728
 20
45.932523075280244
 11
5.1179937772587891
 21
45.932523075280244
  0
LINE
  8
_0-0_
  6
CONTINUOUS
 62
    7
 10
5.1179937772587891
 20
45.932523075280244
 11
5.1179937772587891
 21
47.974083075280362
  0
LINE
  8
_0-0_
  6
CONTINUOUS
 62
    7
 10
5.1179937772587891
 20
47.974083075280362
 11
5.6271037772587533
 21
47.974083075280362
  0
ARC
  8
_0-0_
  6
CONTINUOUS
 62
    7
 10
11.141843777258828
 20
46.95330307528053
 40
2.3989862999999998
 50
164.21600000000004
 51
195.78399000000002
  0
ARC
  8
_0-0_
  6
CONTINUOUS
 62
    7
 10
15.379013777258706
 20
46.95330307528053
 40
6.0927388999999996
 50
176.78918999999999
 51
183.21080000000001
  0
ARC
  8
_0-0_
  6
CONTINUOUS
 62
    7
 10
9.3739337772587987
 20
46.488143075280334
 40
0.5721789
 50
199.11812000000006
 51
253.77089000000001
  0
ARC
  8
_0-0_
  6
CONTINUOUS
 62
    7
 10
9.4858637772588281
 20
47.007643075280669
 40
1.1029028999999999
 50
255.73070000000004
 51
284.26929000000007
  0
ARC
  8
_0-0_
  6
CONTINUOUS
 62
    7
 10
9.5977937772584028
 20
46.488143075280334
 40
0.5721789
 50
286.22910000000002
 51
340.88186999999999
  0
ARC
  8
_0-0_
  6
CONTINUOUS
 62
    7
 10
7.8298837772588286
 20
46.95330307528053
 40
2.3989862999999998
 50
344.21599999999995
 51
352.22374999999994
  0
ARC
  8
_0-0_
  6
CONTINUOUS
 62
    7
 10
9.4858637772588281
 20
46.420653075280427
 40
0.1658629
 50
198.78093000000001
 51
341.21906000000001
  0
ARC
  8
_0-0_
  6
CONTINUOUS
 62
    7
 10
8.7496537772587999
 20
46.612543075280485
 40
0.9263072999999999
 50
344.64474000000007
 51
1.0000756000000433
  0
ARC
  8
_0-0_
  6
CONTINUOUS
 62
    7
 10
10.222073777258856
 20
46.612543075280485
 40
0.9263072999999999
 50
179.28076999999999
 51
195.35525000000001
  0
ARC
  8
_0-0_
  6
CONTINUOUS
 62
    7
 10
9.4858637772588281
 20
47.485953075280634
 40
0.1658629
 50
18.780933999999998
 51
161.21906000000001
  0
ARC
  8
_0-0_
  6
CONTINUOUS
 62
    7
 10
10.222073777258856
 20
47.294063075280576
 40
0.9263072999999999
 50
164.64474000000004
 51
180.71922000000004
  0
ARC
  8
_0-0_
  6
CONTINUOUS
 62
    7
 10
8.7496537772587999
 20
47.294063075280576
 40
0.9263072999999999
 50
4.3528099999999998
 51
15.355258000000001
  0
ARC
  8
_0-0_
  6
CONTINUOUS
 62
    7
 10
9.5977937772584028
 20
47.418453075280524
 40
0.5721789
 50
19.118120000000001
 51
73.770895999999965
  0
ARC
  8
_0-0_
  6
CONTINUOUS
 62
    7
 10
7.8298837772588286
 20
46.95330307528053
 40
2.3989862999999998
 50
9.8663227000000013
 51
15.783997000000001
  0
ARC
  8
_0-0_
  6
CONTINUOUS
 62
    7
 10
9.4858637772588281
 20
46.898953075280644
 40
1.1029028999999999
 50
75.730706999999995
 51
104.26929
  0
ARC
  8
_0-0_
  6
CONTINUOUS
 62
    7
 10
9.3739337772587987
 20
47.418453075280524
 40
0.5721789
 50
106.2291
 51
160.88186999999999
  0
ARC
  8
_0-0_
  6
CONTINUOUS
 62
    7
 10
12.931133777258538
 20
46.95330307528053
 40
2.3989862999999998
 50
164.21600000000004
 51
195.78399000000002
  0
ARC
  8
_0-0_
  6
CONTINUOUS
 62
    7
 10
17.168303777258416
 20
46.95330307528053
 40
6.0927388999999996
 50
176.78918999999999
 51
183.21080000000001
  0
ARC
  8
_0-0_
  6
CONTINUOUS
 62
    7
 10
5.3820037772586602
 20
46.95330307528053
 40
6.0927388999999996
 50
356.78919000000002
 51
3.2108098999999948
  0
ARC
  8
_0-0_
  6
CONTINUOUS
 62
    7
 10
11.275153777258993
 20
46.420653075280427
 40
0.1658629
 50
198.78093000000001
 51
341.21906000000001
  0
ARC
  8
_0-0_
  6
CONTINUOUS
 62
    7
 10
11.275153777258993
 20
47.007643075280669
 40
1.1029028999999999
 50
255.73070000000004
 51
284.26929000000007
  0
ARC
  8
_0-0_
  6
CONTINUOUS
 62
    7
 10
11.387083777258567
 20
46.488143075280334
 40
0.5721789
 50
286.22910000000002
 51
340.88186999999999
  0
ARC
  8
_0-0_
  6
CONTINUOUS
 62
    7
 10
11.163223777258509
 20
46.488143075280334
 40
0.5721789
 50
199.11812000000006
 51
253.77089000000001
  0
ARC
  8
_0-0_
  6
CONTINUOUS
 62
    7
 10
9.6191737772585384
 20
46.95330307528053
 40
2.3989862999999998
 50
344.21599999999995
 51
15.783997000000026
  0
ARC
  8
_0-0_
  6
CONTINUOUS
 62
    7
 10
10.538943777258964
 20
46.612543075280485
 40
0.9263072999999999
 50
344.64474000000007
 51
0.719224299999991
  0
ARC
  8
_0-0_
  6
CONTINUOUS
 62
    7
 10
12.011363777259021
 20
46.612543075280485
 40
0.9263072999999999
 50
179.28076999999999
 51
195.35525000000001
  0
ARC
  8
_0-0_
  6
CONTINUOUS
 62
    7
 10
12.011363777259021
 20
47.294063075280576
 40
0.9263072999999999
 50
164.64474000000004
 51
180.71922000000004
  0
ARC
  8
_0-0_
  6
CONTINUOUS
 62
    7
 10
11.275153777258993
 20
47.485953075280634
 40
0.1658629
 50
18.780933999999998
 51
161.21906000000001
  0
ARC
  8
_0-0_
  6
CONTINUOUS
 62
    7
 10
10.538943777258964
 20
47.294063075280576
 40
0.9263072999999999
 50
359.28076999999996
 51
15.355257999999957
  0
ARC
  8
_0-0_
  6
CONTINUOUS
 62
    7
 10
11.275153777258993
 20
46.898953075280644
 40
1.1029028999999999
 50
75.730706999999995
 51
104.26929
  0
ARC
  8
_0-0_
  6
CONTINUOUS
 62
    7
 10
11.163223777258509
 20
47.418453075280524
 40
0.5721789
 50
106.2291
 51
160.88186999999999
  0
ARC
  8
_0-0_
  6
CONTINUOUS
 62
    7
 10
11.387083777258567
 20
47.418453075280524
 40
0.5721789
 50
19.118120000000001
 51
73.770895999999965
  0
ARC
  8
_0-0_
  6
CONTINUOUS
 62
    7
 10
4.8833237772589655
 20
45.72291307528036
 40
0.2999999999999998
 50
180
 51
270
  0
ARC
  8
_0-0_
  6
CONTINUOUS
 62
    7
 10
4.8833237772589655
 20
48.122913075280451
 40
0.2999999999999998
 50
90
 51
180
  0
ARC
  8
_0-0_
  6
CONTINUOUS
 62
    7
 10
12.283323777258602
 20
48.122913075280451
 40
0.2999999999999998
 50
0
 51
90
  0
ARC
  8
_0-0_
  6
CONTINUOUS
 62
    7
 10
12.283323777258602
 20
45.72291307528036
 40
0.2999999999999998
 50
270
 51
0
  0
LINE
  8
_0-0_
  6
CONTINUOUS
 62
    7
 10
27.583323777258784
 20
58.008693075280519
 11
27.583323777258784
 21
44.422913075280633
  0
LINE
  8
_0-0_
  6
CONTINUOUS
 62
    7
 10
26.583323777258784
 20
43.422913075280633
 11
3.5833237772587836
 21
43.422913075280633
  0
LINE
  8
_0-0_
  6
CONTINUOUS
 62
    7
 10
2.5833237772587836
 20
44.422913075280633
 11
2.5833237772587836
 21
68.364033075280588
  0
LINE
  8
_0-0_
  6
CONTINUOUS
 62
    7
 10
2.8762137772584992
 20
69.071143075280418
 11
9.1985437772589194
 21
75.393473075280383
  0
LINE
  8
_0-0_
  6
CONTINUOUS
 62
    7
 10
10.612763777259033
 20
75.393473075280383
 11
27.290433777258613
 21
58.715803075280576
  0
LINE
  8
_0-0_
  6
CONTINUOUS
 62
    7
 10
15.580713777258779
 20
56.671223075280579
 11
15.580713777258779
 21
55.657113075280506
  0
LINE
  8
_0-0_
  6
CONTINUOUS
 62
    7
 10
14.585913777258838
 20
55.657113075280506
 11
14.585913777258838
 21
56.671223075280579
  0
LINE
  8
_0-0_
  6
CONTINUOUS
 62
    7
 10
13.849073777258809
 20
54.920273075280477
 11
12.834993777258887
 21
54.920273075280477
  0
LINE
  8
_0-0_
  6
CONTINUOUS
 62
    7
 10
12.834993777258887
 20
53.925523075280637
 11
13.849073777258809
 21
53.925523075280637
  0
LINE
  8
_0-0_
  6
CONTINUOUS
 62
    7
 10
14.585913777258838
 20
53.188683075280608
 11
14.585913777258838
 21
52.174623075280635
  0
LINE
  8
_0-0_
  6
CONTINUOUS
 62
    7
 10
15.580713777258779
 20
52.174623075280635
 11
15.580713777258779
 21
53.188683075280608
  0
LINE
  8
_0-0_
  6
CONTINUOUS
 62
    7
 10
16.317553777258809
 20
53.925523075280637
 11
17.331593777258831
 21
53.925523075280637
  0
LINE
  8
_0-0_
  6
CONTINUOUS
 62
    7
 10
17.331593777258831
 20
54.920273075280477
 11
16.317553777258809
 21
54.920273075280477
  0
ARC
  8
_0-0_
  6
CONTINUOUS
 62
    7
 10
3.5833237772587836
 20
68.364033075280588
 40
1
 50
135
 51
180
  0
ARC
  8
_0-0_
  6
CONTINUOUS
 62
    7
 10
9.905653777258749
 20
74.686363075280553
 40
1
 50
45
 51
135
  0
ARC
  8
_0-0_
  6
CONTINUOUS
 62
    7
 10
3.5833237772587836
 20
44.422913075280633
 40
1
 50
180
 51
270
  0
ARC
  8
_0-0_
  6
CONTINUOUS
 62
    7
 10
26.583323777258784
 20
44.422913075280633
 40
1
 50
270
 51
0
  0
ARC
  8
_0-0_
  6
CONTINUOUS
 62
    7
 10
26.583323777258784
 20
58.008693075280519
 40
1
 50
0
 51
45
  0
CIRCLE
  8
_0-0_
  6
CONTINUOUS
 62
    7
 10
15.083323777258784
 20
54.422913075280633
 40
3.5499999999999998
  0
ARC
  8
_0-0_
  6
CONTINUOUS
 62
    7
 10
13.849073777258809
 20
55.657113075280506
 40
0.7368479999999999
 50
270
 51
0
  0
ARC
  8
_0-0_
  6
CONTINUOUS
 62
    7
 10
16.317553777258809
 20
55.657113075280506
 40
0.7368479999999999
 50
180
 51
270
  0
ARC
  8
_0-0_
  6
CONTINUOUS
 62
    7
 10
16.317553777258809
 20
53.188683075280608
 40
0.7368479999999999
 50
90
 51
180
  0
ARC
  8
_0-0_
  6
CONTINUOUS
 62
    7
 10
13.849073777258809
 20
53.188683075280608
 40
0.7368479999999999
 50
0
 51
90
  0
ARC
  8
_0-0_
  6
CONTINUOUS
 62
    7
 10
15.083333777258986
 20
54.42292307528038
 40
2.3026499999999999
 50
347.52571999999998
 51
12.474273000000045
  0
ARC
  8
_0-0_
  6
CONTINUOUS
 62
    7
 10
15.083333777258986
 20
54.42292307528038
 40
2.3026499999999999
 50
77.525817000000018
 51
102.47418000000005
  0
ARC
  8
_0-0_
  6
CONTINUOUS
 62
    7
 10
15.083333777258986
 20
54.42292307528038
 40
2.3026499999999999
 50
167.52571999999995
 51
192.47426999999996
  0
ARC
  8
_0-0_
  6
CONTINUOUS
 62
    7
 10
15.083333777258986
 20
54.42292307528038
 40
2.3026499999999999
 50
257.52580999999998
 51
282.47417999999999
  0
LINE
  8
_0-0_
  6
CONTINUOUS
 62
    7
 10
133.97120962342046
 20
77.549390939773616
 11
131.97120962342046
 21
77.549390939773616
  0
ARC
  8
_0-0_
  6
CONTINUOUS
 62
    7
 10
131.97120962342046
 20
76.549390939773616
 40
1
 50
89.999999999999972
 51
179.99999999999997
  0
LINE
  8
_0-0_
  6
CONTINUOUS
 62
    7
 10
131.97120962342046
 20
45.285940939773639
 11
133.97120962342046
 21
45.285940939773639
  0
ARC
  8
_0-0_
  6
CONTINUOUS
 62
    7
 10
131.97120962342046
 20
46.285940939773639
 40
1
 50
179.99999999999997
 51
270
  0
LINE
  8
_0-0_
  6
CONTINUOUS
 62
    7
 10
130.97120962342046
 20
76.549390939773616
 11
130.97120962342046
 21
46.285940939773639
  0
LINE
  8
_0-0_
  6
CONTINUOUS
 62
    7
 10
133.97120962342046
 20
45.285940939773639
 11
133.97120962342046
 21
77.549390939773616
  0
ENDSEC
  0
EOF
