  0
SECTION
  2
HEADER
  9
$ACADVER
  1
AC1009
  9
$INSBASE
 10
0
 20
0
 30
0
  9
$EXTMIN
 10
0
 20
0
  9
$EXTMAX
 10
1189
 20
841
  9
$LIMMIN
 10
0
 20
0
  9
$LIMMAX
 10
1189
 20
841
  9
$LTSCALE
 40
1
  0
ENDSEC
  0
SECTION
  2
TABLES
  0
TABLE
  2
LTYPE
 70
     9
  0
LTYPE
  2
CONTINUOUS
 70
    64
  3
実線
 72
    65
 73
     0
 40
0.0
  0
LTYPE
  2
DASHED1
 70
    64
  3
--  --  --  --  --  --  --  --  
 72
    65
 73
     2
 40
2.5
 49
1.25
 49
-1.25
  0
LTYPE
  2
DASHED2
 70
    64
  3
----    ----    ----    ----    
 72
    65
 73
     2
 40
5.0
 49
2.5
 49
-2.5
  0
LTYPE
  2
DASHED3
 70
    64
  3
------  ------  ------  ------  
 72
    65
 73
     2
 40
5.0
 49
3.75
 49
-1.25
  0
LTYPE
  2
CENTER1
 70
    64
  3
----- - ----- - ----- - ----- - 
 72
    65
 73
     4
 40
10.0
 49
6.25
 49
-1.25
 49
1.25
 49
-1.25
  0
LTYPE
  2
CENTER2
 70
    64
  3
----------  --  ----------  --  
 72
    65
 73
     4
 40
20.0
 49
12.5
 49
-2.5
 49
2.5
 49
-2.5
  0
LTYPE
  2
PHANTOM1
 70
    64
  3
--- - - --- - - --- - - --- - - 
 72
    65
 73
     6
 40
10.0
 49
3.25
 49
-1.25
 49
1.25
 49
-1.25
 49
1.25
 49
-1.25
  0
LTYPE
  2
PHANTOM2
 70
    64
  3
--------  -  -  --------  -  -  
 72
    65
 73
     6
 40
20.0
 49
10.0
 49
-2.5
 49
1.25
 49
-2.5
 49
1.25
 49
-2.5
  0
LTYPE
  2
DOT
 70
    64
  3
-   -   -   -   -   -   -   -   
 72
    65
 73
     2
 40
2.5
 49
0.625
 49
-1.875
  0
LTYPE
  2
DUMMY
 70
    64
  3
ダミー
 72
    65
 73
     0
 40
0.0
  0
LTYPE
  2
RAND1
 70
    64
  3
ランダム線1
 72
    65
 73
     4
 40
10.0
 49
1.0
 49
-2.0
 49
3.0
 49
-4.0
  0
LTYPE
  2
RAND2
 70
    64
  3
ランダム線2
 72
    65
 73
     4
 40
14.0
 49
2.0
 49
-3.0
 49
4.0
 49
-5.0
  0
LTYPE
  2
RAND3
 70
    64
  3
ランダム線3
 72
    65
 73
     4
 40
18.0
 49
3.0
 49
-4.0
 49
5.0
 49
-6.0
  0
LTYPE
  2
RAND4
 70
    64
  3
ランダム線4
 72
    65
 73
     4
 40
22.0
 49
4.0
 49
-5.0
 49
6.0
 49
-7.0
  0
LTYPE
  2
RAND5
 70
    64
  3
ランダム線5
 72
    65
 73
     4
 40
26.0
 49
5.0
 49
-6.0
 49
7.0
 49
-8.0
  0
LTYPE
  2
LONG1
 70
    64
  3
----------  --  ----------  --  
 72
    65
 73
     4
 40
40.0
 49
32.5
 49
-2.5
 49
2.5
 49
-2.5
  0
LTYPE
  2
LONG2
 70
    64
  3
--------  -  -  --------  -  -  
 72
    65
 73
     6
 40
40.0
 49
30.0
 49
-2.5
 49
1.25
 49
-2.5
 49
1.25
 49
-2.5
  0
LTYPE
  2
LONG3
 70
    64
  3
+++++++++++++++..+++++++++++++++
 72
    65
 73
     2
 40
40.0
 49
37.5
 49
-2.5
  0
LTYPE
  2
LONG4
 70
    64
  3
+++++++++++++++..+++++++++++++++
 72
    65
 73
     2
 40
80.0
 49
75.0
 49
-5.0
  0
LTYPE
  2
LONG5
 70
    64
  3
----------  --  ----------  --  
 72
    65
 73
     4
 40
60.0
 49
37.5
 49
-7.5
 49
7.5
 49
-7.5
  0
LTYPE
  2
dashed
 70
   64
  3
-------   -------------   ------
 72
   65
 73
    2
 40
7.5
 49
6
 49
-1.5
  0
LTYPE
  2
dashed_spaced
 70
   64
  3
----        --------        ----
 72
   65
 73
    2
 40
12
 49
6
 49
-6
  0
LTYPE
  2
long_dashed_dotted
 70
   64
  3
------------- --- --------------
 72
   65
 73
    4
 40
15.25
 49
12
 49
-1.5
 49
0.25
 49
-1.5
  0
LTYPE
  2
long_dashed_double-dotted
 70
   64
  3
----------- --- --- ------------
 72
   65
 73
    6
 40
17
 49
12
 49
-1.5
 49
0.25
 49
-1.5
 49
0.25
 49
-1.5
  0
LTYPE
  2
long_dashed_triplicate-dotted
 70
   64
  3
--------- --- --- --- ----------
 72
   65
 73
    8
 40
18.75
 49
12
 49
-1.5
 49
0.25
 49
-1.5
 49
0.25
 49
-1.5
 49
0.25
 49
-1.5
  0
LTYPE
  2
dotted
 70
   64
  3
   -       -       -       -    
 72
   65
 73
    2
 40
1.75
 49
0.25
 49
-1.5
  0
LTYPE
  2
chain
 70
   64
  3
-------------- -- --------------
 72
   65
 73
    4
 40
18.5
 49
12
 49
-1.5
 49
3.5
 49
-1.5
  0
LTYPE
  2
chain_double_dash
 70
   64
  3
------------ -- -- -------------
 72
   65
 73
    6
 40
23.5
 49
12
 49
-1.5
 49
3.5
 49
-1.5
 49
3.5
 49
-1.5
  0
LTYPE
  2
dashed_dotted
 70
   64
  3
-----------     -     ----------
 72
   65
 73
    4
 40
9.25
 49
6
 49
-1.5
 49
0.25
 49
-1.5
  0
LTYPE
  2
double-dashed_dotted
 70
   64
  3
------   -----------   -   -----
 72
   65
 73
    6
 40
16.75
 49
6
 49
-1.5
 49
6
 49
-1.5
 49
0.25
 49
-1.5
  0
LTYPE
  2
dashed_double-dotted
 70
   64
  3
---------    -    -    ---------
 72
   65
 73
    6
 40
11
 49
6
 49
-1.5
 49
0.25
 49
-1.5
 49
0.25
 49
-1.5
  0
LTYPE
  2
double-dashed_double-dotted
 70
   64
  3
-----   ---------   -   -   ----
 72
   65
 73
    8
 40
18.5
 49
6
 49
-1.5
 49
6
 49
-1.5
 49
0.25
 49
-1.5
 49
0.25
 49
-1.5
  0
LTYPE
  2
dashed_triplicate-dotted
 70
   64
  3
-------    -    -    -    ------
 72
   65
 73
    8
 40
12.75
 49
6
 49
-1.5
 49
0.25
 49
-1.5
 49
0.25
 49
-1.5
 49
0.25
 49
-1.5
  0
LTYPE
  2
double-dashed_triplicate-dotted
 70
   64
  3
-----  ---------  -  -  -  -----
 72
   65
 73
   10
 40
20.25
 49
6
 49
-1.5
 49
6
 49
-1.5
 49
0.25
 49
-1.5
 49
0.25
 49
-1.5
 49
0.25
 49
-1.5
  0
LTYPE
  2
undefined
 70
   64
  3
--------------------------------
 72
   65
 73
    0
 40
0
  0
ENDTAB
  0
TABLE
  2
STYLE
  5
3
100
AcDbSymbolTable
 70
     1
  0
STYLE
  5
10
100
AcDbSymbolTableRecord
100
AcDbTextStyleTableRecord
  2
STANDARD
 70
     0
 40
0.0
 41
1.0
 50
0.0
 71
     0
 42
0.2
  3
txt
  4
bigfont.shx
  0
STYLE
  5
26
100
AcDbSymbolTableRecord
100
AcDbTextStyleTableRecord
  2
TATEGAKI
 70
    68
 40
0.0
 41
1.0
 50
0.0
 71
     0
 42
1.0
  3
txt
  4
bigfont.shx
  0
ENDTAB
  0
TABLE
  2
LAYER
 70
    3
  0
LAYER
  2
_0-0_
 70
   64
 62
    7
  6
CONTINUOUS
  0
LAYER
  2
_0-1_
 70
   64
 62
    7
  6
CONTINUOUS
  0
LAYER
  2
ADD_LINE
 70
   64
 62
    7
  6
CONTINUOUS
  0
ENDTAB
  0
ENDSEC
  0
SECTION
  2
BLOCKS
  0
ENDSEC
  0
SECTION
  2
ENTITIES
  0
LINE
  8
_0-0_
  6
CONTINUOUS
 62
    7
 10
85.714516352642534
 20
48.230194749803218
 11
85.205410824242392
 21
48.230194749803218
  0
LINE
  8
_0-0_
  6
CONTINUOUS
 62
    7
 10
85.205410824242392
 20
48.230194749803218
 11
85.205410824242392
 21
46.188633507203235
  0
LINE
  8
_0-0_
  6
CONTINUOUS
 62
    7
 10
85.205410824242392
 20
46.188633507203235
 11
86.634753600556962
 21
46.188633507203235
  0
LINE
  8
_0-0_
  6
CONTINUOUS
 62
    7
 10
86.634753600556962
 20
46.188633507203235
 11
86.634753600556962
 21
46.55259144398326
  0
LINE
  8
_0-0_
  6
CONTINUOUS
 62
    7
 10
86.634753600556962
 20
46.55259144398326
 11
85.714516352642534
 21
46.55259144398326
  0
LINE
  8
_0-0_
  6
CONTINUOUS
 62
    7
 10
85.714516352642534
 20
46.55259144398326
 11
85.714516352642534
 21
48.230194749803218
  0
LINE
  8
_0-0_
  6
CONTINUOUS
 62
    7
 10
87.027549906734805
 20
48.230194749803218
 11
87.027549906734805
 21
46.188633507203235
  0
LINE
  8
_0-0_
  6
CONTINUOUS
 62
    7
 10
87.027549906734805
 20
46.188633507203235
 11
88.457264698279289
 21
46.188633507203235
  0
LINE
  8
_0-0_
  6
CONTINUOUS
 62
    7
 10
88.457264698279289
 20
46.188633507203235
 11
88.457264698279289
 21
46.55259144398326
  0
LINE
  8
_0-0_
  6
CONTINUOUS
 62
    7
 10
88.457264698279289
 20
46.55259144398326
 11
87.53484999217477
 21
46.55259144398326
  0
LINE
  8
_0-0_
  6
CONTINUOUS
 62
    7
 10
87.53484999217477
 20
46.55259144398326
 11
87.53484999217477
 21
47.051141421132911
  0
LINE
  8
_0-0_
  6
CONTINUOUS
 62
    7
 10
87.53484999217477
 20
47.051141421132911
 11
88.369303667152565
 21
47.051141421132911
  0
LINE
  8
_0-0_
  6
CONTINUOUS
 62
    7
 10
88.369303667152565
 20
47.051141421132911
 11
88.369303667152565
 21
47.39279249911317
  0
LINE
  8
_0-0_
  6
CONTINUOUS
 62
    7
 10
88.369303667152565
 20
47.39279249911317
 11
87.53484999217477
 21
47.39279249911317
  0
LINE
  8
_0-0_
  6
CONTINUOUS
 62
    7
 10
87.53484999217477
 20
47.39279249911317
 11
87.53484999217477
 21
47.866236813051842
  0
LINE
  8
_0-0_
  6
CONTINUOUS
 62
    7
 10
87.53484999217477
 20
47.866236813051842
 11
88.457264698279289
 21
47.866236813051842
  0
LINE
  8
_0-0_
  6
CONTINUOUS
 62
    7
 10
88.457264698279289
 20
47.866236813051842
 11
88.457264698279289
 21
48.230194749803218
  0
LINE
  8
_0-0_
  6
CONTINUOUS
 62
    7
 10
88.457264698279289
 20
48.230194749803218
 11
87.027549906734805
 21
48.230194749803218
  0
LINE
  8
_0-0_
  6
CONTINUOUS
 62
    7
 10
89.760706734761754
 20
47.620480543283179
 11
90.280807380899262
 21
47.620480543283179
  0
LINE
  8
_0-0_
  6
CONTINUOUS
 62
    7
 10
90.294226877300446
 20
46.884819923243072
 11
89.763237471838295
 21
46.884819923243072
  0
ARC
  8
_0-0_
  6
CONTINUOUS
 62
    7
 10
91.229258164985879
 20
47.209414128503454
 40
2.3989863444973807
 50
164.21600247589294
 51
195.78399752410709
  0
ARC
  8
_0-0_
  6
CONTINUOUS
 62
    7
 10
95.466428762952148
 20
47.209414128498906
 40
6.0927389498109967
 50
176.78919008197266
 51
183.21080991802734
  0
ARC
  8
_0-0_
  6
CONTINUOUS
 62
    7
 10
89.46134864543734
 20
46.744260456310371
 40
0.5721789663386137
 50
199.1181203140938
 51
253.7708963222511
  0
ARC
  8
_0-0_
  6
CONTINUOUS
 62
    7
 10
89.573279849979428
 20
47.26375793690579
 40
1.102902967963006
 50
255.7307072235771
 51
284.2692927764229
  0
ARC
  8
_0-0_
  6
CONTINUOUS
 62
    7
 10
89.685211054521517
 20
46.744260456310371
 40
0.5721789663386137
 50
286.22910367774887
 51
340.88187968590614
  0
ARC
  8
_0-0_
  6
CONTINUOUS
 62
    7
 10
87.917301534973433
 20
47.209414128503454
 40
2.3989863444973807
 50
344.21600247589294
 51
352.22375855280194
  0
ARC
  8
_0-0_
  6
CONTINUOUS
 62
    7
 10
89.573279849979428
 20
46.67676298409981
 40
0.1658629864205163
 50
198.7809348325886
 51
341.21906516741143
  0
ARC
  8
_0-0_
  6
CONTINUOUS
 62
    7
 10
88.837071256708043
 20
46.868652409389711
 40
0.9263073175532966
 50
344.64474174215434
 51
1.000075600874925
  0
ARC
  8
_0-0_
  6
CONTINUOUS
 62
    7
 10
90.309488443251269
 20
46.868652409389711
 40
0.9263073175532966
 50
179.28077569259483
 51
195.35525825784563
  0
ARC
  8
_0-0_
  6
CONTINUOUS
 62
    7
 10
89.573279849979428
 20
47.742065272906643
 40
0.1658629864205163
 50
18.780934832588589
 51
161.21906516741137
  0
ARC
  8
_0-0_
  6
CONTINUOUS
 62
    7
 10
90.309488443251269
 20
47.550175847616742
 40
0.9263073175532966
 50
164.64474174215434
 51
180.71922430740514
  0
ARC
  8
_0-0_
  6
CONTINUOUS
 62
    7
 10
88.837071256708043
 20
47.550175847616742
 40
0.9263073175532966
 50
4.3528100028009247
 51
15.355258257845687
  0
ARC
  8
_0-0_
  6
CONTINUOUS
 62
    7
 10
89.685211054521517
 20
47.674567800696082
 40
0.5721789663386137
 50
19.118120314093819
 51
73.770896322251133
  0
ARC
  8
_0-0_
  6
CONTINUOUS
 62
    7
 10
87.917301534973433
 20
47.209414128503454
 40
2.3989863444973807
 50
9.8663227198208787
 51
15.783997524107056
  0
ARC
  8
_0-0_
  6
CONTINUOUS
 62
    7
 10
89.573279849979428
 20
47.155070320100663
 40
1.102902967963006
 50
75.730707223577113
 51
104.26929277642292
  0
ARC
  8
_0-0_
  6
CONTINUOUS
 62
    7
 10
89.46134864543734
 20
47.674567800696082
 40
0.5721789663386137
 50
106.22910367774887
 51
160.88187968590617
  0
ARC
  8
_0-0_
  6
CONTINUOUS
 62
    7
 10
93.01855046501538
 20
47.209414128503454
 40
2.3989863444973807
 50
164.21600247589294
 51
195.78399752410709
  0
ARC
  8
_0-0_
  6
CONTINUOUS
 62
    7
 10
97.255721062982104
 20
47.209414128498906
 40
6.0927389498109967
 50
176.78919008197266
 51
183.21080991802734
  0
ARC
  8
_0-0_
  6
CONTINUOUS
 62
    7
 10
85.46942323703621
 20
47.209414128498906
 40
6.0927389498109967
 50
356.78919008197266
 51
3.2108099180273384
  0
ARC
  8
_0-0_
  6
CONTINUOUS
 62
    7
 10
91.362572150009385
 20
46.67676298409981
 40
0.1658629864205163
 50
198.7809348325886
 51
341.21906516741143
  0
ARC
  8
_0-0_
  6
CONTINUOUS
 62
    7
 10
91.362572150009385
 20
47.26375793690579
 40
1.102902967963006
 50
255.7307072235771
 51
284.2692927764229
  0
ARC
  8
_0-0_
  6
CONTINUOUS
 62
    7
 10
91.474503354551018
 20
46.744260456310371
 40
0.5721789663386137
 50
286.22910367774887
 51
340.88187968590614
  0
ARC
  8
_0-0_
  6
CONTINUOUS
 62
    7
 10
91.250640945467296
 20
46.744260456310371
 40
0.5721789663386137
 50
199.1181203140938
 51
253.7708963222511
  0
ARC
  8
_0-0_
  6
CONTINUOUS
 62
    7
 10
89.706593835002934
 20
47.209414128503454
 40
2.3989863444973807
 50
344.21600247589294
 51
15.783997524107075
  0
ARC
  8
_0-0_
  6
CONTINUOUS
 62
    7
 10
90.626363556737545
 20
46.868652409389711
 40
0.9263073175532966
 50
344.64474174215434
 51
0.7192243074051015
  0
ARC
  8
_0-0_
  6
CONTINUOUS
 62
    7
 10
92.09878074328077
 20
46.868652409389711
 40
0.9263073175532966
 50
179.28077569259483
 51
195.35525825784563
  0
ARC
  8
_0-0_
  6
CONTINUOUS
 62
    7
 10
92.09878074328077
 20
47.550175847616742
 40
0.9263073175532966
 50
164.64474174215434
 51
180.71922430740514
  0
ARC
  8
_0-0_
  6
CONTINUOUS
 62
    7
 10
91.362572150009385
 20
47.742065272906643
 40
0.1658629864205163
 50
18.780934832588589
 51
161.21906516741137
  0
ARC
  8
_0-0_
  6
CONTINUOUS
 62
    7
 10
90.626363556737545
 20
47.550175847616742
 40
0.9263073175532966
 50
359.28077569259489
 51
15.355258257845644
  0
ARC
  8
_0-0_
  6
CONTINUOUS
 62
    7
 10
91.362572150009385
 20
47.155070320100663
 40
1.102902967963006
 50
75.730707223577113
 51
104.26929277642292
  0
ARC
  8
_0-0_
  6
CONTINUOUS
 62
    7
 10
91.250640945467296
 20
47.674567800696082
 40
0.5721789663386137
 50
106.22910367774887
 51
160.88187968590617
  0
ARC
  8
_0-0_
  6
CONTINUOUS
 62
    7
 10
91.474503354551018
 20
47.674567800696082
 40
0.5721789663386137
 50
19.118120314093819
 51
73.770896322251133
  0
LINE
  8
_0-0_
  6
CONTINUOUS
 62
    7
 10
86.641301417996658
 20
78.64958501263493
 11
69.963631888333111
 21
61.97191548297144
  0
LINE
  8
_0-0_
  6
CONTINUOUS
 62
    7
 10
69.670738669519324
 20
61.264808701784773
 11
69.670738669519324
 21
44.679022264157652
  0
LINE
  8
_0-0_
  6
CONTINUOUS
 62
    7
 10
70.670738669519324
 20
43.679022264157652
 11
93.67073866951938
 21
43.679022264157652
  0
LINE
  8
_0-0_
  6
CONTINUOUS
 62
    7
 10
94.67073866951938
 20
44.679022264157652
 11
94.67073866951938
 21
71.620147761112207
  0
LINE
  8
_0-0_
  6
CONTINUOUS
 62
    7
 10
94.377845450706047
 20
72.327254542298874
 11
88.055514980369537
 21
78.64958501263493
  0
LINE
  8
_0-0_
  6
CONTINUOUS
 62
    7
 10
82.668108669519427
 20
58.427322264157851
 11
82.668108669519427
 21
57.413212264157778
  0
LINE
  8
_0-0_
  6
CONTINUOUS
 62
    7
 10
81.673318669519631
 20
57.413212264157778
 11
81.673318669519631
 21
58.427322264157851
  0
LINE
  8
_0-0_
  6
CONTINUOUS
 62
    7
 10
80.936478669519147
 20
56.676372264157749
 11
79.922388669519478
 21
56.676372264157749
  0
LINE
  8
_0-0_
  6
CONTINUOUS
 62
    7
 10
79.922388669519478
 20
55.681622264157909
 11
80.936478669519147
 21
55.681622264157909
  0
LINE
  8
_0-0_
  6
CONTINUOUS
 62
    7
 10
81.673318669519631
 20
54.94478226415788
 11
81.673318669519631
 21
53.930722264157907
  0
LINE
  8
_0-0_
  6
CONTINUOUS
 62
    7
 10
82.668108669519427
 20
53.930722264157907
 11
82.668108669519427
 21
54.94478226415788
  0
LINE
  8
_0-0_
  6
CONTINUOUS
 62
    7
 10
83.404948669519456
 20
55.681622264157909
 11
84.418988669519479
 21
55.681622264157909
  0
LINE
  8
_0-0_
  6
CONTINUOUS
 62
    7
 10
84.418988669519479
 20
56.676372264157749
 11
83.404948669519456
 21
56.676372264157749
  0
LINE
  8
_0-0_
  6
CONTINUOUS
 62
    7
 10
84.67073866951938
 20
48.379022264157925
 11
84.67073866951938
 21
45.979022264157834
  0
LINE
  8
_0-0_
  6
CONTINUOUS
 62
    7
 10
84.970738669519108
 20
45.679022264157652
 11
92.370738669519199
 21
45.679022264157652
  0
LINE
  8
_0-0_
  6
CONTINUOUS
 62
    7
 10
92.67073866951938
 20
45.979022264157834
 11
92.67073866951938
 21
48.379022264157925
  0
LINE
  8
_0-0_
  6
CONTINUOUS
 62
    7
 10
92.370738669519199
 20
48.679022264157652
 11
84.970738669519108
 21
48.679022264157652
  0
ARC
  8
_0-0_
  6
CONTINUOUS
 62
    7
 10
93.67073866951938
 20
71.620147761112207
 40
1
 50
0
 51
45
  0
ARC
  8
_0-0_
  6
CONTINUOUS
 62
    7
 10
87.34840819918287
 20
77.942478231448263
 40
1
 50
45.000000000000028
 51
135.00000000000014
  0
ARC
  8
_0-0_
  6
CONTINUOUS
 62
    7
 10
70.670738669519324
 20
61.264808701784773
 40
1
 50
135.00000000000011
 51
180
  0
ARC
  8
_0-0_
  6
CONTINUOUS
 62
    7
 10
93.67073866951938
 20
44.679022264157652
 40
1
 50
270
 51
0
  0
ARC
  8
_0-0_
  6
CONTINUOUS
 62
    7
 10
70.670738669519324
 20
44.679022264157652
 40
1
 50
180
 51
270
  0
CIRCLE
  8
_0-0_
  6
CONTINUOUS
 62
    7
 10
82.170718669519374
 20
56.179012264157905
 40
3.5499999999999998
  0
ARC
  8
_0-0_
  6
CONTINUOUS
 62
    7
 10
80.936478669519147
 20
57.413212264157778
 40
0.7368479999999999
 50
270
 51
0
  0
ARC
  8
_0-0_
  6
CONTINUOUS
 62
    7
 10
83.404948669519456
 20
57.413212264157778
 40
0.7368479999999999
 50
180
 51
270
  0
ARC
  8
_0-0_
  6
CONTINUOUS
 62
    7
 10
83.404948669519456
 20
54.94478226415788
 40
0.7368479999999999
 50
90
 51
180
  0
ARC
  8
_0-0_
  6
CONTINUOUS
 62
    7
 10
80.936478669519147
 20
54.94478226415788
 40
0.7368479999999999
 50
0
 51
90
  0
ARC
  8
_0-0_
  6
CONTINUOUS
 62
    7
 10
82.170738669519324
 20
56.179022264157652
 40
2.3026499999999999
 50
347.52572000000004
 51
12.474280000000022
  0
ARC
  8
_0-0_
  6
CONTINUOUS
 62
    7
 10
82.170738669519324
 20
56.179022264157652
 40
2.3026499999999999
 50
77.525819999999996
 51
102.47418
  0
ARC
  8
_0-0_
  6
CONTINUOUS
 62
    7
 10
82.170738669519324
 20
56.179022264157652
 40
2.3026499999999999
 50
167.52571999999995
 51
192.47426999999996
  0
ARC
  8
_0-0_
  6
CONTINUOUS
 62
    7
 10
82.170738669519324
 20
56.179022264157652
 40
2.3026499999999999
 50
257.52580999999998
 51
282.47417999999999
  0
ARC
  8
_0-0_
  6
CONTINUOUS
 62
    7
 10
84.970738669519108
 20
45.979022264157834
 40
0.2999999999999999
 50
180
 51
270
  0
ARC
  8
_0-0_
  6
CONTINUOUS
 62
    7
 10
84.970738669519108
 20
48.379022264157925
 40
0.2999999999999999
 50
90
 51
180
  0
ARC
  8
_0-0_
  6
CONTINUOUS
 62
    7
 10
92.370738669519199
 20
48.379022264157925
 40
0.2999999999999999
 50
0.0000000000000127
 51
90.000000000000014
  0
ARC
  8
_0-0_
  6
CONTINUOUS
 62
    7
 10
92.370738669519199
 20
45.979022264157834
 40
0.2999999999999999
 50
270
 51
0
  0
ARC
  8
_0-0_
  6
CONTINUOUS
 62
    7
 10
82.140108669519122
 20
6.4789580167793019
 40
0.5999999999999996
 50
90
 51
176.99999999999997
  0
ARC
  8
_0-0_
  6
CONTINUOUS
 62
    7
 10
82.201358669519323
 20
6.4789580167793019
 40
0.5999999999999996
 50
2.999999999999992
 51
90.000000000000028
  0
ARC
  8
_0-0_
  6
CONTINUOUS
 62
    7
 10
81.024008669518935
 20
2.3789580167789381
 40
0.2999999999999998
 50
270
 51
357
  0
ARC
  8
_0-0_
  6
CONTINUOUS
 62
    7
 10
83.317458669519112
 20
2.3789580167789381
 40
0.2999999999999998
 50
183.00000000000003
 51
270
  0
ARC
  8
_0-0_
  6
CONTINUOUS
 62
    7
 10
80.081738669518927
 20
3.078958016779211
 40
1
 50
183.00000000000003
 51
270
  0
ARC
  8
_0-0_
  6
CONTINUOUS
 62
    7
 10
84.25972866951912
 20
3.078958016779211
 40
1
 50
270
 51
357
  0
ARC
  8
_0-0_
  6
CONTINUOUS
 62
    7
 10
70.670738669519324
 20
11.078958016779211
 40
1
 50
90
 51
180
  0
ARC
  8
_0-0_
  6
CONTINUOUS
 62
    7
 10
93.67073866951938
 20
11.078958016779211
 40
1
 50
0
 51
90
  0
LINE
  8
_0-0_
  6
CONTINUOUS
 62
    7
 10
69.670738669519324
 20
11.078958016779211
 11
69.670738669519324
 21
9.078958016779211
  0
LINE
  8
_0-0_
  6
CONTINUOUS
 62
    7
 10
93.67073866951938
 20
12.078958016779211
 11
70.670738669519324
 21
12.078958016779211
  0
LINE
  8
_0-0_
  6
CONTINUOUS
 62
    7
 10
94.67073866951938
 20
9.078958016779211
 11
94.67073866951938
 21
11.078958016779211
  0
LINE
  8
_0-0_
  6
CONTINUOUS
 62
    7
 10
69.670738669519324
 20
9.078958016779211
 11
94.67073866951938
 21
9.078958016779211
  0
LINE
  8
_0-0_
  6
CONTINUOUS
 62
    7
 10
79.083108669519333
 20
3.0266280167792274
 11
78.870738669519142
 21
7.078958016779211
  0
LINE
  8
_0-0_
  6
CONTINUOUS
 62
    7
 10
81.024008669518935
 20
2.078958016779211
 11
80.081738669518927
 21
2.078958016779211
  0
LINE
  8
_0-0_
  6
CONTINUOUS
 62
    7
 10
81.540938669519164
 20
6.510368016778898
 11
81.323598669519015
 21
2.3632580167794686
  0
LINE
  8
_0-0_
  6
CONTINUOUS
 62
    7
 10
83.017878669519234
 20
2.3632580167794686
 11
82.800528669519338
 21
6.510368016778898
  0
LINE
  8
_0-0_
  6
CONTINUOUS
 62
    7
 10
84.25972866951912
 20
2.078958016779211
 11
83.317458669519112
 21
2.078958016779211
  0
LINE
  8
_0-0_
  6
CONTINUOUS
 62
    7
 10
85.470738669519108
 20
7.078958016779211
 11
85.258358669519168
 21
3.0266280167792274
  0
LINE
  8
_0-0_
  6
CONTINUOUS
 62
    7
 10
85.470738669519108
 20
7.078958016779211
 11
85.470738669519108
 21
9.078958016779211
  0
LINE
  8
_0-0_
  6
CONTINUOUS
 62
    7
 10
78.870738669519142
 20
7.078958016779211
 11
85.470738669519108
 21
7.078958016779211
  0
LINE
  8
_0-0_
  6
CONTINUOUS
 62
    7
 10
78.870738669519142
 20
9.078958016779211
 11
78.870738669519142
 21
7.078958016779211
  0
LINE
  8
_0-0_
  6
CONTINUOUS
 62
    7
 10
130.69876121705767
 20
77.942478231448263
 11
130.69876121705767
 21
44.679022264157879
  0
LINE
  8
_0-0_
  6
CONTINUOUS
 62
    7
 10
131.69876121705767
 20
43.679022264157879
 11
133.69876121705767
 21
43.679022264157879
  0
LINE
  8
_0-0_
  6
CONTINUOUS
 62
    7
 10
133.69876121705767
 20
43.679022264157879
 11
133.69876121705767
 21
78.942478231448263
  0
LINE
  8
_0-0_
  6
CONTINUOUS
 62
    7
 10
133.69876121705767
 20
78.942478231448263
 11
131.69876121705767
 21
78.942478231448263
  0
LINE
  8
_0-0_
  6
CONTINUOUS
 62
    7
 10
133.69876121705767
 20
61.079022264157743
 11
135.39876121705794
 21
61.079022264157743
  0
LINE
  8
_0-0_
  6
CONTINUOUS
 62
    7
 10
135.69876121705767
 20
60.779022264158016
 11
135.69876121705767
 21
51.57902226415797
  0
LINE
  8
_0-0_
  6
CONTINUOUS
 62
    7
 10
135.39876121705794
 20
51.279022264157788
 11
133.69876121705767
 21
51.279022264157788
  0
LINE
  8
_0-0_
  6
CONTINUOUS
 62
    7
 10
135.69876121705767
 20
52.679022264157879
 11
139.27726515142223
 21
52.866563708513581
  0
LINE
  8
_0-0_
  6
CONTINUOUS
 62
    7
 10
140.69876121705767
 20
54.364508010645636
 11
140.69876121705767
 21
57.993536517670577
  0
LINE
  8
_0-0_
  6
CONTINUOUS
 62
    7
 10
139.27726515142223
 20
59.491480819802177
 11
135.69876121705767
 21
59.679022264157879
  0
ARC
  8
_0-0_
  6
CONTINUOUS
 62
    7
 10
139.19876121705767
 20
54.364508010645636
 40
1.5
 50
273.00000000000017
 51
0
  0
ARC
  8
_0-0_
  6
CONTINUOUS
 62
    7
 10
139.19876121705767
 20
57.993536517670577
 40
1.5
 50
0.0000000000000063
 51
86.999999999999829
  0
ARC
  8
_0-0_
  6
CONTINUOUS
 62
    7
 10
135.39876121705794
 20
51.57902226415797
 40
0.2999999999999999
 50
270
 51
0
  0
ARC
  8
_0-0_
  6
CONTINUOUS
 62
    7
 10
135.39876121705794
 20
60.779022264158016
 40
0.2999999999999999
 50
0.0000000000000063
 51
90
  0
ARC
  8
_0-0_
  6
CONTINUOUS
 62
    7
 10
131.69876121705767
 20
44.679022264157879
 40
1
 50
179.99999999999997
 51
270
  0
ARC
  8
_0-0_
  6
CONTINUOUS
 62
    7
 10
131.69876121705767
 20
77.942478231448263
 40
1
 50
89.999999999999972
 51
179.99999999999997
  0
LINE
  8
_0-0_
  6
CONTINUOUS
 62
    7
 10
9.9343735786776506
 20
45.021792058750066
 11
9.4033841732150449
 21
45.021792058750066
  0
LINE
  8
_0-0_
  6
CONTINUOUS
 62
    7
 10
9.4008534361389593
 20
45.757452678790173
 11
9.9209540822760118
 21
45.757452678790173
  0
LINE
  8
_0-0_
  6
CONTINUOUS
 62
    7
 10
8.0974113996560391
 20
46.003208948558836
 11
8.0974113996560391
 21
46.367166885310212
  0
LINE
  8
_0-0_
  6
CONTINUOUS
 62
    7
 10
8.0974113996560391
 20
46.367166885310212
 11
6.6676966081120099
 21
46.367166885310212
  0
LINE
  8
_0-0_
  6
CONTINUOUS
 62
    7
 10
6.6676966081120099
 20
46.367166885310212
 11
6.6676966081120099
 21
44.325605642710229
  0
LINE
  8
_0-0_
  6
CONTINUOUS
 62
    7
 10
6.6676966081120099
 20
44.325605642710229
 11
8.0974113996560391
 21
44.325605642710229
  0
LINE
  8
_0-0_
  6
CONTINUOUS
 62
    7
 10
8.0974113996560391
 20
44.325605642710229
 11
8.0974113996560391
 21
44.689563579490255
  0
LINE
  8
_0-0_
  6
CONTINUOUS
 62
    7
 10
8.0974113996560391
 20
44.689563579490255
 11
7.1749966935519751
 21
44.689563579490255
  0
LINE
  8
_0-0_
  6
CONTINUOUS
 62
    7
 10
7.1749966935519751
 20
44.689563579490255
 11
7.1749966935519751
 21
45.188113556639905
  0
LINE
  8
_0-0_
  6
CONTINUOUS
 62
    7
 10
7.1749966935519751
 20
45.188113556639905
 11
8.0094503685293148
 21
45.188113556639905
  0
LINE
  8
_0-0_
  6
CONTINUOUS
 62
    7
 10
8.0094503685293148
 20
45.188113556639905
 11
8.0094503685293148
 21
45.529764634620165
  0
LINE
  8
_0-0_
  6
CONTINUOUS
 62
    7
 10
8.0094503685293148
 20
45.529764634620165
 11
7.1749966935519751
 21
45.529764634620165
  0
LINE
  8
_0-0_
  6
CONTINUOUS
 62
    7
 10
7.1749966935519751
 20
45.529764634620165
 11
7.1749966935519751
 21
46.003208948558836
  0
LINE
  8
_0-0_
  6
CONTINUOUS
 62
    7
 10
7.1749966935519751
 20
46.003208948558836
 11
8.0974113996560391
 21
46.003208948558836
  0
LINE
  8
_0-0_
  6
CONTINUOUS
 62
    7
 10
5.3546630540192837
 20
46.367166885310212
 11
4.8455575256191423
 21
46.367166885310212
  0
LINE
  8
_0-0_
  6
CONTINUOUS
 62
    7
 10
4.8455575256191423
 20
46.367166885310212
 11
4.8455575256191423
 21
44.325605642710229
  0
LINE
  8
_0-0_
  6
CONTINUOUS
 62
    7
 10
4.8455575256191423
 20
44.325605642710229
 11
6.2749003019337124
 21
44.325605642710229
  0
LINE
  8
_0-0_
  6
CONTINUOUS
 62
    7
 10
6.2749003019337124
 20
44.325605642710229
 11
6.2749003019337124
 21
44.689563579490255
  0
LINE
  8
_0-0_
  6
CONTINUOUS
 62
    7
 10
6.2749003019337124
 20
44.689563579490255
 11
5.3546630540192837
 21
44.689563579490255
  0
LINE
  8
_0-0_
  6
CONTINUOUS
 62
    7
 10
5.3546630540192837
 20
44.689563579490255
 11
5.3546630540192837
 21
46.367166885310212
  0
ARC
  8
_0-0_
  6
CONTINUOUS
 62
    7
 10
10.869404866362629
 20
45.346386264010448
 40
2.3989863444973807
 50
164.21600247589294
 51
195.78399752410709
  0
ARC
  8
_0-0_
  6
CONTINUOUS
 62
    7
 10
15.106575464329353
 20
45.346386264005901
 40
6.0927389498109967
 50
176.78919008197266
 51
183.21080991802734
  0
ARC
  8
_0-0_
  6
CONTINUOUS
 62
    7
 10
9.101495346814545
 20
44.881232591817366
 40
0.5721789663386137
 50
199.11812031409383
 51
253.77089632225113
  0
ARC
  8
_0-0_
  6
CONTINUOUS
 62
    7
 10
9.2134265513566334
 20
45.400730072412784
 40
1.102902967963006
 50
255.7307072235771
 51
284.2692927764229
  0
ARC
  8
_0-0_
  6
CONTINUOUS
 62
    7
 10
9.3253577558987217
 20
44.881232591817366
 40
0.5721789663386137
 50
286.22910367774887
 51
340.8818796859062
  0
ARC
  8
_0-0_
  6
CONTINUOUS
 62
    7
 10
7.5574482363506377
 20
45.346386264010448
 40
2.3989863444973807
 50
344.21600247589294
 51
352.22375855280194
  0
ARC
  8
_0-0_
  6
CONTINUOUS
 62
    7
 10
9.2134265513566334
 20
44.813735119606804
 40
0.1658629864205163
 50
198.7809348325886
 51
341.21906516741143
  0
ARC
  8
_0-0_
  6
CONTINUOUS
 62
    7
 10
8.4772179580847933
 20
45.005624544896705
 40
0.9263073175532966
 50
344.64474174215434
 51
1.000075600874925
  0
ARC
  8
_0-0_
  6
CONTINUOUS
 62
    7
 10
9.9496351446280187
 20
45.005624544896705
 40
0.9263073175532966
 50
179.28077569259483
 51
195.35525825784563
  0
ARC
  8
_0-0_
  6
CONTINUOUS
 62
    7
 10
9.2134265513566334
 20
45.879037408413637
 40
0.1658629864205163
 50
18.780934832588589
 51
161.21906516741137
  0
ARC
  8
_0-0_
  6
CONTINUOUS
 62
    7
 10
9.9496351446280187
 20
45.687147983123737
 40
0.9263073175532966
 50
164.64474174215434
 51
180.71922430740514
  0
ARC
  8
_0-0_
  6
CONTINUOUS
 62
    7
 10
8.4772179580847933
 20
45.687147983123737
 40
0.9263073175532966
 50
4.3528100028009122
 51
15.355258257845675
  0
ARC
  8
_0-0_
  6
CONTINUOUS
 62
    7
 10
9.3253577558987217
 20
45.811539936203076
 40
0.5721789663386137
 50
19.118120314093819
 51
73.770896322251133
  0
ARC
  8
_0-0_
  6
CONTINUOUS
 62
    7
 10
7.5574482363506377
 20
45.346386264010448
 40
2.3989863444973807
 50
9.8663227198208787
 51
15.783997524107056
  0
ARC
  8
_0-0_
  6
CONTINUOUS
 62
    7
 10
9.2134265513566334
 20
45.292042455607657
 40
1.102902967963006
 50
75.730707223577113
 51
104.2692927764229
  0
ARC
  8
_0-0_
  6
CONTINUOUS
 62
    7
 10
9.101495346814545
 20
45.811539936203076
 40
0.5721789663386137
 50
106.22910367774887
 51
160.88187968590617
  0
ARC
  8
_0-0_
  6
CONTINUOUS
 62
    7
 10
12.658697166392585
 20
45.346386264010448
 40
2.3989863444973807
 50
164.21600247589294
 51
195.78399752410709
  0
ARC
  8
_0-0_
  6
CONTINUOUS
 62
    7
 10
16.895867764358854
 20
45.346386264005901
 40
6.0927389498109967
 50
176.78919008197266
 51
183.21080991802734
  0
ARC
  8
_0-0_
  6
CONTINUOUS
 62
    7
 10
5.1095699384129603
 20
45.346386264005901
 40
6.0927389498109967
 50
356.78919008197266
 51
3.2108099180273384
  0
ARC
  8
_0-0_
  6
CONTINUOUS
 62
    7
 10
11.002718851386135
 20
44.813735119606804
 40
0.1658629864205163
 50
198.7809348325886
 51
341.21906516741143
  0
ARC
  8
_0-0_
  6
CONTINUOUS
 62
    7
 10
11.002718851386135
 20
45.400730072412784
 40
1.102902967963006
 50
255.7307072235771
 51
284.2692927764229
  0
ARC
  8
_0-0_
  6
CONTINUOUS
 62
    7
 10
11.114650055927768
 20
44.881232591817366
 40
0.5721789663386137
 50
286.22910367774887
 51
340.8818796859062
  0
ARC
  8
_0-0_
  6
CONTINUOUS
 62
    7
 10
10.890787646844501
 20
44.881232591817366
 40
0.5721789663386137
 50
199.11812031409383
 51
253.77089632225113
  0
ARC
  8
_0-0_
  6
CONTINUOUS
 62
    7
 10
9.3467405363796843
 20
45.346386264010448
 40
2.3989863444973807
 50
344.21600247589294
 51
15.783997524107075
  0
ARC
  8
_0-0_
  6
CONTINUOUS
 62
    7
 10
10.266510258114749
 20
45.005624544896705
 40
0.9263073175532966
 50
344.64474174215434
 51
0.7192243074051015
  0
ARC
  8
_0-0_
  6
CONTINUOUS
 62
    7
 10
11.73892744465752
 20
45.005624544896705
 40
0.9263073175532966
 50
179.28077569259483
 51
195.35525825784563
  0
ARC
  8
_0-0_
  6
CONTINUOUS
 62
    7
 10
11.73892744465752
 20
45.687147983123737
 40
0.9263073175532966
 50
164.64474174215434
 51
180.71922430740514
  0
ARC
  8
_0-0_
  6
CONTINUOUS
 62
    7
 10
11.002718851386135
 20
45.879037408413637
 40
0.1658629864205163
 50
18.780934832588589
 51
161.21906516741137
  0
ARC
  8
_0-0_
  6
CONTINUOUS
 62
    7
 10
10.266510258114749
 20
45.687147983123737
 40
0.9263073175532966
 50
359.28077569259489
 51
15.355258257845644
  0
ARC
  8
_0-0_
  6
CONTINUOUS
 62
    7
 10
11.002718851386135
 20
45.292042455607657
 40
1.102902967963006
 50
75.730707223577113
 51
104.2692927764229
  0
ARC
  8
_0-0_
  6
CONTINUOUS
 62
    7
 10
10.890787646844501
 20
45.811539936203076
 40
0.5721789663386137
 50
106.22910367774887
 51
160.88187968590617
  0
ARC
  8
_0-0_
  6
CONTINUOUS
 62
    7
 10
11.114650055927768
 20
45.811539936203076
 40
0.5721789663386137
 50
19.118120314093819
 51
73.770896322251133
  0
LINE
  8
_0-0_
  6
CONTINUOUS
 62
    7
 10
27.310885370896131
 20
42.815994399664646
 11
27.310885370896131
 21
59.401780837291767
  0
LINE
  8
_0-0_
  6
CONTINUOUS
 62
    7
 10
27.017992152082797
 20
60.108887618478434
 11
10.340322622418853
 21
76.786557148141924
  0
LINE
  8
_0-0_
  6
CONTINUOUS
 62
    7
 10
8.9261090600459738
 20
76.786557148141924
 11
2.6037785897094636
 21
70.464226677805868
  0
LINE
  8
_0-0_
  6
CONTINUOUS
 62
    7
 10
2.3108853708961306
 20
69.757119896619201
 11
2.3108853708961306
 21
42.815994399664646
  0
LINE
  8
_0-0_
  6
CONTINUOUS
 62
    7
 10
3.3108853708961306
 20
41.815994399664646
 11
26.310885370896131
 21
41.815994399664646
  0
LINE
  8
_0-0_
  6
CONTINUOUS
 62
    7
 10
12.310885370896131
 20
44.115994399664828
 11
12.310885370896131
 21
46.515994399664919
  0
LINE
  8
_0-0_
  6
CONTINUOUS
 62
    7
 10
12.010885370895949
 20
46.815994399664646
 11
4.6108853708963125
 21
46.815994399664646
  0
LINE
  8
_0-0_
  6
CONTINUOUS
 62
    7
 10
4.3108853708961306
 20
46.515994399664919
 11
4.3108853708961306
 21
44.115994399664828
  0
LINE
  8
_0-0_
  6
CONTINUOUS
 62
    7
 10
4.6108853708963125
 20
43.815994399664646
 11
12.010885370895949
 21
43.815994399664646
  0
LINE
  8
_0-0_
  6
CONTINUOUS
 62
    7
 10
14.313515370896084
 20
52.067694399664902
 11
14.313515370896084
 21
53.081754399664874
  0
LINE
  8
_0-0_
  6
CONTINUOUS
 62
    7
 10
15.308305370895823
 20
53.081754399664874
 11
15.308305370895823
 21
52.067694399664902
  0
LINE
  8
_0-0_
  6
CONTINUOUS
 62
    7
 10
16.045145370896307
 20
53.818594399664903
 11
17.059235370895976
 21
53.818594399664903
  0
LINE
  8
_0-0_
  6
CONTINUOUS
 62
    7
 10
17.059235370895976
 20
54.813344399664743
 11
16.045145370896307
 21
54.813344399664743
  0
LINE
  8
_0-0_
  6
CONTINUOUS
 62
    7
 10
15.308305370895823
 20
55.550184399664772
 11
15.308305370895823
 21
56.564294399664846
  0
LINE
  8
_0-0_
  6
CONTINUOUS
 62
    7
 10
14.313515370896084
 20
56.564294399664846
 11
14.313515370896084
 21
55.550184399664772
  0
LINE
  8
_0-0_
  6
CONTINUOUS
 62
    7
 10
13.57667537089651
 20
54.813344399664743
 11
12.562635370896487
 21
54.813344399664743
  0
LINE
  8
_0-0_
  6
CONTINUOUS
 62
    7
 10
12.562635370896487
 20
53.818594399664903
 11
13.57667537089651
 21
53.818594399664903
  0
ARC
  8
_0-0_
  6
CONTINUOUS
 62
    7
 10
3.3108853708961306
 20
69.757119896619201
 40
1
 50
135
 51
180
  0
ARC
  8
_0-0_
  6
CONTINUOUS
 62
    7
 10
9.6332158412326407
 20
76.079450366955257
 40
1
 50
44.999999999999844
 51
134.99999999999994
  0
ARC
  8
_0-0_
  6
CONTINUOUS
 62
    7
 10
26.310885370896131
 20
59.401780837291767
 40
1
 50
0.0000000000000098
 51
44.999999999999893
  0
ARC
  8
_0-0_
  6
CONTINUOUS
 62
    7
 10
3.3108853708961306
 20
42.815994399664646
 40
1
 50
180
 51
270
  0
ARC
  8
_0-0_
  6
CONTINUOUS
 62
    7
 10
26.310885370896131
 20
42.815994399664646
 40
1
 50
270
 51
0
  0
ARC
  8
_0-0_
  6
CONTINUOUS
 62
    7
 10
4.6108853708963125
 20
44.115994399664828
 40
0.2999999999999999
 50
180
 51
270
  0
ARC
  8
_0-0_
  6
CONTINUOUS
 62
    7
 10
4.6108853708963125
 20
46.515994399664919
 40
0.2999999999999999
 50
90
 51
180
  0
ARC
  8
_0-0_
  6
CONTINUOUS
 62
    7
 10
12.010885370895949
 20
46.515994399664919
 40
0.2999999999999999
 50
0
 51
90
  0
ARC
  8
_0-0_
  6
CONTINUOUS
 62
    7
 10
12.010885370895949
 20
44.115994399664828
 40
0.2999999999999999
 50
270
 51
0
  0
CIRCLE
  8
_0-0_
  6
CONTINUOUS
 62
    7
 10
14.810905370896535
 20
54.315984399664899
 40
3.5499999999999998
  0
ARC
  8
_0-0_
  6
CONTINUOUS
 62
    7
 10
16.045145370896307
 20
55.550184399664772
 40
0.7368479999999999
 50
180
 51
270
  0
ARC
  8
_0-0_
  6
CONTINUOUS
 62
    7
 10
13.57667537089651
 20
55.550184399664772
 40
0.7368479999999999
 50
270
 51
0
  0
ARC
  8
_0-0_
  6
CONTINUOUS
 62
    7
 10
13.57667537089651
 20
53.081754399664874
 40
0.7368479999999999
 50
0
 51
90
  0
ARC
  8
_0-0_
  6
CONTINUOUS
 62
    7
 10
16.045145370896307
 20
53.081754399664874
 40
0.7368479999999999
 50
90
 51
180
  0
ARC
  8
_0-0_
  6
CONTINUOUS
 62
    7
 10
14.810885370896131
 20
54.315994399664646
 40
2.3026499999999999
 50
167.52571999999995
 51
192.47427999999994
  0
ARC
  8
_0-0_
  6
CONTINUOUS
 62
    7
 10
14.810885370896131
 20
54.315994399664646
 40
2.3026499999999999
 50
77.525819999999996
 51
102.47418
  0
ARC
  8
_0-0_
  6
CONTINUOUS
 62
    7
 10
14.810885370896131
 20
54.315994399664646
 40
2.3026499999999999
 50
347.52573000000001
 51
12.474280000000038
  0
ARC
  8
_0-0_
  6
CONTINUOUS
 62
    7
 10
14.810885370896131
 20
54.315994399664646
 40
2.3026499999999999
 50
257.52582000000001
 51
282.47419000000002
  0
LINE
  8
_0-1_
  6
CENTER1
 62
  152
 10
82.170738669519324
 20
59.729022264157834
 11
82.170738669519324
 21
52.629022264157925
  0
LINE
  8
_0-1_
  6
CENTER1
 62
  152
 10
78.620738669519596
 20
56.179022264157652
 11
85.720738669519562
 21
56.179022264157652
  0
LINE
  8
_0-1_
  6
CENTER1
 62
  152
 10
82.170738669519324
 20
12.078958016779211
 11
82.170738669519324
 21
2.078958016779211
  0
LINE
  8
_0-1_
  6
CENTER1
 62
  152
 10
130.00060558300885
 20
56.179022264157652
 11
141.20907537933891
 21
56.179022264157652
  0
LINE
  8
_0-1_
  6
CENTER1
 62
  152
 10
11.260885370895949
 20
54.315994399664646
 11
18.360885370896312
 21
54.315994399664646
  0
LINE
  8
_0-1_
  6
CENTER1
 62
  152
 10
14.810885370896131
 20
50.765994399664919
 11
14.810885370896131
 21
57.865994399664828
  0
TEXT
  8
_0-1_
 62
    7
 10
64.714108995536208
 20
72.006354324637527
 40
4.2999999999999998
 41
0.744186046511628
 50
0
  1
E25A-R
  0
TEXT
  8
_0-1_
 62
    7
 10
20.829452631923232
 20
72.006354324637527
 40
4.2999999999999998
 41
0.744186046511628
 50
0
  1
E25A-L
  0
ENDSEC
  0
EOF
